  0
SECTION
  2
HEADER
  9
$ACADVER
  1
AC1015
  9
$ACADMAINTVER
 70
    20
  9
$DWGCODEPAGE
  3
ANSI_932
  9
$INSBASE
 10
0.0
 20
0.0
 30
0.0
  9
$EXTMIN
 10
5136.149307372471
 20
-4010.84711005381
 30
0.0
  9
$EXTMAX
 10
6052.104163962693
 20
-3461.847111061263
 30
137.5
  9
$LIMMIN
 10
0.0
 20
0.0
  9
$LIMMAX
 10
420.0
 20
297.0
  9
$ORTHOMODE
 70
     1
  9
$REGENMODE
 70
     1
  9
$FILLMODE
 70
     1
  9
$QTEXTMODE
 70
     0
  9
$MIRRTEXT
 70
     0
  9
$LTSCALE
 40
1.0
  9
$ATTMODE
 70
     1
  9
$TEXTSIZE
 40
0.2
  9
$TRACEWID
 40
1.0
  9
$TEXTSTYLE
  7
まこ
  9
$CLAYER
  8
細線
  9
$CELTYPE
  6
BYLAYER
  9
$CECOLOR
 62
   256
  9
$CELTSCALE
 40
1.0
  9
$DISPSILH
 70
     0
  9
$DIMSCALE
 40
2.5
  9
$DIMASZ
 40
2.5
  9
$DIMEXO
 40
1.0
  9
$DIMDLI
 40
0.38
  9
$DIMRND
 40
0.0
  9
$DIMDLE
 40
0.0
  9
$DIMEXE
 40
1.0
  9
$DIMTP
 40
0.0
  9
$DIMTM
 40
0.0
  9
$DIMTXT
 40
2.5
  9
$DIMCEN
 40
0.0
  9
$DIMTSZ
 40
0.0
  9
$DIMTOL
 70
     0
  9
$DIMLIM
 70
     0
  9
$DIMTIH
 70
     0
  9
$DIMTOH
 70
     0
  9
$DIMSE1
 70
     0
  9
$DIMSE2
 70
     0
  9
$DIMTAD
 70
     3
  9
$DIMZIN
 70
     8
  9
$DIMBLK
  1
Open30
  9
$DIMASO
 70
     1
  9
$DIMSHO
 70
     1
  9
$DIMPOST
  1

  9
$DIMAPOST
  1

  9
$DIMALT
 70
     0
  9
$DIMALTD
 70
     2
  9
$DIMALTF
 40
25.4
  9
$DIMLFAC
 40
1.0
  9
$DIMTOFL
 70
     1
  9
$DIMTVP
 40
0.0
  9
$DIMTIX
 70
     0
  9
$DIMSOXD
 70
     0
  9
$DIMSAH
 70
     0
  9
$DIMBLK1
  1

  9
$DIMBLK2
  1

  9
$DIMSTYLE
  2
STANDARD
  9
$DIMCLRD
 70
     4
  9
$DIMCLRE
 70
     4
  9
$DIMCLRT
 70
   256
  9
$DIMTFAC
 40
1.0
  9
$DIMGAP
 40
1.0
  9
$DIMJUST
 70
     0
  9
$DIMSD1
 70
     0
  9
$DIMSD2
 70
     0
  9
$DIMTOLJ
 70
     1
  9
$DIMTZIN
 70
     0
  9
$DIMALTZ
 70
     0
  9
$DIMALTTZ
 70
     0
  9
$DIMUPT
 70
     0
  9
$DIMDEC
 70
     3
  9
$DIMTDEC
 70
     3
  9
$DIMALTU
 70
     2
  9
$DIMALTTD
 70
     2
  9
$DIMTXSTY
  7
STANDARD
  9
$DIMAUNIT
 70
     0
  9
$DIMADEC
 70
     3
  9
$DIMALTRND
 40
0.0
  9
$DIMAZIN
 70
     2
  9
$DIMDSEP
 70
    46
  9
$DIMATFIT
 70
     1
  9
$DIMFRAC
 70
     0
  9
$DIMLDRBLK
  1
Open30
  9
$DIMLUNIT
 70
     2
  9
$DIMLWD
 70
    13
  9
$DIMLWE
 70
    13
  9
$DIMTMOVE
 70
     0
  9
$LUNITS
 70
     2
  9
$LUPREC
 70
     4
  9
$SKETCHINC
 40
1.0
  9
$FILLETRAD
 40
35.0
  9
$AUNITS
 70
     0
  9
$AUPREC
 70
     0
  9
$MENU
  1
.
  9
$ELEVATION
 40
0.0
  9
$PELEVATION
 40
0.0
  9
$THICKNESS
 40
0.0
  9
$LIMCHECK
 70
     0
  9
$CHAMFERA
 40
5.0
  9
$CHAMFERB
 40
5.0
  9
$CHAMFERC
 40
20.0
  9
$CHAMFERD
 40
0.0
  9
$SKPOLY
 70
     0
  9
$TDCREATE
 40
2452479.723113426
  9
$TDUCREATE
 40
2452479.348123183
  9
$TDUPDATE
 40
2458554.388715278
  9
$TDUUPDATE
 40
2458554.013715278
  9
$TDINDWG
 40
15.7615951968
  9
$TDUSRTIMER
 40
2458551.209585127
  9
$USRTIMER
 70
     1
  9
$ANGBASE
 50
0.0
  9
$ANGDIR
 70
     0
  9
$PDMODE
 70
     0
  9
$PDSIZE
 40
0.0
  9
$PLINEWID
 40
0.0
  9
$SPLFRAME
 70
     0
  9
$SPLINETYPE
 70
     6
  9
$SPLINESEGS
 70
     8
  9
$HANDSEED
  5
9E0A2
  9
$SURFTAB1
 70
     6
  9
$SURFTAB2
 70
     6
  9
$SURFTYPE
 70
     6
  9
$SURFU
 70
     6
  9
$SURFV
 70
     6
  9
$UCSBASE
  2

  9
$UCSNAME
  2

  9
$UCSORG
 10
0.0
 20
0.0
 30
0.0
  9
$UCSXDIR
 10
1.0
 20
0.0
 30
0.0
  9
$UCSYDIR
 10
0.0
 20
1.0
 30
0.0
  9
$UCSORTHOREF
  2

  9
$UCSORTHOVIEW
 70
     0
  9
$UCSORGTOP
 10
0.0
 20
0.0
 30
0.0
  9
$UCSORGBOTTOM
 10
0.0
 20
0.0
 30
0.0
  9
$UCSORGLEFT
 10
0.0
 20
0.0
 30
0.0
  9
$UCSORGRIGHT
 10
0.0
 20
0.0
 30
0.0
  9
$UCSORGFRONT
 10
0.0
 20
0.0
 30
0.0
  9
$UCSORGBACK
 10
0.0
 20
0.0
 30
0.0
  9
$PUCSBASE
  2

  9
$PUCSNAME
  2

  9
$PUCSORG
 10
0.0
 20
0.0
 30
0.0
  9
$PUCSXDIR
 10
1.0
 20
0.0
 30
0.0
  9
$PUCSYDIR
 10
0.0
 20
1.0
 30
0.0
  9
$PUCSORTHOREF
  2

  9
$PUCSORTHOVIEW
 70
     0
  9
$PUCSORGTOP
 10
0.0
 20
0.0
 30
0.0
  9
$PUCSORGBOTTOM
 10
0.0
 20
0.0
 30
0.0
  9
$PUCSORGLEFT
 10
0.0
 20
0.0
 30
0.0
  9
$PUCSORGRIGHT
 10
0.0
 20
0.0
 30
0.0
  9
$PUCSORGFRONT
 10
0.0
 20
0.0
 30
0.0
  9
$PUCSORGBACK
 10
0.0
 20
0.0
 30
0.0
  9
$USERI1
 70
     0
  9
$USERI2
 70
     0
  9
$USERI3
 70
     0
  9
$USERI4
 70
     0
  9
$USERI5
 70
     0
  9
$USERR1
 40
10.0
  9
$USERR2
 40
0.0
  9
$USERR3
 40
0.0
  9
$USERR4
 40
0.0
  9
$USERR5
 40
0.0
  9
$WORLDVIEW
 70
     1
  9
$SHADEDGE
 70
     3
  9
$SHADEDIF
 70
    70
  9
$TILEMODE
 70
     0
  9
$MAXACTVP
 70
    48
  9
$PINSBASE
 10
0.0
 20
0.0
 30
0.0
  9
$PLIMCHECK
 70
     0
  9
$PEXTMIN
 10
1.049999999999999
 20
0.6999999999999998
 30
0.0
  9
$PEXTMAX
 10
9.449999999999999
 20
6.3
 30
0.0
  9
$PLIMMIN
 10
0.0
 20
0.0
  9
$PLIMMAX
 10
0.0
 20
0.0
  9
$UNITMODE
 70
     0
  9
$VISRETAIN
 70
     1
  9
$PLINEGEN
 70
     0
  9
$PSLTSCALE
 70
     1
  9
$TREEDEPTH
 70
  3020
  9
$CMLSTYLE
  2
STANDARD
  9
$CMLJUST
 70
     0
  9
$CMLSCALE
 40
20.0
  9
$PROXYGRAPHICS
 70
     1
  9
$MEASUREMENT
 70
     0
  9
$CELWEIGHT
370
    -1
  9
$ENDCAPS
280
     0
  9
$JOINSTYLE
280
     0
  9
$LWDISPLAY
290
     1
  9
$INSUNITS
 70
     0
  9
$HYPERLINKBASE
  1

  9
$STYLESHEET
  1
monochrome.ctb
  9
$XEDIT
290
     1
  9
$CEPSNTYPE
380
     0
  9
$PSTYLEMODE
290
     1
  9
$FINGERPRINTGUID
  2
{6B368F64-F7EB-11D4-BFBA-00004C030E53}
  9
$VERSIONGUID
  2
{9FF865EF-9248-A947-8566-985B17CA725A}
  9
$EXTNAMES
290
     1
  9
$PSVPSCALE
 40
0.5
  9
$OLESTARTUP
290
     0
  0
ENDSEC
  0
SECTION
  2
CLASSES
  0
CLASS
  1
ACDBDICTIONARYWDFLT
  2
AcDbDictionaryWithDefault
  3
ObjectDBX Classes
 90
        0
280
     0
281
     0
  0
CLASS
  1
ACDBPLACEHOLDER
  2
AcDbPlaceHolder
  3
ObjectDBX Classes
 90
        0
280
     0
281
     0
  0
CLASS
  1
LAYOUT
  2
AcDbLayout
  3
ObjectDBX Classes
 90
        0
280
     0
281
     0
  0
CLASS
  1
DICTIONARYVAR
  2
AcDbDictionaryVar
  3
ObjectDBX Classes
 90
        0
280
     0
281
     0
  0
CLASS
  1
MATERIAL
  2
AcDbMaterial
  3
ObjectDBX Classes
 90
     1153
280
     0
281
     0
  0
CLASS
  1
VISUALSTYLE
  2
AcDbVisualStyle
  3
ObjectDBX Classes
 90
     4095
280
     0
281
     0
  0
CLASS
  1
TABLESTYLE
  2
AcDbTableStyle
  3
ObjectDBX Classes
 90
     4095
280
     0
281
     0
  0
CLASS
  1
SCALE
  2
AcDbScale
  3
ObjectDBX Classes
 90
     1153
280
     0
281
     0
  0
CLASS
  1
MLEADERSTYLE
  2
AcDbMLeaderStyle
  3
ACDB_MLEADERSTYLE_CLASS
 90
     4095
280
     0
281
     0
  0
CLASS
  1
SORTENTSTABLE
  2
AcDbSortentsTable
  3
ObjectDBX Classes
 90
    32768
280
     0
281
     0
  0
CLASS
  1
CELLSTYLEMAP
  2
AcDbCellStyleMap
  3
ObjectDBX Classes
 90
     1152
280
     0
281
     0
  0
CLASS
  1
SUN
  2
AcDbSun
  3
SCENEOE
 90
     1153
280
     0
281
     0
  0
CLASS
  1
RASTERVARIABLES
  2
AcDbRasterVariables
  3
ISM
 90
        0
280
     0
281
     0
  0
CLASS
  1
ACDBSECTIONVIEWSTYLE
  2
AcDbSectionViewStyle
  3
ObjectDBX Classes
 90
     1025
280
     0
281
     0
  0
CLASS
  1
ACDBDETAILVIEWSTYLE
  2
AcDbDetailViewStyle
  3
ObjectDBX Classes
 90
     1025
280
     0
281
     0
  0
ENDSEC
  0
SECTION
  2
TABLES
  0
TABLE
  2
VPORT
  5
8
330
0
100
AcDbSymbolTable
 70
     1
  0
VPORT
  5
8865F
330
8
100
AcDbSymbolTableRecord
100
AcDbViewportTableRecord
  2
*Active
 70
     0
 10
0.0
 20
0.0
 11
1.0
 21
1.0
 12
5947.555392442194
 22
-3709.042103557262
 13
-147.9468458676922
 23
19.55743956420332
 14
10.0
 24
10.0
 15
10.0
 25
10.0
 16
0.0
 26
0.0
 36
1.0
 17
0.0
 27
0.0
 37
0.0
 40
1093.710935492961
 41
3.337552742616033
 42
50.0
 43
0.0
 44
0.0
 50
0.0
 51
0.0
 71
    16
 72
   100
 73
     1
 74
     0
 75
     0
 76
     0
 77
     0
 78
     0
281
     0
 65
     1
110
0.0
120
0.0
130
0.0
111
1.0
121
0.0
131
0.0
112
0.0
122
1.0
132
0.0
 79
     0
146
0.0
1001
ACAD_NAV_VCDISPLAY
1070
     3
  0
ENDTAB
  0
TABLE
  2
LTYPE
  5
5
330
0
100
AcDbSymbolTable
 70
     3
  0
LTYPE
  5
12
330
5
100
AcDbSymbolTableRecord
100
AcDbLinetypeTableRecord
  2
BYBLOCK
 70
     0
  3

 72
    65
 73
     0
 40
0.0
  0
LTYPE
  5
13
330
5
100
AcDbSymbolTableRecord
100
AcDbLinetypeTableRecord
  2
BYLAYER
 70
     0
  3

 72
    65
 73
     0
 40
0.0
  0
LTYPE
  5
14
330
5
100
AcDbSymbolTableRecord
100
AcDbLinetypeTableRecord
  2
CONTINUOUS
 70
     0
  3
Solid line
 72
    65
 73
     0
 40
0.0
  0
LTYPE
  5
969
330
5
100
AcDbSymbolTableRecord
100
AcDbLinetypeTableRecord
  2
CENTER2
 70
     0
  3
Center (.5x) ___ _ ___ _ ___ _ ___ _ ___ _ ___
 72
    65
 73
     4
 40
28.575
 49
19.05
 74
     0
 49
-3.174999999999999
 74
     0
 49
3.174999999999999
 74
     0
 49
-3.174999999999999
 74
     0
  0
LTYPE
  5
80435
330
5
100
AcDbSymbolTableRecord
100
AcDbLinetypeTableRecord
  2
CENTER
 70
     0
  3
Center ____ _ ____ _ ____ _ ____ _ ____ _ ____
 72
    65
 73
     4
 40
50.8
 49
31.75
 74
     0
 49
-6.349999999999999
 74
     0
 49
6.349999999999999
 74
     0
 49
-6.349999999999999
 74
     0
  0
ENDTAB
  0
TABLE
  2
LAYER
  5
2
102
{ACAD_XDICTIONARY
360
1E591
102
}
330
0
100
AcDbSymbolTable
 70
     9
  0
LAYER
  5
E
102
{ACAD_XDICTIONARY
360
886FF
102
}
330
2
100
AcDbSymbolTableRecord
100
AcDbLayerTableRecord
  2
0
 70
     2
 62
     7
  6
CONTINUOUS
370
    -3
390
73E
  0
LAYER
  5
8C6
102
{ACAD_XDICTIONARY
360
88707
102
}
330
2
100
AcDbSymbolTableRecord
100
AcDbLayerTableRecord
  2
文字
 70
     0
 62
     7
  6
CONTINUOUS
370
    20
390
73E
  0
LAYER
  5
96A
102
{ACAD_XDICTIONARY
360
8870D
102
}
330
2
100
AcDbSymbolTableRecord
100
AcDbLayerTableRecord
  2
中心線
 70
     0
 62
     7
  6
CENTER2
370
     9
390
73E
  0
LAYER
  5
1521
102
{ACAD_XDICTIONARY
360
8870F
102
}
330
2
100
AcDbSymbolTableRecord
100
AcDbLayerTableRecord
  2
実線
 70
     0
 62
     7
  6
CONTINUOUS
370
    30
390
73E
  0
LAYER
  5
1523
102
{ACAD_XDICTIONARY
360
88713
102
}
330
2
100
AcDbSymbolTableRecord
100
AcDbLayerTableRecord
  2
細線
 70
     0
 62
     7
  6
CONTINUOUS
370
     9
390
73E
  0
LAYER
  5
7920D
102
{ACAD_XDICTIONARY
360
8871F
102
}
330
2
100
AcDbSymbolTableRecord
100
AcDbLayerTableRecord
  2
本体
 70
     0
 62
     7
  6
CONTINUOUS
370
    30
390
73E
  0
LAYER
  5
7CE53
102
{ACAD_XDICTIONARY
360
88721
102
}
330
2
100
AcDbSymbolTableRecord
100
AcDbLayerTableRecord
  2
外形線
 70
     0
 62
     7
  6
CONTINUOUS
370
    30
390
73E
  0
LAYER
  5
80436
102
{ACAD_XDICTIONARY
360
88723
102
}
330
2
100
AcDbSymbolTableRecord
100
AcDbLayerTableRecord
  2
センター線
 70
     0
 62
     7
  6
CENTER
370
    15
390
73E
  0
LAYER
  5
9E046
330
2
100
AcDbSymbolTableRecord
100
AcDbLayerTableRecord
  2
Defpoints
 70
     0
 62
     7
  6
CONTINUOUS
290
     0
370
    -3
390
73E
  0
ENDTAB
  0
TABLE
  2
STYLE
  5
3
330
0
100
AcDbSymbolTable
 70
     5
  0
STYLE
  5
F
330
3
100
AcDbSymbolTableRecord
100
AcDbTextStyleTableRecord
  2
STANDARD
 70
     0
 40
0.0
 41
1.0
 50
0.0
 71
     0
 42
2.5
  3
simplex.shx
  4
bigfont.shx
  0
STYLE
  5
34
330
3
100
AcDbSymbolTableRecord
100
AcDbTextStyleTableRecord
  2
TIMESNR
 70
     0
 40
0.0
 41
1.0
 50
0.0
 71
     0
 42
2.0
  3
times.ttf
  4

1001
ACAD
1000
Times New Roman
1071
       18
  0
STYLE
  5
1529
330
3
100
AcDbSymbolTableRecord
100
AcDbTextStyleTableRecord
  2
まこ
 70
     0
 40
0.0
 41
1.0
 50
0.0
 71
     0
 42
0.2
  3
simplex.shx
  4
bigfont.shx
  0
STYLE
  5
9DE71
330
3
100
AcDbSymbolTableRecord
100
AcDbTextStyleTableRecord
  2
MS\U+FF7A\U+FF9E\U+FF7C\U+FF6F\U+FF78
 70
     0
 40
0.0
 41
1.0
 50
0.0
 71
     0
 42
5.0
  3

  4

1001
ACAD
1000
MS Gothic
1071
    32817
  0
STYLE
  5
9DE72
330
3
100
AcDbSymbolTableRecord
100
AcDbTextStyleTableRecord
  2
MS\U+FF7A\U+FF9E\U+FF7C\U+FF6F\U+FF78N
 70
     0
 40
0.0
 41
1.0
 50
0.0
 71
     0
 42
5.0
  3

  4

1001
ACAD
1000
MS Gothic
1071
    32817
  0
ENDTAB
  0
TABLE
  2
VIEW
  5
6
330
0
100
AcDbSymbolTable
 70
     0
  0
ENDTAB
  0
TABLE
  2
UCS
  5
7
330
0
100
AcDbSymbolTable
 70
     0
  0
ENDTAB
  0
TABLE
  2
APPID
  5
9
330
0
100
AcDbSymbolTable
 70
    12
  0
APPID
  5
10
330
9
100
AcDbSymbolTableRecord
100
AcDbRegAppTableRecord
  2
ACAD
 70
     0
  0
APPID
  5
84F74
330
9
100
AcDbSymbolTableRecord
100
AcDbRegAppTableRecord
  2
ACAD_NAV_VCDISPLAY
 70
     0
  0
APPID
  5
84F75
330
9
100
AcDbSymbolTableRecord
100
AcDbRegAppTableRecord
  2
ACAD_PSEXT
 70
     0
  0
APPID
  5
85072
330
9
100
AcDbSymbolTableRecord
100
AcDbRegAppTableRecord
  2
AcadAnnotative
 70
     0
  0
APPID
  5
887D2
330
9
100
AcDbSymbolTableRecord
100
AcDbRegAppTableRecord
  2
ACAD_EXEMPT_FROM_CAD_STANDARDS
 70
     0
  0
APPID
  5
8890E
330
9
100
AcDbSymbolTableRecord
100
AcDbRegAppTableRecord
  2
ACAD_MLEADERVER
 70
     0
  0
APPID
  5
89C4E
330
9
100
AcDbSymbolTableRecord
100
AcDbRegAppTableRecord
  2
PE_CLOUD
 70
     0
  0
APPID
  5
89C4F
330
9
100
AcDbSymbolTableRecord
100
AcDbRegAppTableRecord
  2
PLOTTRANSPARENCY
 70
     0
  0
APPID
  5
91F51
330
9
100
AcDbSymbolTableRecord
100
AcDbRegAppTableRecord
  2
ACAD_DSTYLE_DIMRADIAL_EXTENSION
 70
     0
  0
APPID
  5
9571A
330
9
100
AcDbSymbolTableRecord
100
AcDbRegAppTableRecord
  2
ACAD_DSTYLE_DIMFLIPARROW_SYMBOL
 70
     0
  0
APPID
  5
9571B
330
9
100
AcDbSymbolTableRecord
100
AcDbRegAppTableRecord
  2
ACAD_DSTYLE_DIMFLIPARROW_WHICH_SYMBOL
 70
     0
  0
APPID
  5
9571C
330
9
100
AcDbSymbolTableRecord
100
AcDbRegAppTableRecord
  2
ACAD_DSTYLE_DIMJOGGED_JOGANGLE_SYMBOL
 70
     0
  0
ENDTAB
  0
TABLE
  2
DIMSTYLE
  5
A
330
0
100
AcDbSymbolTable
 70
     1
100
AcDbDimStyleTable
 71
     0
  0
DIMSTYLE
105
1D
330
A
100
AcDbSymbolTableRecord
100
AcDbDimStyleTableRecord
  2
STANDARD
 70
     0
 40
2.5
 41
2.5
 42
1.0
 44
1.0
 73
     0
 74
     0
 77
     3
 78
     8
 79
     2
140
2.5
141
0.0
147
1.0
172
     1
176
     4
177
     4
178
   256
179
     3
271
     3
272
     3
279
     2
340
F
341
89E
342
89E
371
    13
372
    13
  0
ENDTAB
  0
TABLE
  2
BLOCK_RECORD
  5
1
330
0
100
AcDbSymbolTable
 70
     1
  0
BLOCK_RECORD
  5
18
330
1
100
AcDbSymbolTableRecord
100
AcDbBlockTableRecord
  2
*MODEL_SPACE
340
741
  0
BLOCK_RECORD
  5
9DDD1
330
1
100
AcDbSymbolTableRecord
100
AcDbBlockTableRecord
  2
*Paper_Space
340
9DDD2
  0
BLOCK_RECORD
  5
89E
330
1
100
AcDbSymbolTableRecord
100
AcDbBlockTableRecord
  2
_Open30
340
0
  0
ENDTAB
  0
ENDSEC
  0
SECTION
  2
BLOCKS
  0
BLOCK
  5
19
330
18
100
AcDbEntity
  8
0
100
AcDbBlockBegin
  2
*MODEL_SPACE
 70
     0
 10
0.0
 20
0.0
 30
0.0
  3
*MODEL_SPACE
  1
*MODEL_SPACE
  0
ENDBLK
  5
1A
330
18
100
AcDbEntity
  8
0
100
AcDbBlockEnd
  0
BLOCK
  5
9DDD3
330
9DDD1
100
AcDbEntity
 67
     1
  8
0
100
AcDbBlockBegin
  2
*Paper_Space
 70
     0
 10
0.0
 20
0.0
 30
0.0
  3
*Paper_Space
  1

  0
ENDBLK
  5
9DDD4
330
9DDD1
100
AcDbEntity
 67
     1
  8
0
100
AcDbBlockEnd
  0
BLOCK
  5
8A2
330
89E
100
AcDbEntity
  8
0
100
AcDbBlockBegin
  2
_Open30
 70
     0
 10
0.0
 20
0.0
 30
0.0
  3
_Open30
  1
_Open30
  0
LINE
  5
89F
330
89E
100
AcDbEntity
  8
0
  6
ByBlock
 62
     0
370
    -2
100
AcDbLine
 10
-1.0
 20
0.26794919
 30
0.0
 11
0.0
 21
0.0
 31
0.0
  0
LINE
  5
8A0
330
89E
100
AcDbEntity
  8
0
  6
ByBlock
 62
     0
370
    -2
100
AcDbLine
 10
0.0
 20
0.0
 30
0.0
 11
-1.0
 21
-0.26794919
 31
0.0
  0
LINE
  5
8A1
330
89E
100
AcDbEntity
  8
0
  6
ByBlock
 62
     0
370
    -2
100
AcDbLine
 10
0.0
 20
0.0
 30
0.0
 11
-1.0
 21
0.0
 31
0.0
  0
ENDBLK
  5
8A3
330
89E
100
AcDbEntity
  8
0
100
AcDbBlockEnd
  0
ENDSEC
  0
SECTION
  2
ENTITIES
  0
LINE
  5
9CE26
330
18
100
AcDbEntity
  8
外形線
100
AcDbLine
 10
5643.049888556764
 20
-3728.847111061257
 30
0.0
 11
5675.749888053045
 21
-3728.847110019675
 31
0.0
  0
LINE
  5
9CE27
330
18
100
AcDbEntity
  8
外形線
 48
0.5
100
AcDbLine
 10
5642.549888556764
 20
-3728.847111061257
 30
0.0
 11
5642.549888556764
 21
-3474.847112102832
 31
0.0
  0
LINE
  5
9CE28
330
18
100
AcDbEntity
  8
外形線
 48
0.5
100
AcDbLine
 10
5642.049888053042
 20
-3728.847111061254
 30
0.0
 11
5642.049888053044
 21
-3474.847112102832
 31
0.0
  0
LINE
  5
9CE29
330
18
100
AcDbEntity
  8
外形線
 48
0.5
100
AcDbLine
 10
5640.749888053044
 20
-3686.847125365846
 30
0.0
 11
5642.049888053042
 21
-3686.847125365846
 31
0.0
  0
LINE
  5
9CE2A
330
18
100
AcDbEntity
  8
外形線
100
AcDbLine
 10
5695.749888053047
 20
-3661.847111061254
 30
0.0
 11
5695.749888053047
 21
-3726.847112102825
 31
0.0
  0
LINE
  5
9CE2E
330
18
100
AcDbEntity
  8
外形線
 48
0.5
100
AcDbLine
 10
5642.04988805304
 20
-3474.847112102832
 30
0.0
 11
5642.54988805304
 21
-3474.847112102832
 31
0.0
  0
LINE
  5
9CE2F
330
18
100
AcDbEntity
  8
外形線
 48
0.5
100
AcDbLine
 10
5640.749888053044
 20
-3516.847115829449
 30
0.0
 11
5642.049888053042
 21
-3516.847115829449
 31
0.0
  0
LINE
  5
9CE30
330
18
100
AcDbEntity
  8
外形線
 48
0.5
100
AcDbLine
 10
5637.749888053044
 20
-3521.347106293058
 30
0.0
 11
5637.749888053044
 21
-3682.34711582945
 31
0.0
  0
LINE
  5
9CE31
330
18
100
AcDbEntity
  8
外形線
 48
0.5
100
AcDbLine
 10
5638.249888053045
 20
-3520.847106293058
 30
0.0
 11
5640.349888053044
 21
-3520.847106293057
 31
0.0
  0
LINE
  5
9CE32
330
18
100
AcDbEntity
  8
外形線
100
AcDbLine
 10
5675.749888053045
 20
-3474.847112102832
 30
0.0
 11
5643.049888556764
 21
-3474.847112102832
 31
0.0
  0
LINE
  5
9CE35
330
18
100
AcDbEntity
  8
外形線
 48
0.5
100
AcDbLine
 10
5640.349888053044
 20
-3682.847115829452
 30
0.0
 11
5638.249888053045
 21
-3682.847115829449
 31
0.0
  0
LINE
  5
9CE36
330
18
100
AcDbEntity
  8
外形線
 48
0.5
100
AcDbLine
 10
5640.749888053044
 20
-3686.847115829449
 30
0.0
 11
5640.749888053044
 21
-3516.847115829449
 31
0.0
  0
LINE
  5
9CE37
330
18
100
AcDbEntity
  8
中心線
100
AcDbLine
 10
5636.061890893473
 20
-3676.84711582945
 30
0.0
 11
5649.617806022975
 21
-3676.84711582945
 31
0.0
  0
LINE
  5
9CE38
330
18
100
AcDbEntity
  8
中心線
100
AcDbLine
 10
5632.749888053044
 20
-3601.847111061255
 30
0.0
 11
5720.749888053045
 21
-3601.847111061255
 31
0.0
  0
LINE
  5
9CE39
330
18
100
AcDbEntity
  8
中心線
100
AcDbLine
 10
5636.061890893473
 20
-3526.847106293058
 30
0.0
 11
5649.617806022975
 21
-3526.847106293058
 31
0.0
  0
LINE
  5
9CE3A
330
18
100
AcDbEntity
  8
外形線
 48
0.5
100
AcDbLine
 10
5643.049888556764
 20
-3728.847111061257
 30
0.0
 11
5642.549888556764
 21
-3728.347111061257
 31
0.0
  0
LINE
  5
9CE3B
330
18
100
AcDbEntity
  8
外形線
 48
0.5
100
AcDbLine
 10
5642.049888053042
 20
-3728.847111061257
 30
0.0
 11
5642.549888556764
 21
-3728.847111061257
 31
0.0
  0
LINE
  5
9CE3C
330
18
100
AcDbEntity
  8
外形線
 48
0.5
100
AcDbLine
 10
5643.049888556764
 20
-3474.847112102832
 30
0.0
 11
5642.549888556764
 21
-3475.347112102832
 31
0.0
  0
LINE
  5
9CE3D
330
18
100
AcDbEntity
  8
外形線
100
AcDbLine
 10
5675.749888053045
 20
-3701.722033880034
 30
0.0
 11
5695.749888053049
 21
-3701.722033880033
 31
0.0
  0
LINE
  5
9CE3E
330
18
100
AcDbEntity
  8
外形線
100
AcDbLine
 10
5675.749888053045
 20
-3501.972190325652
 30
0.0
 11
5695.749888053045
 21
-3501.972190325651
 31
0.0
  0
ARC
  5
9CE40
330
18
100
AcDbEntity
  8
実線
 48
2.0
100
AcDbCircle
 10
5640.349888053044
 20
-3683.247115829451
 30
0.0
 40
0.4000000000000057
100
AcDbArc
 50
0.0
 51
90.0
  0
ARC
  5
9CE41
330
18
100
AcDbEntity
  8
実線
 48
2.0
100
AcDbCircle
 10
5640.349888053044
 20
-3520.447106293058
 30
0.0
 40
0.4000000000000057
100
AcDbArc
 50
270.0
 51
0.0
  0
LINE
  5
9CE42
330
18
100
AcDbEntity
  8
外形線
 48
0.5
100
AcDbLine
 10
5638.249888053045
 20
-3682.847115829449
 30
0.0
 11
5637.749888053044
 21
-3682.34711582945
 31
0.0
  0
LINE
  5
9CE43
330
18
100
AcDbEntity
  8
外形線
 48
0.5
100
AcDbLine
 10
5638.249888053045
 20
-3520.847106293058
 30
0.0
 11
5637.749888053044
 21
-3521.347106293058
 31
0.0
  0
LINE
  5
9CE44
330
18
100
AcDbEntity
  8
実線
100
AcDbLine
 10
5641.549888053041
 20
-3491.392973694291
 30
0.0
 11
5641.549888053041
 21
-3498.392973694291
 31
0.0
  0
LINE
  5
9CE45
330
18
100
AcDbEntity
  8
実線
100
AcDbLine
 10
5641.249888053036
 20
-3492.44297369429
 30
0.0
 11
5641.249888053036
 21
-3497.342973694293
 31
0.0
  0
LINE
  5
9CE46
330
18
100
AcDbEntity
  8
実線
100
AcDbLine
 10
5641.549888053041
 20
-3498.392973694291
 30
0.0
 11
5641.249888053036
 21
-3497.342973694293
 31
0.0
  0
LINE
  5
9CE47
330
18
100
AcDbEntity
  8
実線
100
AcDbLine
 10
5641.549888053041
 20
-3498.392973694291
 30
0.0
 11
5642.04988805304
 21
-3498.392973694291
 31
0.0
  0
LINE
  5
9CE48
330
18
100
AcDbEntity
  8
実線
100
AcDbLine
 10
5641.549888053041
 20
-3491.392973694291
 30
0.0
 11
5642.04988805304
 21
-3491.392973694291
 31
0.0
  0
LINE
  5
9CE49
330
18
100
AcDbEntity
  8
実線
100
AcDbLine
 10
5641.549888053041
 20
-3491.392973694291
 30
0.0
 11
5641.249888053036
 21
-3492.44297369429
 31
0.0
  0
LINE
  5
9CE4A
330
18
100
AcDbEntity
  8
実線
100
AcDbLine
 10
5642.04988805304
 20
-3491.392973694291
 30
0.0
 11
5642.04988805304
 21
-3498.392973694291
 31
0.0
  0
LINE
  5
9CE4B
330
18
100
AcDbEntity
  8
実線
100
AcDbLine
 10
5641.549888053041
 20
-3712.301249469983
 30
0.0
 11
5641.249888053036
 21
-3711.251249469984
 31
0.0
  0
LINE
  5
9CE4C
330
18
100
AcDbEntity
  8
実線
100
AcDbLine
 10
5641.549888053041
 20
-3705.301249469983
 30
0.0
 11
5641.549888053041
 21
-3712.301249469983
 31
0.0
  0
LINE
  5
9CE4D
330
18
100
AcDbEntity
  8
実線
100
AcDbLine
 10
5641.249888053036
 20
-3706.351249469983
 30
0.0
 11
5641.249888053036
 21
-3711.251249469984
 31
0.0
  0
LINE
  5
9CE4E
330
18
100
AcDbEntity
  8
実線
100
AcDbLine
 10
5641.549888053041
 20
-3712.301249469983
 30
0.0
 11
5642.04988805304
 21
-3712.301249469983
 31
0.0
  0
LINE
  5
9CE4F
330
18
100
AcDbEntity
  8
実線
100
AcDbLine
 10
5641.549888053041
 20
-3705.301249469983
 30
0.0
 11
5642.04988805304
 21
-3705.301249469983
 31
0.0
  0
LINE
  5
9CE50
330
18
100
AcDbEntity
  8
実線
100
AcDbLine
 10
5641.549888053041
 20
-3705.301249469983
 30
0.0
 11
5641.249888053036
 21
-3706.351249469983
 31
0.0
  0
LINE
  5
9CE51
330
18
100
AcDbEntity
  8
実線
100
AcDbLine
 10
5642.04988805304
 20
-3705.301249469983
 30
0.0
 11
5642.04988805304
 21
-3712.301249469983
 31
0.0
  0
LINE
  5
9CE52
330
18
100
AcDbEntity
  8
実線
100
AcDbLine
 10
5282.745170005331
 20
-3863.147110053804
 30
0.0
 11
5275.745170005332
 21
-3863.147110053804
 31
0.0
  0
LINE
  5
9CE53
330
18
100
AcDbEntity
  8
実線
100
AcDbLine
 10
5282.745170005331
 20
-3862.647110053804
 30
0.0
 11
5281.695170005332
 21
-3862.347110053801
 31
0.0
  0
LINE
  5
9CE54
330
18
100
AcDbEntity
  8
実線
100
AcDbLine
 10
5282.745170005331
 20
-3862.647110053804
 30
0.0
 11
5282.745170005331
 21
-3863.147110053804
 31
0.0
  0
LINE
  5
9CE55
330
18
100
AcDbEntity
  8
実線
100
AcDbLine
 10
5275.745170005332
 20
-3862.647110053804
 30
0.0
 11
5275.745170005332
 21
-3863.147110053804
 31
0.0
  0
LINE
  5
9CE56
330
18
100
AcDbEntity
  8
実線
100
AcDbLine
 10
5281.695170005332
 20
-3862.347110053801
 30
0.0
 11
5276.795170005331
 21
-3862.347110053801
 31
0.0
  0
LINE
  5
9CE57
330
18
100
AcDbEntity
  8
実線
100
AcDbLine
 10
5282.745170005331
 20
-3862.647110053804
 30
0.0
 11
5275.745170005332
 21
-3862.647110053804
 31
0.0
  0
LINE
  5
9CE58
330
18
100
AcDbEntity
  8
実線
100
AcDbLine
 10
5275.745170005332
 20
-3862.647110053804
 30
0.0
 11
5276.795170005331
 21
-3862.347110053801
 31
0.0
  0
LINE
  5
9CE59
330
18
100
AcDbEntity
  8
実線
100
AcDbLine
 10
5513.199307372484
 20
-3863.147110053804
 30
0.0
 11
5506.199307372483
 21
-3863.147110053804
 31
0.0
  0
LINE
  5
9CE5A
330
18
100
AcDbEntity
  8
実線
100
AcDbLine
 10
5513.199307372484
 20
-3862.647110053804
 30
0.0
 11
5512.149307372483
 21
-3862.347110053801
 31
0.0
  0
LINE
  5
9CE5B
330
18
100
AcDbEntity
  8
実線
100
AcDbLine
 10
5513.199307372484
 20
-3862.647110053804
 30
0.0
 11
5513.199307372484
 21
-3863.147110053804
 31
0.0
  0
LINE
  5
9CE5C
330
18
100
AcDbEntity
  8
実線
100
AcDbLine
 10
5506.199307372483
 20
-3862.647110053804
 30
0.0
 11
5506.199307372483
 21
-3863.147110053804
 31
0.0
  0
LINE
  5
9CE5D
330
18
100
AcDbEntity
  8
実線
100
AcDbLine
 10
5506.199307372483
 20
-3862.647110053804
 30
0.0
 11
5507.249307372482
 21
-3862.347110053801
 31
0.0
  0
LINE
  5
9CE5E
330
18
100
AcDbEntity
  8
実線
100
AcDbLine
 10
5512.149307372483
 20
-3862.347110053801
 30
0.0
 11
5507.249307372482
 21
-3862.347110053801
 31
0.0
  0
LINE
  5
9CE5F
330
18
100
AcDbEntity
  8
実線
100
AcDbLine
 10
5513.199307372484
 20
-3862.647110053804
 30
0.0
 11
5506.199307372483
 21
-3862.647110053804
 31
0.0
  0
LINE
  5
9CE60
330
18
100
AcDbEntity
  8
外形線
 48
0.5
100
AcDbLine
 10
5467.199313182256
 20
-3859.347110053807
 30
0.0
 11
5466.699313182257
 21
-3858.847110053807
 31
0.0
  0
LINE
  5
9CE61
330
18
100
AcDbEntity
  8
外形線
 48
0.5
100
AcDbLine
 10
5305.199303645866
 20
-3859.347110053807
 30
0.0
 11
5305.699303645866
 21
-3858.847110053807
 31
0.0
  0
ARC
  5
9CE62
330
18
100
AcDbEntity
  8
実線
 48
2.0
100
AcDbCircle
 10
5467.599313182258
 20
-3861.447110053808
 30
0.0
 40
0.4000000000000057
100
AcDbArc
 50
180.0
 51
270.0
  0
ARC
  5
9CE63
330
18
100
AcDbEntity
  8
実線
 48
2.0
100
AcDbCircle
 10
5304.799303645864
 20
-3861.447110053808
 30
0.0
 40
0.4000000000000057
100
AcDbArc
 50
270.0
 51
0.0
  0
LINE
  5
9CE75
330
18
100
AcDbEntity
  8
外形線
100
AcDbLine
 10
5513.199307372484
 20
-3896.847110053807
 30
0.0
 11
5261.234572220183
 21
-3896.847110053809
 31
0.0
  0
LINE
  5
9CE76
330
18
100
AcDbEntity
  8
外形線
100
AcDbLine
 10
5486.074229149663
 20
-3896.847110053806
 30
0.0
 11
5486.074229149664
 21
-3916.847110053808
 31
0.0
  0
LINE
  5
9CE77
330
18
100
AcDbEntity
  8
外形線
100
AcDbLine
 10
5286.324385595281
 20
-3896.847110053808
 30
0.0
 11
5286.324385595282
 21
-3916.84711005381
 31
0.0
  0
LINE
  5
9CE78
330
18
100
AcDbEntity
  8
外形線
100
AcDbLine
 10
5261.199307372492
 20
-3863.647110557526
 30
0.0
 11
5261.199307372492
 21
-3916.84711005381
 31
0.0
  0
LINE
  5
9CE79
330
18
100
AcDbEntity
  8
実線
100
AcDbLine
 10
5513.199307372484
 20
-3864.147110557527
 30
0.0
 11
5512.699307372483
 21
-3863.647110557527
 31
0.0
  0
LINE
  5
9CE7A
330
18
100
AcDbEntity
  8
外形線
 48
0.5
100
AcDbLine
 10
5246.699307372475
 20
-3863.147110053805
 30
0.0
 11
5246.699307372475
 21
-3863.647110557527
 31
0.0
  0
LINE
  5
9CE7B
330
18
100
AcDbEntity
  8
外形線
 48
0.5
100
AcDbLine
 10
5246.199307372466
 20
-3864.147110557527
 30
0.0
 11
5246.699307372466
 21
-3863.647110557527
 31
0.0
  0
LINE
  5
9CE7C
330
18
100
AcDbEntity
  8
中心線
100
AcDbLine
 10
5219.846980241871
 20
-3876.847111061255
 30
0.0
 11
5248.689942787899
 21
-3876.847111061255
 31
0.0
  0
LINE
  5
9CE7D
330
18
100
AcDbEntity
  8
センター線
 48
0.5
100
AcDbLine
 10
5461.199313182256
 20
-3857.159112894235
 30
0.0
 11
5461.199313182256
 21
-3870.715028023737
 31
0.0
  0
LINE
  5
9CE7E
330
18
100
AcDbEntity
  8
中心線
100
AcDbLine
 10
5386.199308414061
 20
-3832.347110053805
 30
0.0
 11
5386.199308414061
 21
-3919.347110053808
 31
0.0
  0
LINE
  5
9CE7F
330
18
100
AcDbEntity
  8
センター線
 48
0.5
100
AcDbLine
 10
5311.199303645866
 20
-3857.159112894235
 30
0.0
 11
5311.199303645866
 21
-3870.715028023737
 31
0.0
  0
LINE
  5
9CE80
330
18
100
AcDbEntity
  8
外形線
 48
0.5
100
AcDbLine
 10
5301.199303645866
 20
-3861.847110053807
 30
0.0
 11
5471.199303645867
 21
-3861.847110053807
 31
0.0
  0
LINE
  5
9CE81
330
18
100
AcDbEntity
  8
外形線
 48
0.5
100
AcDbLine
 10
5305.199303645864
 20
-3861.447110053808
 30
0.0
 11
5305.199303645866
 21
-3859.347110053807
 31
0.0
  0
LINE
  5
9CE84
330
18
100
AcDbEntity
  8
外形線
100
AcDbLine
 10
5513.199307372484
 20
-3896.847110053807
 30
0.0
 11
5513.199307372484
 21
-3864.147110557527
 31
0.0
  0
LINE
  5
9CE85
330
18
100
AcDbEntity
  8
外形線
 48
0.5
100
AcDbLine
 10
5467.199313182256
 20
-3859.347110053807
 30
0.0
 11
5467.199313182258
 21
-3861.447110053808
 31
0.0
  0
LINE
  5
9CE86
330
18
100
AcDbEntity
  8
外形線
 48
0.5
100
AcDbLine
 10
5466.699313182257
 20
-3858.847110053807
 30
0.0
 11
5305.699303645866
 21
-3858.847110053807
 31
0.0
  0
LINE
  5
9CE87
330
18
100
AcDbEntity
  8
外形線
 48
0.5
100
AcDbLine
 10
5471.199303645867
 20
-3861.847110053807
 30
0.0
 11
5471.199303645867
 21
-3863.147110053805
 31
0.0
  0
LINE
  5
9CE88
330
18
100
AcDbEntity
  8
実線
100
AcDbLine
 10
5513.199307372484
 20
-3863.147110053804
 30
0.0
 11
5513.199307372484
 21
-3863.647110053804
 31
0.0
  0
LINE
  5
9CE8C
330
18
100
AcDbEntity
  8
外形線
100
AcDbLine
 10
5511.199307372454
 20
-3916.847110053808
 30
0.0
 11
5446.199308414062
 21
-3916.847110053808
 31
0.0
  0
LINE
  5
9CE8D
330
18
100
AcDbEntity
  8
外形線
 48
0.5
100
AcDbLine
 10
5301.199294109469
 20
-3861.847110053807
 30
0.0
 11
5301.199294109469
 21
-3863.147110053805
 31
0.0
  0
LINE
  5
9CE8E
330
18
100
AcDbEntity
  8
外形線
 48
0.5
100
AcDbLine
 10
5246.699307372475
 20
-3863.147110053805
 30
0.0
 11
5513.199307372484
 21
-3863.147110053807
 31
0.0
  0
LINE
  5
9CE8F
330
18
100
AcDbEntity
  8
外形線
 48
0.5
100
AcDbLine
 10
5246.699307372466
 20
-3863.647110557527
 30
0.0
 11
5513.199307372484
 21
-3863.647110557527
 31
0.0
  0
LINE
  5
9CE90
330
18
100
AcDbEntity
  8
外形線
100
AcDbLine
 10
5246.199307372466
 20
-3864.147110557527
 30
0.0
 11
5246.199307372472
 21
-3916.847110053809
 31
0.0
  0
LINE
  5
9CE92
330
18
100
AcDbEntity
  8
中心線
100
AcDbLine
 10
5520.482879550987
 20
-3601.847111061255
 30
0.0
 11
5216.695064827325
 21
-3601.847111061255
 31
0.0
  0
ARC
  5
9CE93
330
18
100
AcDbEntity
  8
中心線
100
AcDbCircle
 10
5386.199307372473
 20
-3601.847111061255
 30
0.0
 40
142.0
100
AcDbArc
 50
37.93442427270462
 51
52.06557572728415
  0
ARC
  5
9CE94
330
18
100
AcDbEntity
  8
中心線
100
AcDbCircle
 10
5386.199307372473
 20
-3601.847111061255
 30
0.0
 40
142.0
100
AcDbArc
 50
217.9344242727034
 51
232.0655757272833
  0
LINE
  5
9CEBB
330
18
100
AcDbEntity
  8
中心線
100
AcDbLine
 10
5274.131566148245
 20
-3489.779369837024
 30
0.0
 11
5297.448722739721
 21
-3513.096526428502
 31
0.0
  0
ARC
  5
9CEBC
330
18
100
AcDbEntity
  8
実線
100
AcDbCircle
 10
5256.199307372471
 20
-3537.620948167932
 30
0.0
 40
5.0
100
AcDbArc
 50
333.7084447252311
 51
0.0
  0
ARC
  5
9CEBD
330
18
100
AcDbEntity
  8
実線
100
AcDbCircle
 10
5256.199307372473
 20
-3666.073273954582
 30
0.0
 40
5.0
100
AcDbArc
 50
0.0
 51
26.29155527476891
  0
ARC
  5
9CEBE
330
18
100
AcDbEntity
  8
実線
100
AcDbCircle
 10
5264.873300267648
 20
-3684.847111061255
 30
0.0
 40
20.0
100
AcDbArc
 50
34.3763137236152
 51
90.0
  0
ARC
  5
9CEBF
330
18
100
AcDbEntity
  8
実線
100
AcDbCircle
 10
5264.873300267648
 20
-3518.847111061251
 30
0.0
 40
20.0
100
AcDbArc
 50
270.0
 51
325.6236862763848
  0
ARC
  5
9CEC0
330
18
100
AcDbEntity
  8
実線
100
AcDbCircle
 10
5386.199307372473
 20
-3601.847111061255
 30
0.0
 40
140.0
100
AcDbArc
 50
153.7084447252311
 51
206.2915552747686
  0
LINE
  5
9CEC1
330
18
100
AcDbEntity
  8
実線
100
AcDbLine
 10
5264.873300267648
 20
-3538.847111061254
 30
0.0
 11
5261.046628752268
 21
-3538.847111061255
 31
0.0
  0
LINE
  5
9CEC2
330
18
100
AcDbEntity
  8
実線
100
AcDbLine
 10
5264.873300267648
 20
-3664.847111061254
 30
0.0
 11
5261.046628752268
 21
-3664.847111061252
 31
0.0
  0
LINE
  5
9CEC3
330
18
100
AcDbEntity
  8
中心線
100
AcDbLine
 10
5297.448722739721
 20
-3690.597695694005
 30
0.0
 11
5274.131566148243
 21
-3713.914852285481
 31
0.0
  0
ARC
  5
9CEC4
330
18
100
AcDbEntity
  8
中心線
100
AcDbCircle
 10
5386.199307372473
 20
-3601.847111061255
 30
0.0
 40
142.0
100
AcDbArc
 50
126.8947516360031
 51
142.0655757272954
  0
ARC
  5
9CEC5
330
18
100
AcDbEntity
  8
中心線
100
AcDbCircle
 10
5386.199307372473
 20
-3601.847111061255
 30
0.0
 40
142.0
100
AcDbArc
 50
306.8947516360035
 51
322.0655757272963
  0
CIRCLE
  5
9CEC6
330
18
100
AcDbEntity
  8
実線
100
AcDbCircle
 10
5285.790144443984
 20
-3501.437948132763
 30
0.0
 40
6.5
  0
CIRCLE
  5
9CEC7
330
18
100
AcDbEntity
  8
実線
100
AcDbCircle
 10
5285.790144443971
 20
-3501.437948132773
 30
0.0
 40
12.5
  0
CIRCLE
  5
9CEC8
330
18
100
AcDbEntity
  8
実線
100
AcDbCircle
 10
5285.790144443984
 20
-3702.256273989743
 30
0.0
 40
6.5
  0
CIRCLE
  5
9CEC9
330
18
100
AcDbEntity
  8
実線
100
AcDbCircle
 10
5285.790144443971
 20
-3702.256273989732
 30
0.0
 40
12.5
  0
CIRCLE
  5
9CECA
330
18
100
AcDbEntity
  8
実線
100
AcDbCircle
 10
5486.608470300974
 20
-3501.437948132773
 30
0.0
 40
12.5
  0
CIRCLE
  5
9CECB
330
18
100
AcDbEntity
  8
実線
100
AcDbCircle
 10
5486.608470300961
 20
-3501.437948132763
 30
0.0
 40
6.5
  0
CIRCLE
  5
9CECC
330
18
100
AcDbEntity
  8
実線
100
AcDbCircle
 10
5486.608470300974
 20
-3702.256273989732
 30
0.0
 40
12.5
  0
CIRCLE
  5
9CECD
330
18
100
AcDbEntity
  8
実線
100
AcDbCircle
 10
5486.608470300961
 20
-3702.256273989743
 30
0.0
 40
6.5
  0
LINE
  5
9CECE
330
18
100
AcDbEntity
  8
中心線
100
AcDbLine
 10
5498.2670485967
 20
-3489.779369837024
 30
0.0
 11
5474.949892005223
 21
-3513.096526428502
 31
0.0
  0
LINE
  5
9CECF
330
18
100
AcDbEntity
  8
実線
100
AcDbLine
 10
5363.749363051821
 20
-3476.847111061255
 30
0.0
 11
5286.324385595281
 21
-3476.847111061255
 31
0.0
  0
LINE
  5
9CED0
330
18
100
AcDbEntity
  8
実線
100
AcDbLine
 10
5511.199307372473
 20
-3579.397166740609
 30
0.0
 11
5511.199307372473
 21
-3501.972189284063
 31
0.0
  0
LINE
  5
9CED1
330
18
100
AcDbEntity
  8
実線
100
AcDbLine
 10
5363.749363051828
 20
-3726.847111061255
 30
0.0
 11
5286.324385595281
 21
-3726.847111061255
 31
0.0
  0
LINE
  5
9CED2
330
18
100
AcDbEntity
  8
実線
100
AcDbLine
 10
5261.19930737247
 20
-3537.620948167933
 30
0.0
 11
5261.199307372473
 21
-3501.972189284063
 31
0.0
  0
ARC
  5
9CED3
330
18
100
AcDbEntity
  8
実線
100
AcDbCircle
 10
5386.199307372473
 20
-3601.847111061255
 30
0.0
 40
160.0
100
AcDbArc
 50
218.6248328730634
 51
231.375167126937
  0
ARC
  5
9CED4
330
18
100
AcDbEntity
  8
実線
100
AcDbCircle
 10
5386.199307372473
 20
-3601.847111061255
 30
0.0
 40
160.0
100
AcDbArc
 50
128.624832873063
 51
141.3751671269366
  0
ARC
  5
9CED5
330
18
100
AcDbEntity
  8
実線
100
AcDbCircle
 10
5386.199307372473
 20
-3601.847111061255
 30
0.0
 40
160.0
100
AcDbArc
 50
38.62483287306343
 51
51.37516712693702
  0
ARC
  5
9CED6
330
18
100
AcDbEntity
  8
実線
100
AcDbCircle
 10
5386.199307372473
 20
-3601.847111061255
 30
0.0
 40
160.0
100
AcDbArc
 50
308.624832873063
 51
321.3751671269366
  0
LINE
  5
9CED7
330
18
100
AcDbEntity
  8
実線
100
AcDbLine
 10
5261.199307372473
 20
-3701.722032838445
 30
0.0
 11
5261.199307372473
 21
-3666.07327395458
 31
0.0
  0
LINE
  5
9CED8
330
18
100
AcDbEntity
  8
実線
100
AcDbLine
 10
5486.074229149664
 20
-3476.847111061255
 30
0.0
 11
5408.64925169312
 21
-3476.847111061255
 31
0.0
  0
LINE
  5
9CED9
330
18
100
AcDbEntity
  8
実線
100
AcDbLine
 10
5486.074229149664
 20
-3726.847111061255
 30
0.0
 11
5408.649251693116
 21
-3726.847111061255
 31
0.0
  0
LINE
  5
9CEDA
330
18
100
AcDbEntity
  8
実線
100
AcDbLine
 10
5511.199307372473
 20
-3701.722032838445
 30
0.0
 11
5511.199307372473
 21
-3624.2970553819
 31
0.0
  0
ARC
  5
9CEDB
330
18
100
AcDbEntity
  8
実線
100
AcDbCircle
 10
5386.199307372473
 20
-3601.847111061255
 30
0.0
 40
127.0
100
AcDbArc
 50
214.376313723616
 51
145.623686276384
  0
CIRCLE
  5
9CEDD
330
18
100
AcDbEntity
  8
実線
100
AcDbCircle
 10
5386.199307372473
 20
-3601.847111061255
 30
0.0
 40
68.0
  0
CIRCLE
  5
9CEDE
330
18
100
AcDbEntity
  8
中心線
100
AcDbCircle
 10
5386.199307372473
 20
-3601.847111061255
 30
0.0
 40
75.0
  0
CIRCLE
  5
9CEDF
330
18
100
AcDbEntity
  8
細線
 48
0.5
100
AcDbCircle
 10
5311.199307372473
 20
-3601.847111061255
 30
0.0
 40
3.0
  0
CIRCLE
  5
9CEE0
330
18
100
AcDbEntity
  8
実線
100
AcDbCircle
 10
5311.199307372473
 20
-3601.847111061255
 30
0.0
 40
2.5
  0
CIRCLE
  5
9CEE1
330
18
100
AcDbEntity
  8
実線
100
AcDbCircle
 10
5348.699307372474
 20
-3666.799016345086
 30
0.0
 40
2.5
  0
CIRCLE
  5
9CEE2
330
18
100
AcDbEntity
  8
細線
 48
0.5
100
AcDbCircle
 10
5348.699307372474
 20
-3666.799016345086
 30
0.0
 40
3.0
  0
CIRCLE
  5
9CEE3
330
18
100
AcDbEntity
  8
実線
100
AcDbCircle
 10
5423.69930737247
 20
-3666.799016345084
 30
0.0
 40
2.5
  0
CIRCLE
  5
9CEE4
330
18
100
AcDbEntity
  8
細線
 48
0.5
100
AcDbCircle
 10
5423.69930737247
 20
-3666.799016345084
 30
0.0
 40
3.0
  0
CIRCLE
  5
9CEE5
330
18
100
AcDbEntity
  8
実線
100
AcDbCircle
 10
5461.199307372471
 20
-3601.847111061255
 30
0.0
 40
2.5
  0
CIRCLE
  5
9CEE6
330
18
100
AcDbEntity
  8
細線
 48
0.5
100
AcDbCircle
 10
5461.199307372471
 20
-3601.847111061255
 30
0.0
 40
3.0
  0
CIRCLE
  5
9CEE7
330
18
100
AcDbEntity
  8
実線
100
AcDbCircle
 10
5423.699307372469
 20
-3536.895205777421
 30
0.0
 40
2.5
  0
CIRCLE
  5
9CEE8
330
18
100
AcDbEntity
  8
細線
 48
0.5
100
AcDbCircle
 10
5423.699307372469
 20
-3536.895205777421
 30
0.0
 40
3.0
  0
CIRCLE
  5
9CEE9
330
18
100
AcDbEntity
  8
実線
100
AcDbCircle
 10
5348.699307372474
 20
-3536.895205777421
 30
0.0
 40
2.5
  0
CIRCLE
  5
9CEEA
330
18
100
AcDbEntity
  8
細線
 48
0.5
100
AcDbCircle
 10
5348.699307372474
 20
-3536.895205777421
 30
0.0
 40
3.0
  0
CIRCLE
  5
9CEEB
330
18
100
AcDbEntity
  8
実線
100
AcDbCircle
 10
5386.199307372473
 20
-3601.847111061255
 30
0.0
 40
81.0
  0
CIRCLE
  5
9CEEC
330
18
100
AcDbEntity
  8
実線
100
AcDbCircle
 10
5386.199307372473
 20
-3601.847111061255
 30
0.0
 40
85.0
  0
LINE
  5
9CEED
330
18
100
AcDbEntity
  8
中心線
100
AcDbLine
 10
5346.455131028506
 20
-3533.008178328526
 30
0.0
 11
5350.94348371644
 21
-3540.782233226317
 31
0.0
  0
LINE
  5
9CEEE
330
18
100
AcDbEntity
  8
中心線
100
AcDbLine
 10
5306.710954684541
 20
-3601.847111061252
 30
0.0
 11
5315.687660060409
 21
-3601.847111061255
 31
0.0
  0
LINE
  5
9CEEF
330
18
100
AcDbEntity
  8
中心線
100
AcDbLine
 10
5346.455131028503
 20
-3670.686043793979
 30
0.0
 11
5350.943483716442
 21
-3662.911988896189
 31
0.0
  0
LINE
  5
9CEF0
330
18
100
AcDbEntity
  8
中心線
100
AcDbLine
 10
5425.943483716436
 20
-3670.686043793981
 30
0.0
 11
5421.455131028503
 21
-3662.911988896189
 31
0.0
  0
LINE
  5
9CEF1
330
18
100
AcDbEntity
  8
中心線
100
AcDbLine
 10
5465.687660060407
 20
-3601.847111061255
 30
0.0
 11
5456.710954684536
 21
-3601.847111061255
 31
0.0
  0
LINE
  5
9CEF2
330
18
100
AcDbEntity
  8
中心線
100
AcDbLine
 10
5425.943483716442
 20
-3533.008178328526
 30
0.0
 11
5421.455131028505
 21
-3540.782233226317
 31
0.0
  0
ARC
  5
9CEF3
330
18
100
AcDbEntity
  8
実線
100
AcDbCircle
 10
5386.199307371312
 20
-3601.847111060903
 30
0.0
 40
127.0
100
AcDbArc
 50
213.9053859125559
 51
146.0946140878202
  0
CIRCLE
  5
9CEF4
330
18
100
AcDbEntity
  8
実線
100
AcDbCircle
 10
5386.199307372475
 20
-3601.847111061264
 30
0.0
 40
85.5
  0
ARC
  5
9CEF5
330
18
100
AcDbEntity
  8
実線
100
AcDbCircle
 10
5386.199307372476
 20
-3601.847111061813
 30
0.0
 40
139.5
100
AcDbArc
 50
153.868474905706
 51
206.1315250937812
  0
ARC
  5
9CEF6
330
18
100
AcDbEntity
  8
実線
100
AcDbCircle
 10
5264.195209079743
 20
-3683.847111061278
 30
0.0
 40
20.0
100
AcDbArc
 50
33.90538591255638
 51
89.99999999989578
  0
LINE
  5
9CEF7
330
18
100
AcDbEntity
  8
実線
100
AcDbLine
 10
5261.856032523909
 20
-3663.847111061275
 30
0.0
 11
5264.195209079756
 21
-3663.847111061277
 31
0.0
  0
ARC
  5
9CEF8
330
18
100
AcDbEntity
  8
実線
100
AcDbCircle
 10
5261.856032523912
 20
-3662.847111061275
 30
0.0
 40
1.0
100
AcDbArc
 50
206.1315250937579
 51
269.9999999998957
  0
ARC
  5
9CEF9
330
18
100
AcDbEntity
  8
実線
100
AcDbCircle
 10
5264.195209079256
 20
-3519.847111061253
 30
0.0
 40
20.0
100
AcDbArc
 50
270.0
 51
326.0946140878208
  0
ARC
  5
9CEFA
330
18
100
AcDbEntity
  8
実線
100
AcDbCircle
 10
5261.85603252445
 20
-3540.847111061253
 30
0.0
 40
1.0
100
AcDbArc
 50
90.0
 51
153.8684749056825
  0
LINE
  5
9CEFB
330
18
100
AcDbEntity
  8
実線
100
AcDbLine
 10
5261.856032524448
 20
-3539.847111061252
 30
0.0
 11
5264.195209079252
 21
-3539.847111061252
 31
0.0
  0
CIRCLE
  5
9CEFC
330
18
100
AcDbEntity
  8
実線
100
AcDbCircle
 10
5509.699307372483
 20
-3601.847111061797
 30
0.0
 40
3.5
  0
ARC
  5
9CEFD
330
18
100
AcDbEntity
  8
実線
100
AcDbCircle
 10
5508.747302783996
 20
-3601.847111061798
 30
0.0
 40
0.3170045884846654
100
AcDbArc
 50
314.653061409479
 51
45.34693859052101
  0
CIRCLE
  5
9CEFE
330
18
100
AcDbEntity
  8
実線
100
AcDbCircle
 10
5509.699307372483
 20
-3601.847111061797
 30
0.0
 40
0.875
  0
ARC
  5
9CEFF
330
18
100
AcDbEntity
  8
実線
100
AcDbCircle
 10
5509.093089589835
 20
-3601.497111061796
 30
0.0
 40
0.175
100
AcDbArc
 50
74.65306140980183
 51
225.3469385904496
  0
ARC
  5
9CF00
330
18
100
AcDbEntity
  8
実線
100
AcDbCircle
 10
5509.093089589834
 20
-3602.197111061798
 30
0.0
 40
0.175
100
AcDbArc
 50
134.6530614096551
 51
285.3469385901981
  0
ARC
  5
9CF01
330
18
100
AcDbEntity
  8
実線
100
AcDbCircle
 10
5509.223305078239
 20
-3602.671571219944
 30
0.0
 40
0.3170045884846654
100
AcDbArc
 50
14.65306140975972
 51
105.3469385903166
  0
ARC
  5
9CF02
330
18
100
AcDbEntity
  8
実線
100
AcDbCircle
 10
5510.175309666724
 20
-3602.671571219944
 30
0.0
 40
0.3170045884846654
100
AcDbArc
 50
74.6530614096834
 51
165.3469385902403
  0
ARC
  5
9CF03
330
18
100
AcDbEntity
  8
実線
100
AcDbCircle
 10
5510.651311960967
 20
-3601.847111061797
 30
0.0
 40
0.3170045884846654
100
AcDbArc
 50
134.653061409479
 51
225.346938590521
  0
ARC
  5
9CF04
330
18
100
AcDbEntity
  8
実線
100
AcDbCircle
 10
5510.175309666727
 20
-3601.022650903652
 30
0.0
 40
0.3170045884846654
100
AcDbArc
 50
194.6530614097597
 51
285.3469385903166
  0
ARC
  5
9CF05
330
18
100
AcDbEntity
  8
実線
100
AcDbCircle
 10
5509.223305078239
 20
-3601.022650903651
 30
0.0
 40
0.3170045884846654
100
AcDbArc
 50
254.6530614096834
 51
345.3469385902403
  0
ARC
  5
9CF06
330
18
100
AcDbEntity
  8
実線
100
AcDbCircle
 10
5509.699307372483
 20
-3601.147111061796
 30
0.0
 40
0.175
100
AcDbArc
 50
14.65306140979241
 51
165.3469385902076
  0
ARC
  5
9CF07
330
18
100
AcDbEntity
  8
実線
100
AcDbCircle
 10
5509.699307372483
 20
-3602.547111061797
 30
0.0
 40
0.175
100
AcDbArc
 50
194.6530614098676
 51
345.3469385902076
  0
ARC
  5
9CF08
330
18
100
AcDbEntity
  8
実線
100
AcDbCircle
 10
5510.305525155128
 20
-3602.197111061799
 30
0.0
 40
0.175
100
AcDbArc
 50
254.6530614098019
 51
45.34693859044955
  0
ARC
  5
9CF09
330
18
100
AcDbEntity
  8
実線
100
AcDbCircle
 10
5510.305525155128
 20
-3601.497111061798
 30
0.0
 40
0.175
100
AcDbArc
 50
314.6530614095504
 51
105.3469385901981
  0
CIRCLE
  5
9CF0A
330
18
100
AcDbEntity
  8
実線
100
AcDbCircle
 10
5447.949307372248
 20
-3494.892973694292
 30
0.0
 40
3.5
  0
ARC
  5
9CF0B
330
18
100
AcDbEntity
  8
実線
100
AcDbCircle
 10
5448.425309666488
 20
-3494.068513536144
 30
0.0
 40
0.3170045884846654
100
AcDbArc
 50
194.6530614096007
 51
285.3469385903166
  0
CIRCLE
  5
9CF0C
330
18
100
AcDbEntity
  8
実線
100
AcDbCircle
 10
5447.949307372248
 20
-3494.892973694292
 30
0.0
 40
0.875
  0
ARC
  5
9CF0D
330
18
100
AcDbEntity
  8
実線
100
AcDbCircle
 10
5448.555525154897
 20
-3494.542973694296
 30
0.0
 40
0.175
100
AcDbArc
 50
314.6530614096551
 51
105.3469385905247
  0
ARC
  5
9CF0E
330
18
100
AcDbEntity
  8
実線
100
AcDbCircle
 10
5447.949307372248
 20
-3494.192973694298
 30
0.0
 40
0.175
100
AcDbArc
 50
14.65306140950432
 51
165.3469385904957
  0
ARC
  5
9CF0F
330
18
100
AcDbEntity
  8
実線
100
AcDbCircle
 10
5447.473305078005
 20
-3494.068513536145
 30
0.0
 40
0.3170045884846654
100
AcDbArc
 50
254.6530614096834
 51
345.3469385902403
  0
ARC
  5
9CF10
330
18
100
AcDbEntity
  8
実線
100
AcDbCircle
 10
5446.997302783763
 20
-3494.892973694295
 30
0.0
 40
0.3170045884846654
100
AcDbArc
 50
314.6530614096537
 51
45.34693859034631
  0
ARC
  5
9CF11
330
18
100
AcDbEntity
  8
実線
100
AcDbCircle
 10
5447.473305078005
 20
-3495.717433852441
 30
0.0
 40
0.3170045884846654
100
AcDbArc
 50
14.65306140960069
 51
105.3469385903166
  0
ARC
  5
9CF12
330
18
100
AcDbEntity
  8
実線
100
AcDbCircle
 10
5448.425309666488
 20
-3495.717433852441
 30
0.0
 40
0.3170045884846654
100
AcDbArc
 50
74.6530614096834
 51
165.3469385902403
  0
ARC
  5
9CF13
330
18
100
AcDbEntity
  8
実線
100
AcDbCircle
 10
5448.901311960731
 20
-3494.892973694292
 30
0.0
 40
0.3170045884846654
100
AcDbArc
 50
134.6530614096537
 51
225.3469385903463
  0
ARC
  5
9CF14
330
18
100
AcDbEntity
  8
実線
100
AcDbCircle
 10
5448.555525154897
 20
-3495.242973694294
 30
0.0
 40
0.175
100
AcDbArc
 50
254.6530614098019
 51
45.34693859034491
  0
ARC
  5
9CF15
330
18
100
AcDbEntity
  8
実線
100
AcDbCircle
 10
5447.343089589599
 20
-3494.542973694296
 30
0.0
 40
0.175
100
AcDbArc
 50
74.65306140980183
 51
225.346938590345
  0
ARC
  5
9CF16
330
18
100
AcDbEntity
  8
実線
100
AcDbCircle
 10
5447.343089589599
 20
-3495.242973694289
 30
0.0
 40
0.175
100
AcDbArc
 50
134.6530614096551
 51
285.3469385905247
  0
ARC
  5
9CF17
330
18
100
AcDbEntity
  8
実線
100
AcDbCircle
 10
5447.949307372248
 20
-3495.592973694291
 30
0.0
 40
0.175
100
AcDbArc
 50
194.6530614095042
 51
345.3469385904957
  0
CIRCLE
  5
9CF18
330
18
100
AcDbEntity
  8
実線
100
AcDbCircle
 10
5324.449309626368
 20
-3494.892972393139
 30
0.0
 40
3.5
  0
ARC
  5
9CF19
330
18
100
AcDbEntity
  8
実線
100
AcDbCircle
 10
5323.973307332127
 20
-3494.068512234991
 30
0.0
 40
0.3170045884846654
100
AcDbArc
 50
254.6530614096834
 51
345.3469385903993
  0
CIRCLE
  5
9CF1A
330
18
100
AcDbEntity
  8
実線
100
AcDbCircle
 10
5324.449309626368
 20
-3494.892972393139
 30
0.0
 40
0.875
  0
ARC
  5
9CF1B
330
18
100
AcDbEntity
  8
実線
100
AcDbCircle
 10
5323.843091843718
 20
-3494.542972393142
 30
0.0
 40
0.175
100
AcDbArc
 50
74.6530614094753
 51
225.346938590345
  0
ARC
  5
9CF1C
330
18
100
AcDbEntity
  8
実線
100
AcDbCircle
 10
5324.449309626368
 20
-3494.192972393143
 30
0.0
 40
0.175
100
AcDbArc
 50
14.65306140979241
 51
165.3469385904957
  0
ARC
  5
9CF1D
330
18
100
AcDbEntity
  8
実線
100
AcDbCircle
 10
5324.925311920608
 20
-3494.068512234992
 30
0.0
 40
0.3170045884846654
100
AcDbArc
 50
194.6530614097597
 51
285.3469385903166
  0
ARC
  5
9CF1E
330
18
100
AcDbEntity
  8
実線
100
AcDbCircle
 10
5325.40131421485
 20
-3494.892972393142
 30
0.0
 40
0.3170045884846654
100
AcDbArc
 50
134.6530614097115
 51
225.3469385902886
  0
ARC
  5
9CF1F
330
18
100
AcDbEntity
  8
実線
100
AcDbCircle
 10
5324.925311920612
 20
-3495.717432551288
 30
0.0
 40
0.3170045884846654
100
AcDbArc
 50
74.6530614096834
 51
165.3469385903993
  0
ARC
  5
9CF20
330
18
100
AcDbEntity
  8
実線
100
AcDbCircle
 10
5323.973307332127
 20
-3495.717432551288
 30
0.0
 40
0.3170045884846654
100
AcDbArc
 50
14.65306140975972
 51
105.3469385903166
  0
ARC
  5
9CF21
330
18
100
AcDbEntity
  8
実線
100
AcDbCircle
 10
5323.497305037884
 20
-3494.892972393139
 30
0.0
 40
0.3170045884846654
100
AcDbArc
 50
314.6530614097115
 51
45.34693859028855
  0
ARC
  5
9CF22
330
18
100
AcDbEntity
  8
実線
100
AcDbCircle
 10
5323.843091843718
 20
-3495.242972393141
 30
0.0
 40
0.175
100
AcDbArc
 50
134.6530614096551
 51
285.3469385901981
  0
ARC
  5
9CF23
330
18
100
AcDbEntity
  8
実線
100
AcDbCircle
 10
5325.055527409016
 20
-3494.542972393142
 30
0.0
 40
0.175
100
AcDbArc
 50
314.6530614096551
 51
105.3469385901981
  0
ARC
  5
9CF24
330
18
100
AcDbEntity
  8
実線
100
AcDbCircle
 10
5325.055527409016
 20
-3495.242972393135
 30
0.0
 40
0.175
100
AcDbArc
 50
254.6530614094753
 51
45.34693859034491
  0
ARC
  5
9CF25
330
18
100
AcDbEntity
  8
実線
100
AcDbCircle
 10
5324.449309626368
 20
-3495.592972393139
 30
0.0
 40
0.175
100
AcDbArc
 50
194.6530614097924
 51
345.3469385904957
  0
CIRCLE
  5
9CF26
330
18
100
AcDbEntity
  8
実線
100
AcDbCircle
 10
5279.245170005333
 20
-3540.097111061412
 30
0.0
 40
3.5
  0
ARC
  5
9CF27
330
18
100
AcDbEntity
  8
実線
100
AcDbCircle
 10
5278.420709847185
 20
-3539.62110876717
 30
0.0
 40
0.3170045884846654
100
AcDbArc
 50
284.6530614096007
 51
15.34693859033836
  0
CIRCLE
  5
9CF28
330
18
100
AcDbEntity
  8
実線
100
AcDbCircle
 10
5279.245170005333
 20
-3540.097111061412
 30
0.0
 40
0.875
  0
ARC
  5
9CF29
330
18
100
AcDbEntity
  8
実線
100
AcDbCircle
 10
5278.545170005333
 20
-3540.097111061415
 30
0.0
 40
0.175
100
AcDbArc
 50
104.6530614095043
 51
255.3469385901699
  0
ARC
  5
9CF2A
330
18
100
AcDbEntity
  8
実線
100
AcDbCircle
 10
5278.895170005334
 20
-3539.490893278763
 30
0.0
 40
0.175
100
AcDbArc
 50
44.65306140965508
 51
195.3469385904853
  0
ARC
  5
9CF2B
330
18
100
AcDbEntity
  8
実線
100
AcDbCircle
 10
5279.245170005331
 20
-3539.145106472928
 30
0.0
 40
0.3170045884846654
100
AcDbArc
 50
224.6530614098861
 51
315.3469385901138
  0
ARC
  5
9CF2C
330
18
100
AcDbEntity
  8
実線
100
AcDbCircle
 10
5280.069630163478
 20
-3539.62110876717
 30
0.0
 40
0.3170045884846654
100
AcDbArc
 50
164.6530614096616
 51
255.3469385902403
  0
ARC
  5
9CF2D
330
18
100
AcDbEntity
  8
実線
100
AcDbCircle
 10
5280.069630163478
 20
-3540.573113355654
 30
0.0
 40
0.3170045884846654
100
AcDbArc
 50
104.6530614096007
 51
195.3469385904968
  0
ARC
  5
9CF2E
330
18
100
AcDbEntity
  8
実線
100
AcDbCircle
 10
5279.245170005334
 20
-3541.049115649897
 30
0.0
 40
0.3170045884846654
100
AcDbArc
 50
44.65306140988617
 51
135.3469385901138
  0
ARC
  5
9CF2F
330
18
100
AcDbEntity
  8
実線
100
AcDbCircle
 10
5278.420709847185
 20
-3540.573113355653
 30
0.0
 40
0.3170045884846654
100
AcDbArc
 50
344.6530614096616
 51
75.34693859024028
  0
ARC
  5
9CF30
330
18
100
AcDbEntity
  8
実線
100
AcDbCircle
 10
5278.895170005332
 20
-3540.703328844063
 30
0.0
 40
0.175
100
AcDbArc
 50
164.6530614098019
 51
315.3469385903449
  0
ARC
  5
9CF31
330
18
100
AcDbEntity
  8
実線
100
AcDbCircle
 10
5279.595170005331
 20
-3539.490893278763
 30
0.0
 40
0.175
100
AcDbArc
 50
344.653061409802
 51
135.3469385903449
  0
ARC
  5
9CF32
330
18
100
AcDbEntity
  8
実線
100
AcDbCircle
 10
5279.945170005332
 20
-3540.09711106141
 30
0.0
 40
0.175
100
AcDbArc
 50
284.6530614095043
 51
75.34693859016994
  0
ARC
  5
9CF33
330
18
100
AcDbEntity
  8
実線
100
AcDbCircle
 10
5279.595170005329
 20
-3540.703328844062
 30
0.0
 40
0.175
100
AcDbArc
 50
224.6530614096551
 51
15.3469385904853
  0
CIRCLE
  5
9CF34
330
18
100
AcDbEntity
  8
実線
100
AcDbCircle
 10
5279.245170005333
 20
-3663.597111061098
 30
0.0
 40
3.5
  0
ARC
  5
9CF35
330
18
100
AcDbEntity
  8
実線
100
AcDbCircle
 10
5278.420709847185
 20
-3664.073113355341
 30
0.0
 40
0.3170045884846654
100
AcDbArc
 50
344.6530614095032
 51
75.34693859039932
  0
CIRCLE
  5
9CF36
330
18
100
AcDbEntity
  8
実線
100
AcDbCircle
 10
5279.245170005333
 20
-3663.597111061098
 30
0.0
 40
0.875
  0
ARC
  5
9CF37
330
18
100
AcDbEntity
  8
実線
100
AcDbCircle
 10
5278.545170005333
 20
-3663.597111061094
 30
0.0
 40
0.175
100
AcDbArc
 50
104.6530614098301
 51
255.3469385904957
  0
ARC
  5
9CF38
330
18
100
AcDbEntity
  8
実線
100
AcDbCircle
 10
5278.895170005334
 20
-3664.203328843746
 30
0.0
 40
0.175
100
AcDbArc
 50
164.6530614095147
 51
315.3469385903449
  0
ARC
  5
9CF39
330
18
100
AcDbEntity
  8
実線
100
AcDbCircle
 10
5279.245170005331
 20
-3664.549115649582
 30
0.0
 40
0.3170045884846654
100
AcDbArc
 50
44.65306140988617
 51
135.3469385901138
  0
ARC
  5
9CF3A
330
18
100
AcDbEntity
  8
実線
100
AcDbCircle
 10
5280.069630163478
 20
-3664.073113355339
 30
0.0
 40
0.3170045884846654
100
AcDbArc
 50
104.6530614097597
 51
195.3469385903384
  0
ARC
  5
9CF3B
330
18
100
AcDbEntity
  8
実線
100
AcDbCircle
 10
5280.069630163478
 20
-3663.121108766855
 30
0.0
 40
0.3170045884846654
100
AcDbArc
 50
164.6530614095031
 51
255.3469385903993
  0
ARC
  5
9CF3C
330
18
100
AcDbEntity
  8
実線
100
AcDbCircle
 10
5279.245170005334
 20
-3662.645106472612
 30
0.0
 40
0.3170045884846654
100
AcDbArc
 50
224.6530614098861
 51
315.3469385901138
  0
ARC
  5
9CF3D
330
18
100
AcDbEntity
  8
実線
100
AcDbCircle
 10
5278.420709847185
 20
-3663.121108766855
 30
0.0
 40
0.3170045884846654
100
AcDbArc
 50
284.6530614097597
 51
15.34693859033836
  0
ARC
  5
9CF3E
330
18
100
AcDbEntity
  8
実線
100
AcDbCircle
 10
5278.895170005332
 20
-3662.990893278446
 30
0.0
 40
0.175
100
AcDbArc
 50
44.65306140965508
 51
195.3469385901981
  0
ARC
  5
9CF3F
330
18
100
AcDbEntity
  8
実線
100
AcDbCircle
 10
5279.595170005331
 20
-3664.203328843746
 30
0.0
 40
0.175
100
AcDbArc
 50
224.6530614096551
 51
15.34693859019814
  0
ARC
  5
9CF40
330
18
100
AcDbEntity
  8
実線
100
AcDbCircle
 10
5279.945170005332
 20
-3663.5971110611
 30
0.0
 40
0.175
100
AcDbArc
 50
284.6530614098301
 51
75.34693859049568
  0
ARC
  5
9CF41
330
18
100
AcDbEntity
  8
実線
100
AcDbCircle
 10
5279.595170005329
 20
-3662.990893278448
 30
0.0
 40
0.175
100
AcDbArc
 50
344.6530614095147
 51
135.3469385903449
  0
CIRCLE
  5
9CF42
330
18
100
AcDbEntity
  8
実線
100
AcDbCircle
 10
5324.449309626368
 20
-3708.80124972937
 30
0.0
 40
3.5
  0
ARC
  5
9CF43
330
18
100
AcDbEntity
  8
実線
100
AcDbCircle
 10
5323.973307332127
 20
-3709.625709887518
 30
0.0
 40
0.3170045884846654
100
AcDbArc
 50
14.65306140960069
 51
105.3469385903166
  0
CIRCLE
  5
9CF44
330
18
100
AcDbEntity
  8
実線
100
AcDbCircle
 10
5324.449309626368
 20
-3708.80124972937
 30
0.0
 40
0.875
  0
ARC
  5
9CF45
330
18
100
AcDbEntity
  8
実線
100
AcDbCircle
 10
5323.843091843718
 20
-3709.151249729367
 30
0.0
 40
0.175
100
AcDbArc
 50
134.6530614096551
 51
285.3469385905247
  0
ARC
  5
9CF46
330
18
100
AcDbEntity
  8
実線
100
AcDbCircle
 10
5324.449309626368
 20
-3709.501249729366
 30
0.0
 40
0.175
100
AcDbArc
 50
194.6530614095042
 51
345.3469385902076
  0
ARC
  5
9CF47
330
18
100
AcDbEntity
  8
実線
100
AcDbCircle
 10
5324.925311920608
 20
-3709.625709887517
 30
0.0
 40
0.3170045884846654
100
AcDbArc
 50
74.6530614096834
 51
165.3469385902403
  0
ARC
  5
9CF48
330
18
100
AcDbEntity
  8
実線
100
AcDbCircle
 10
5325.40131421485
 20
-3708.801249729368
 30
0.0
 40
0.3170045884846654
100
AcDbArc
 50
134.6530614097115
 51
225.3469385902886
  0
ARC
  5
9CF49
330
18
100
AcDbEntity
  8
実線
100
AcDbCircle
 10
5324.925311920612
 20
-3707.976789571223
 30
0.0
 40
0.3170045884846654
100
AcDbArc
 50
194.6530614096007
 51
285.3469385903166
  0
ARC
  5
9CF4A
330
18
100
AcDbEntity
  8
実線
100
AcDbCircle
 10
5323.973307332127
 20
-3707.976789571223
 30
0.0
 40
0.3170045884846654
100
AcDbArc
 50
254.6530614096834
 51
345.3469385902403
  0
ARC
  5
9CF4B
330
18
100
AcDbEntity
  8
実線
100
AcDbCircle
 10
5323.497305037884
 20
-3708.80124972937
 30
0.0
 40
0.3170045884846654
100
AcDbArc
 50
314.6530614097115
 51
45.34693859028855
  0
ARC
  5
9CF4C
330
18
100
AcDbEntity
  8
実線
100
AcDbCircle
 10
5323.843091843718
 20
-3708.451249729368
 30
0.0
 40
0.175
100
AcDbArc
 50
74.65306140980183
 51
225.346938590345
  0
ARC
  5
9CF4D
330
18
100
AcDbEntity
  8
実線
100
AcDbCircle
 10
5325.055527409016
 20
-3709.151249729367
 30
0.0
 40
0.175
100
AcDbArc
 50
254.6530614098019
 51
45.34693859034491
  0
ARC
  5
9CF4E
330
18
100
AcDbEntity
  8
実線
100
AcDbCircle
 10
5325.055527409016
 20
-3708.451249729375
 30
0.0
 40
0.175
100
AcDbArc
 50
314.6530614096551
 51
105.3469385905247
  0
ARC
  5
9CF4F
330
18
100
AcDbEntity
  8
実線
100
AcDbCircle
 10
5324.449309626368
 20
-3708.101249729371
 30
0.0
 40
0.175
100
AcDbArc
 50
14.65306140950432
 51
165.3469385902076
  0
CIRCLE
  5
9CF50
330
18
100
AcDbEntity
  8
実線
100
AcDbCircle
 10
5447.949307372248
 20
-3708.801248428218
 30
0.0
 40
3.5
  0
ARC
  5
9CF51
330
18
100
AcDbEntity
  8
実線
100
AcDbCircle
 10
5448.425309666488
 20
-3709.625708586364
 30
0.0
 40
0.3170045884846654
100
AcDbArc
 50
74.6530614096834
 51
165.3469385903993
  0
CIRCLE
  5
9CF52
330
18
100
AcDbEntity
  8
実線
100
AcDbCircle
 10
5447.949307372248
 20
-3708.801248428218
 30
0.0
 40
0.875
  0
ARC
  5
9CF53
330
18
100
AcDbEntity
  8
実線
100
AcDbCircle
 10
5448.555525154897
 20
-3709.151248428213
 30
0.0
 40
0.175
100
AcDbArc
 50
254.6530614094753
 51
45.34693859034491
  0
ARC
  5
9CF54
330
18
100
AcDbEntity
  8
実線
100
AcDbCircle
 10
5447.949307372248
 20
-3709.501248428213
 30
0.0
 40
0.175
100
AcDbArc
 50
194.6530614097924
 51
345.3469385904957
  0
ARC
  5
9CF55
330
18
100
AcDbEntity
  8
実線
100
AcDbCircle
 10
5447.473305078005
 20
-3709.625708586364
 30
0.0
 40
0.3170045884846654
100
AcDbArc
 50
14.65306140975972
 51
105.3469385903166
  0
ARC
  5
9CF56
330
18
100
AcDbEntity
  8
実線
100
AcDbCircle
 10
5446.997302783763
 20
-3708.801248428214
 30
0.0
 40
0.3170045884846654
100
AcDbArc
 50
314.6530614097115
 51
45.34693859028855
  0
ARC
  5
9CF57
330
18
100
AcDbEntity
  8
実線
100
AcDbCircle
 10
5447.473305078005
 20
-3707.976788270068
 30
0.0
 40
0.3170045884846654
100
AcDbArc
 50
254.6530614096834
 51
345.3469385903993
  0
ARC
  5
9CF58
330
18
100
AcDbEntity
  8
実線
100
AcDbCircle
 10
5448.425309666488
 20
-3707.976788270068
 30
0.0
 40
0.3170045884846654
100
AcDbArc
 50
194.6530614097597
 51
285.3469385903166
  0
ARC
  5
9CF59
330
18
100
AcDbEntity
  8
実線
100
AcDbCircle
 10
5448.901311960731
 20
-3708.801248428218
 30
0.0
 40
0.3170045884846654
100
AcDbArc
 50
134.6530614097115
 51
225.3469385902886
  0
ARC
  5
9CF5A
330
18
100
AcDbEntity
  8
実線
100
AcDbCircle
 10
5448.555525154897
 20
-3708.451248428216
 30
0.0
 40
0.175
100
AcDbArc
 50
314.6530614096551
 51
105.3469385901981
  0
ARC
  5
9CF5B
330
18
100
AcDbEntity
  8
実線
100
AcDbCircle
 10
5447.343089589599
 20
-3709.151248428213
 30
0.0
 40
0.175
100
AcDbArc
 50
134.6530614096551
 51
285.3469385901981
  0
ARC
  5
9CF5C
330
18
100
AcDbEntity
  8
実線
100
AcDbCircle
 10
5447.343089589599
 20
-3708.45124842822
 30
0.0
 40
0.175
100
AcDbArc
 50
74.6530614094753
 51
225.346938590345
  0
ARC
  5
9CF5D
330
18
100
AcDbEntity
  8
実線
100
AcDbCircle
 10
5447.949307372248
 20
-3708.101248428217
 30
0.0
 40
0.175
100
AcDbArc
 50
14.65306140979241
 51
165.3469385904957
  0
LINE
  5
9CF5E
330
18
100
AcDbEntity
  8
中心線
100
AcDbLine
 10
5774.05901175928
 20
-3493.306220149119
 30
0.0
 11
5790.32246772657
 21
-3509.569676116411
 31
0.0
  0
ARC
  5
9CF5F
330
18
100
AcDbEntity
  8
実線
100
AcDbCircle
 10
5825.077311973648
 20
-3545.362037160867
 30
0.0
 40
0.446923180059133
100
AcDbArc
 50
305.0000114591504
 51
65.00001145926083
  0
ARC
  5
9CF60
330
18
100
AcDbEntity
  8
実線
100
AcDbCircle
 10
5826.43609835461
 20
-3544.410604289105
 30
0.0
 40
0.446923180059133
100
AcDbArc
 50
185.0000114591601
 51
305.0000114591504
  0
CIRCLE
  5
9CF61
330
18
100
AcDbEntity
  8
実線
100
AcDbCircle
 10
5826.031360350036
 20
-3545.278568647344
 30
0.0
 40
2.858333333333337
  0
CIRCLE
  5
9CF62
330
18
100
AcDbEntity
  8
実線
100
AcDbCircle
 10
5826.031360350036
 20
-3545.278568647344
 30
0.0
 40
3.5
  0
ARC
  5
9CF63
330
18
100
AcDbEntity
  8
実線
100
AcDbCircle
 10
5826.031360176443
 20
-3545.278568566395
 30
0.0
 40
0.83000019153839
100
AcDbArc
 50
152.7957839551908
 51
157.2042389632269
  0
ARC
  5
9CF64
330
18
100
AcDbEntity
  8
実線
100
AcDbCircle
 10
5826.031360176443
 20
-3545.278568566395
 30
0.0
 40
0.83000019153839
100
AcDbArc
 50
92.79578395514333
 51
97.20423896315253
  0
ARC
  5
9CF65
330
18
100
AcDbEntity
  8
実線
100
AcDbCircle
 10
5825.482050151816
 20
-3544.494072883577
 30
0.0
 40
0.446923180059133
100
AcDbArc
 50
245.0000114592608
 51
5.000011459160131
  0
ARC
  5
9CF66
330
18
100
AcDbEntity
  8
実線
100
AcDbCircle
 10
5826.031360176443
 20
-3545.278568566395
 30
0.0
 40
0.83000019153839
100
AcDbArc
 50
212.7957839551503
 51
217.2042389630249
  0
ARC
  5
9CF67
330
18
100
AcDbEntity
  8
実線
100
AcDbCircle
 10
5825.626621998275
 20
-3546.14653284369
 30
0.0
 40
0.446923180059133
100
AcDbArc
 50
5.000011459160131
 51
125.0000114591504
  0
ARC
  5
9CF68
330
18
100
AcDbEntity
  8
実線
100
AcDbCircle
 10
5826.031360176443
 20
-3545.278568566395
 30
0.0
 40
0.83000019153839
100
AcDbArc
 50
272.7957839551433
 51
277.2042389630902
  0
ARC
  5
9CF69
330
18
100
AcDbEntity
  8
実線
100
AcDbCircle
 10
5826.031360176443
 20
-3545.278568566395
 30
0.0
 40
0.83000019153839
100
AcDbArc
 50
32.79578395515031
 51
37.20423896302493
  0
ARC
  5
9CF6A
330
18
100
AcDbEntity
  8
実線
100
AcDbCircle
 10
5826.031360176443
 20
-3545.278568566395
 30
0.0
 40
0.83000019153839
100
AcDbArc
 50
332.7957839550504
 51
337.2042389632269
  0
ARC
  5
9CF6B
330
18
100
AcDbEntity
  8
実線
100
AcDbCircle
 10
5826.985408379238
 20
-3545.195099971923
 30
0.0
 40
0.446923180059133
100
AcDbArc
 50
125.0000114591504
 51
245.0000114592608
  0
ARC
  5
9CF6C
330
18
100
AcDbEntity
  8
実線
100
AcDbCircle
 10
5826.580670201074
 20
-3546.063064249218
 30
0.0
 40
0.446923180059133
100
AcDbArc
 50
65.00001145926083
 51
185.0000114591601
  0
ARC
  5
9CF6D
330
18
100
AcDbEntity
  8
実線
100
AcDbCircle
 10
5939.084976571816
 20
-3544.324520363629
 30
0.0
 40
0.446923180059133
100
AcDbArc
 50
215.0000114591504
 51
335.0000114592362
  0
ARC
  5
9CF6E
330
18
100
AcDbEntity
  8
実線
100
AcDbCircle
 10
5940.036409443579
 20
-3545.683306744594
 30
0.0
 40
0.446923180059133
100
AcDbArc
 50
95.00001145916014
 51
215.0000114591504
  0
CIRCLE
  5
9CF6F
330
18
100
AcDbEntity
  8
実線
100
AcDbCircle
 10
5939.168445085339
 20
-3545.278568740017
 30
0.0
 40
2.858333333333337
  0
CIRCLE
  5
9CF70
330
18
100
AcDbEntity
  8
実線
100
AcDbCircle
 10
5939.168445085339
 20
-3545.278568740017
 30
0.0
 40
3.5
  0
ARC
  5
9CF71
330
18
100
AcDbEntity
  8
実線
100
AcDbCircle
 10
5939.168445166288
 20
-3545.278568566426
 30
0.0
 40
0.83000019153839
100
AcDbArc
 50
62.7957839551908
 51
67.20423896323906
  0
ARC
  5
9CF72
330
18
100
AcDbEntity
  8
実線
100
AcDbCircle
 10
5939.168445166288
 20
-3545.278568566426
 30
0.0
 40
0.83000019153839
100
AcDbArc
 50
2.795783955141808
 51
7.204238963152482
  0
ARC
  5
9CF73
330
18
100
AcDbEntity
  8
実線
100
AcDbCircle
 10
5939.952940849106
 20
-3544.729258541796
 30
0.0
 40
0.446923180059133
100
AcDbArc
 50
155.0000114592362
 51
275.0000114591601
  0
ARC
  5
9CF74
330
18
100
AcDbEntity
  8
実線
100
AcDbCircle
 10
5939.168445166288
 20
-3545.278568566426
 30
0.0
 40
0.83000019153839
100
AcDbArc
 50
122.7957839551503
 51
127.2042389630059
  0
ARC
  5
9CF75
330
18
100
AcDbEntity
  8
実線
100
AcDbCircle
 10
5938.300480888993
 20
-3544.873830388258
 30
0.0
 40
0.446923180059133
100
AcDbArc
 50
275.0000114591601
 51
35.00001145915042
  0
ARC
  5
9CF76
330
18
100
AcDbEntity
  8
実線
100
AcDbCircle
 10
5939.168445166288
 20
-3545.278568566426
 30
0.0
 40
0.83000019153839
100
AcDbArc
 50
182.7957839551418
 51
187.2042389630278
  0
ARC
  5
9CF77
330
18
100
AcDbEntity
  8
実線
100
AcDbCircle
 10
5939.168445166288
 20
-3545.278568566426
 30
0.0
 40
0.83000019153839
100
AcDbArc
 50
302.7957839551503
 51
307.2042389630059
  0
ARC
  5
9CF78
330
18
100
AcDbEntity
  8
実線
100
AcDbCircle
 10
5939.168445166288
 20
-3545.278568566426
 30
0.0
 40
0.83000019153839
100
AcDbArc
 50
242.7957839551349
 51
247.2042389632391
  0
ARC
  5
9CF79
330
18
100
AcDbEntity
  8
実線
100
AcDbCircle
 10
5939.25191376076
 20
-3546.232616769221
 30
0.0
 40
0.446923180059133
100
AcDbArc
 50
35.00001145915042
 51
155.0000114592362
  0
ARC
  5
9CF7A
330
18
100
AcDbEntity
  8
実線
100
AcDbCircle
 10
5938.383949483465
 20
-3545.827878591055
 30
0.0
 40
0.446923180059133
100
AcDbArc
 50
335.0000114592362
 51
95.00001145916014
  0
ARC
  5
9CF7B
330
18
100
AcDbEntity
  8
実線
100
AcDbCircle
 10
5826.114828770882
 20
-3659.36970175904
 30
0.0
 40
0.446923180059133
100
AcDbArc
 50
35.00001145915042
 51
155.0000114592362
  0
ARC
  5
9CF7C
330
18
100
AcDbEntity
  8
実線
100
AcDbCircle
 10
5825.163395899119
 20
-3658.010915378076
 30
0.0
 40
0.446923180059133
100
AcDbArc
 50
275.0000114591601
 51
35.00001145915042
  0
CIRCLE
  5
9CF7D
330
18
100
AcDbEntity
  8
実線
100
AcDbCircle
 10
5826.031360257359
 20
-3658.415653382653
 30
0.0
 40
2.858333333333337
  0
CIRCLE
  5
9CF7E
330
18
100
AcDbEntity
  8
実線
100
AcDbCircle
 10
5826.031360257359
 20
-3658.415653382653
 30
0.0
 40
3.5
  0
ARC
  5
9CF7F
330
18
100
AcDbEntity
  8
実線
100
AcDbCircle
 10
5826.03136017641
 20
-3658.415653556243
 30
0.0
 40
0.83000019153839
100
AcDbArc
 50
242.7957839551908
 51
247.2042389632391
  0
ARC
  5
9CF80
330
18
100
AcDbEntity
  8
実線
100
AcDbCircle
 10
5826.03136017641
 20
-3658.415653556243
 30
0.0
 40
0.83000019153839
100
AcDbArc
 50
182.7957839551418
 51
187.2042389631524
  0
ARC
  5
9CF81
330
18
100
AcDbEntity
  8
実線
100
AcDbCircle
 10
5825.246864493594
 20
-3658.964963580873
 30
0.0
 40
0.446923180059133
100
AcDbArc
 50
335.0000114592362
 51
95.00001145916014
  0
ARC
  5
9CF82
330
18
100
AcDbEntity
  8
実線
100
AcDbCircle
 10
5826.03136017641
 20
-3658.415653556243
 30
0.0
 40
0.83000019153839
100
AcDbArc
 50
302.7957839551503
 51
307.2042389630059
  0
ARC
  5
9CF83
330
18
100
AcDbEntity
  8
実線
100
AcDbCircle
 10
5826.899324453705
 20
-3658.820391734411
 30
0.0
 40
0.446923180059133
100
AcDbArc
 50
95.00001145916014
 51
215.0000114591504
  0
ARC
  5
9CF84
330
18
100
AcDbEntity
  8
実線
100
AcDbCircle
 10
5826.03136017641
 20
-3658.415653556243
 30
0.0
 40
0.83000019153839
100
AcDbArc
 50
2.795783955141808
 51
7.204238963027906
  0
ARC
  5
9CF85
330
18
100
AcDbEntity
  8
実線
100
AcDbCircle
 10
5826.03136017641
 20
-3658.415653556243
 30
0.0
 40
0.83000019153839
100
AcDbArc
 50
122.7957839551503
 51
127.2042389630059
  0
ARC
  5
9CF86
330
18
100
AcDbEntity
  8
実線
100
AcDbCircle
 10
5826.03136017641
 20
-3658.415653556243
 30
0.0
 40
0.83000019153839
100
AcDbArc
 50
62.79578395513495
 51
67.20423896323906
  0
ARC
  5
9CF87
330
18
100
AcDbEntity
  8
実線
100
AcDbCircle
 10
5825.947891581939
 20
-3657.461605353448
 30
0.0
 40
0.446923180059133
100
AcDbArc
 50
215.0000114591504
 51
335.0000114592362
  0
ARC
  5
9CF88
330
18
100
AcDbEntity
  8
実線
100
AcDbCircle
 10
5826.815855859234
 20
-3657.866343531614
 30
0.0
 40
0.446923180059133
100
AcDbArc
 50
155.0000114592362
 51
275.0000114591601
  0
ARC
  5
9CF89
330
18
100
AcDbEntity
  8
実線
100
AcDbCircle
 10
5938.619135141627
 20
-3657.631157873455
 30
0.0
 40
0.446923180059133
100
AcDbArc
 50
245.0000114592608
 51
5.000011459160131
  0
ARC
  5
9CF8A
330
18
100
AcDbEntity
  8
実線
100
AcDbCircle
 10
5938.214396963465
 20
-3658.49912215075
 30
0.0
 40
0.446923180059133
100
AcDbArc
 50
305.0000114591504
 51
65.00001145926083
  0
ARC
  5
9CF8B
330
18
100
AcDbEntity
  8
実線
100
AcDbCircle
 10
5939.168445166258
 20
-3658.415653556278
 30
0.0
 40
0.83000019153839
100
AcDbArc
 50
152.7957839550504
 51
157.2042389632269
  0
ARC
  5
9CF8C
330
18
100
AcDbEntity
  8
実線
100
AcDbCircle
 10
5939.168445166258
 20
-3658.415653556278
 30
0.0
 40
0.83000019153839
100
AcDbArc
 50
212.7957839551503
 51
217.2042389630249
  0
ARC
  5
9CF8D
330
18
100
AcDbEntity
  8
実線
100
AcDbCircle
 10
5939.168445166258
 20
-3658.415653556278
 30
0.0
 40
0.83000019153839
100
AcDbArc
 50
92.79578395514333
 51
97.20423896309021
  0
ARC
  5
9CF8E
330
18
100
AcDbEntity
  8
実線
100
AcDbCircle
 10
5939.573183344426
 20
-3657.547689278983
 30
0.0
 40
0.446923180059133
100
AcDbArc
 50
185.0000114591601
 51
305.0000114591504
  0
ARC
  5
9CF8F
330
18
100
AcDbEntity
  8
実線
100
AcDbCircle
 10
5939.168445166258
 20
-3658.415653556278
 30
0.0
 40
0.83000019153839
100
AcDbArc
 50
32.79578395515031
 51
37.20423896302493
  0
ARC
  5
9CF90
330
18
100
AcDbEntity
  8
実線
100
AcDbCircle
 10
5939.717755190886
 20
-3659.200149239095
 30
0.0
 40
0.446923180059133
100
AcDbArc
 50
65.00001145926083
 51
185.0000114591601
  0
ARC
  5
9CF91
330
18
100
AcDbEntity
  8
実線
100
AcDbCircle
 10
5939.168445166258
 20
-3658.415653556278
 30
0.0
 40
0.83000019153839
100
AcDbArc
 50
272.7957839551433
 51
277.2042389631525
  0
ARC
  5
9CF92
330
18
100
AcDbEntity
  8
実線
100
AcDbCircle
 10
5939.168445166258
 20
-3658.415653556278
 30
0.0
 40
0.83000019153839
100
AcDbArc
 50
332.7957839551908
 51
337.2042389632269
  0
CIRCLE
  5
9CF93
330
18
100
AcDbEntity
  8
実線
100
AcDbCircle
 10
5939.168444992665
 20
-3658.415653475329
 30
0.0
 40
3.5
  0
CIRCLE
  5
9CF94
330
18
100
AcDbEntity
  8
実線
100
AcDbCircle
 10
5939.168444992665
 20
-3658.415653475329
 30
0.0
 40
2.858333333333337
  0
ARC
  5
9CF95
330
18
100
AcDbEntity
  8
実線
100
AcDbCircle
 10
5938.76370698809
 20
-3659.283617833569
 30
0.0
 40
0.446923180059133
100
AcDbArc
 50
5.000011459160131
 51
125.0000114591504
  0
ARC
  5
9CF96
330
18
100
AcDbEntity
  8
実線
100
AcDbCircle
 10
5940.122493369053
 20
-3658.332184961806
 30
0.0
 40
0.446923180059133
100
AcDbArc
 50
125.0000114591504
 51
245.0000114592608
  0
ARC
  5
9CF99
330
18
100
AcDbEntity
  8
実線
100
AcDbCircle
 10
5882.599902671413
 20
-3601.847111061255
 30
0.0
 40
127.0
100
AcDbArc
 50
259.8182516116652
 51
280.1817483883348
  0
ARC
  5
9CF9A
330
18
100
AcDbEntity
  8
実線
100
AcDbCircle
 10
5882.599902671413
 20
-3601.847111061255
 30
0.0
 40
127.0
100
AcDbArc
 50
169.8182516116698
 51
190.1817483883301
  0
LINE
  5
9CFC1
330
18
100
AcDbEntity
  8
中心線
 48
3.0
100
AcDbLine
 10
6052.104163962693
 20
-3601.847111061255
 30
0.0
 11
6015.058569511468
 21
-3601.847111061255
 31
0.0
  0
LINE
  5
9CFC2
330
18
100
AcDbEntity
  8
中心線
100
AcDbLine
 10
5991.140793583547
 20
-3710.388001973392
 30
0.0
 11
5974.877337616257
 21
-3694.124546006099
 31
0.0
  0
ARC
  5
9CFC3
330
18
100
AcDbEntity
  8
中心線
100
AcDbCircle
 10
5882.599902671413
 20
-3601.847111061255
 30
0.0
 40
142.0
100
AcDbArc
 50
40.35857984547049
 51
49.64142015452941
  0
ARC
  5
9CFC4
330
18
100
AcDbEntity
  8
中心線
100
AcDbCircle
 10
5882.599902671413
 20
-3601.847111061255
 30
0.0
 40
142.0
100
AcDbArc
 50
220.3585798454715
 51
229.6414201545303
  0
ARC
  5
9CFC5
330
18
100
AcDbEntity
  8
実線
100
AcDbCircle
 10
6012.599902671412
 20
-3537.620948167927
 30
0.0
 40
5.0
100
AcDbArc
 50
180.0
 51
206.2915552747689
  0
LINE
  5
9CFC6
330
18
100
AcDbEntity
  8
中心線
100
AcDbLine
 10
5753.099902671412
 20
-3601.847111061255
 30
0.0
 11
6027.860077598867
 21
-3601.847111061255
 31
0.0
  0
ARC
  5
9CFC7
330
18
100
AcDbEntity
  8
実線
100
AcDbCircle
 10
5882.599902671413
 20
-3601.847111061255
 30
0.0
 40
140.0
100
AcDbArc
 50
333.7084447252311
 51
26.2915552747689
  0
LINE
  5
9CFC8
330
18
100
AcDbEntity
  8
中心線
100
AcDbLine
 10
5974.877337616256
 20
-3509.569676116411
 30
0.0
 11
5991.140793583547
 21
-3493.306220149121
 31
0.0
  0
ARC
  5
9CFC9
330
18
100
AcDbEntity
  8
中心線
100
AcDbCircle
 10
5882.599902671413
 20
-3601.847111061255
 30
0.0
 40
142.0
100
AcDbArc
 50
310.3585798454697
 51
319.6414201545285
  0
ARC
  5
9CFCA
330
18
100
AcDbEntity
  8
中心線
100
AcDbCircle
 10
5882.599902671413
 20
-3601.847111061255
 30
0.0
 40
142.0
100
AcDbArc
 50
130.3585798454706
 51
139.6414201545295
  0
CIRCLE
  5
9CFCB
330
18
100
AcDbEntity
  8
実線
100
AcDbCircle
 10
5983.009065599901
 20
-3702.256273989746
 30
0.0
 40
6.5
  0
CIRCLE
  5
9CFCC
330
18
100
AcDbEntity
  8
実線
100
AcDbCircle
 10
5983.009065599901
 20
-3501.437948132765
 30
0.0
 40
6.5
  0
CIRCLE
  5
9CFCD
330
18
100
AcDbEntity
  8
実線
100
AcDbCircle
 10
5782.190739742924
 20
-3702.256273989746
 30
0.0
 40
6.5
  0
CIRCLE
  5
9CFCE
330
18
100
AcDbEntity
  8
実線
100
AcDbCircle
 10
5782.190739742924
 20
-3501.437948132765
 30
0.0
 40
6.5
  0
LINE
  5
9CFCF
330
18
100
AcDbEntity
  8
中心線
100
AcDbLine
 10
5774.059011759277
 20
-3710.38800197339
 30
0.0
 11
5790.322467726568
 21
-3694.124546006098
 31
0.0
  0
LINE
  5
9CFD0
330
18
100
AcDbEntity
  8
実線
100
AcDbLine
 10
5757.59990267143
 20
-3501.972189284042
 30
0.0
 11
5757.599902671413
 21
-3701.722032838445
 31
0.0
  0
LINE
  5
9CFD1
330
18
100
AcDbEntity
  8
実線
100
AcDbLine
 10
5782.7249808942
 20
-3476.847111061271
 30
0.0
 11
5982.474824448604
 21
-3476.847111061255
 31
0.0
  0
ARC
  5
9CFD2
330
18
100
AcDbEntity
  8
実線
100
AcDbCircle
 10
5882.599902671413
 20
-3601.847111061255
 30
0.0
 40
160.0
100
AcDbArc
 50
38.6248328730633
 51
51.37516712693692
  0
ARC
  5
9CFD3
330
18
100
AcDbEntity
  8
実線
100
AcDbCircle
 10
5882.599902671413
 20
-3601.847111061255
 30
0.0
 40
160.0
100
AcDbArc
 50
218.6248328730633
 51
231.3751671269369
  0
ARC
  5
9CFD4
330
18
100
AcDbEntity
  8
実線
100
AcDbCircle
 10
5882.599902671413
 20
-3601.847111061255
 30
0.0
 40
160.0
100
AcDbArc
 50
128.6248328730631
 51
141.3751671269366
  0
LINE
  5
9CFD5
330
18
100
AcDbEntity
  8
実線
100
AcDbLine
 10
6007.599902671413
 20
-3501.972189284063
 30
0.0
 11
6007.599902671413
 21
-3537.620948167927
 31
0.0
  0
LINE
  5
9CFD6
330
18
100
AcDbEntity
  8
実線
100
AcDbLine
 10
5782.724980894222
 20
-3726.847111061255
 30
0.0
 11
5982.474824448626
 21
-3726.847111061236
 31
0.0
  0
ARC
  5
9CFD7
330
18
100
AcDbEntity
  8
実線
100
AcDbCircle
 10
5882.599902671413
 20
-3601.847111061255
 30
0.0
 40
127.0
100
AcDbArc
 50
79.81825161166518
 51
100.1817483883348
  0
LINE
  5
9CFD8
330
18
100
AcDbEntity
  8
中心線
100
AcDbLine
 10
5882.599902671413
 20
-3461.847111061263
 30
0.0
 11
5882.599902671413
 21
-3745.841708235641
 31
0.0
  0
LINE
  5
9CFDA
330
18
100
AcDbEntity
  8
中心線
100
AcDbLine
 10
5498.2670485967
 20
-3713.914852285483
 30
0.0
 11
5474.949892005223
 21
-3690.597695694005
 31
0.0
  0
LINE
  5
9CFDB
330
18
100
AcDbEntity
  8
外形線
100
AcDbLine
 10
5675.749888053045
 20
-3476.847111061255
 30
0.0
 11
5695.749888053045
 21
-3476.847111061255
 31
0.0
  0
LINE
  5
9CFDC
330
18
100
AcDbEntity
  8
外形線
100
AcDbLine
 10
5675.749888053043
 20
-3726.847112102827
 30
0.0
 11
5695.749888053047
 21
-3726.847112102825
 31
0.0
  0
LINE
  5
9CFDD
330
18
100
AcDbEntity
  8
外形線
100
AcDbLine
 10
5511.199307372452
 20
-3896.847110053806
 30
0.0
 11
5511.199307372454
 21
-3916.847110053808
 31
0.0
  0
ARC
  5
9CFF2
330
18
100
AcDbEntity
  8
実線
100
AcDbCircle
 10
5882.599902671405
 20
-3601.847111061253
 30
0.0
 40
110.0000000000001
100
AcDbArc
 50
213.05573115089
 51
236.9442688490878
  0
LINE
  5
9CFF3
330
18
100
AcDbEntity
  8
実線
100
AcDbLine
 10
5942.599902671405
 20
-3726.847111061253
 30
0.0
 11
5942.599902671405
 21
-3694.042555634152
 31
0.0
  0
ARC
  5
9CFF4
330
18
100
AcDbEntity
  8
実線
100
AcDbCircle
 10
5882.599902671405
 20
-3601.847111061253
 30
0.0
 40
110.0
100
AcDbArc
 50
303.0557311509115
 51
326.9442688491097
  0
LINE
  5
9CFF5
330
18
100
AcDbEntity
  8
実線
100
AcDbLine
 10
5974.795347244305
 20
-3661.847111061253
 30
0.0
 11
6009.091009078205
 21
-3661.847111061254
 31
0.0
  0
CIRCLE
  5
9CFF6
330
18
100
AcDbEntity
  8
実線
100
AcDbCircle
 10
5953.149804342605
 20
-3702.602812508752
 30
0.0
 40
3.000000000000056
  0
LINE
  5
9CFF7
330
18
100
AcDbEntity
  8
実線
100
AcDbLine
 10
6009.091009078205
 20
-3541.847111061255
 30
0.0
 11
5974.795347244305
 21
-3541.847111061253
 31
0.0
  0
ARC
  5
9CFF8
330
18
100
AcDbEntity
  8
実線
100
AcDbCircle
 10
5882.599902671405
 20
-3601.847111061253
 30
0.0
 40
110.0
100
AcDbArc
 50
33.05573115088961
 51
56.94426884908778
  0
LINE
  5
9CFF9
330
18
100
AcDbEntity
  8
実線
100
AcDbLine
 10
5942.599902671405
 20
-3509.651666488353
 30
0.0
 11
5942.599902671405
 21
-3476.847111061253
 31
0.0
  0
ARC
  5
9CFFA
330
18
100
AcDbEntity
  8
実線
100
AcDbCircle
 10
5882.599902671405
 20
-3601.847111061253
 30
0.0
 40
110.0000000000001
100
AcDbArc
 50
123.0557311509122
 51
146.94426884911
  0
LINE
  5
9CFFB
330
18
100
AcDbEntity
  8
実線
100
AcDbLine
 10
5822.599902671406
 20
-3476.847111061253
 30
0.0
 11
5822.599902671406
 21
-3509.651666488353
 31
0.0
  0
ARC
  5
9CFFC
330
18
100
AcDbEntity
  8
実線
100
AcDbCircle
 10
5811.476424563905
 20
-3500.272257569452
 30
0.0
 40
3.000000000000135
100
AcDbArc
 50
34.99999999999843
 51
214.9999999999984
  0
ARC
  5
9CFFD
330
18
100
AcDbEntity
  8
実線
100
AcDbCircle
 10
5812.623577436605
 20
-3501.910561657953
 30
0.0
 40
2.999999999999979
100
AcDbArc
 50
214.9999999999842
 51
34.9999999999842
  0
POINT
  5
9CFFE
330
18
100
AcDbEntity
  8
実線
100
AcDbPoint
 10
5814.344306745606
 20
-3504.368017790854
 30
0.0
  0
LINE
  5
9CFFF
330
18
100
AcDbEntity
  8
実線
100
AcDbLine
 10
5809.018968431005
 20
-3501.992986878453
 30
0.0
 11
5810.166121303705
 21
-3503.631290967052
 31
0.0
  0
POINT
  5
9D000
330
18
100
AcDbEntity
  8
実線
100
AcDbPoint
 10
5809.755695254804
 20
-3497.814801436553
 30
0.0
  0
LINE
  5
9D001
330
18
100
AcDbEntity
  8
実線
100
AcDbLine
 10
5815.081033569505
 20
-3500.189832348952
 30
0.0
 11
5813.933880696805
 21
-3498.551528260353
 31
0.0
  0
LINE
  5
9D002
330
18
100
AcDbEntity
  8
実線
100
AcDbLine
 10
5790.404458098507
 20
-3541.847111061253
 30
0.0
 11
5757.599902671405
 21
-3541.847111061253
 31
0.0
  0
LINE
  5
9D003
330
18
100
AcDbEntity
  8
実線
100
AcDbLine
 10
5757.599902671405
 20
-3661.847111061253
 30
0.0
 11
5790.404458098507
 21
-3661.847111061253
 31
0.0
  0
LINE
  5
9D004
330
18
100
AcDbEntity
  8
実線
100
AcDbLine
 10
5822.599902671406
 20
-3694.042555634152
 30
0.0
 11
5822.599902671406
 21
-3726.847111061253
 31
0.0
  0
LINE
  5
9D005
330
18
100
AcDbEntity
  8
中心線
100
AcDbLine
 10
5808.341829339216
 20
-3495.79559164738
 30
0.0
 11
5956.857976003593
 21
-3707.898630475129
 31
0.0
  0
HATCH
  5
9D006
330
18
100
AcDbEntity
  8
本体
100
AcDbHatch
 10
0.0
 20
0.0
 30
0.0
210
0.0
220
0.0
230
1.0
  2
SOLID
 70
     1
 71
     0
 91
        2
 92
        7
 72
     1
 73
     1
 93
        3
 10
5955.607260475468
 20
-3700.882083199733
 42
0.4142135623731056
 10
5951.429075033544
 20
-3700.145356375922
 42
0.0
 10
5953.149804342598
 20
-3702.602812508788
 42
0.0
 97
        0
 92
        7
 72
     1
 73
     1
 93
        3
 10
5954.870533651651
 20
-3705.060268641656
 42
0.0
 10
5953.149804342598
 20
-3702.602812508788
 42
0.0
 10
5950.692348209729
 20
-3704.323541817841
 42
0.4142135623731056
 97
        0
 75
     0
 76
     1
 47
0.0110124163047153
 98
        2
 10
5953.459116830789
 20
-3701.224630993496
 10
5953.047415352425
 20
-3704.698879617814
  0
CIRCLE
  5
9D007
330
18
100
AcDbEntity
  8
本体
100
AcDbCircle
 10
5953.149804342598
 20
-3702.602812508789
 30
0.0
 40
3.0
  0
LINE
  5
9D00C
330
18
100
AcDbEntity
  8
外形線
100
AcDbLine
 10
5695.749888053046
 20
-3541.847111061255
 30
0.0
 11
5695.449888053044
 21
-3541.847111061253
 31
0.0
  0
LINE
  5
9D00D
330
18
100
AcDbEntity
  8
外形線
100
AcDbLine
 10
5695.749888053047
 20
-3661.847111061254
 30
0.0
 11
5695.449888053044
 21
-3661.847111061253
 31
0.0
  0
LINE
  5
9D00E
330
18
100
AcDbEntity
  8
外形線
100
AcDbLine
 10
5695.449888053044
 20
-3541.847111061253
 30
0.0
 11
5695.449888053044
 21
-3661.847111061252
 31
0.0
  0
LINE
  5
9D00F
330
18
100
AcDbEntity
  8
外形線
100
AcDbLine
 10
5695.749888053046
 20
-3476.847111061255
 30
0.0
 11
5695.749888053046
 21
-3541.847111061255
 31
0.0
  0
CIRCLE
  5
9D012
330
18
100
AcDbEntity
  8
中心線
100
AcDbCircle
 10
5882.599902671413
 20
-3601.847111061255
 30
0.0
 40
123.0000000000047
  0
LINE
  5
9D033
330
18
100
AcDbEntity
  8
中心線
100
AcDbLine
 10
5486.608470300962
 20
-3893.636192240951
 30
0.0
 11
5486.608470300961
 21
-3918.954568118244
 31
0.0
  0
LINE
  5
9D036
330
18
100
AcDbEntity
  8
中心線
100
AcDbLine
 10
5672.538970240189
 20
-3501.437949174353
 30
0.0
 11
5697.857346117483
 21
-3501.437949174354
 31
0.0
  0
LINE
  5
9D03F
330
18
100
AcDbEntity
  8
中心線
100
AcDbLine
 10
5672.538970240189
 20
-3702.256272948154
 30
0.0
 11
5697.857346117483
 21
-3702.256272948153
 31
0.0
  0
LINE
  5
9D041
330
18
100
AcDbEntity
  8
外形線
100
AcDbLine
 10
5446.199308414062
 20
-3916.547110053808
 30
0.0
 11
5446.199308414062
 21
-3916.847110053808
 31
0.0
  0
LINE
  5
9D042
330
18
100
AcDbEntity
  8
外形線
100
AcDbLine
 10
5326.199308414061
 20
-3916.547110053809
 30
0.0
 11
5326.199308414062
 21
-3916.847110053808
 31
0.0
  0
LINE
  5
9D043
330
18
100
AcDbEntity
  8
外形線
100
AcDbLine
 10
5446.199308414062
 20
-3916.547110053809
 30
0.0
 11
5326.199308414061
 21
-3916.547110053809
 31
0.0
  0
LINE
  5
9D044
330
18
100
AcDbEntity
  8
外形線
100
AcDbLine
 10
5326.199308414061
 20
-3916.847110053808
 30
0.0
 11
5246.199307372473
 21
-3916.847110053809
 31
0.0
  0
ARC
  5
9D078
330
18
100
AcDbEntity
  8
実線
100
AcDbCircle
 10
6012.599902671412
 20
-3666.07327395458
 30
0.0
 40
5.0
100
AcDbArc
 50
153.7084447252311
 51
180.0
  0
LINE
  5
9D079
330
18
100
AcDbEntity
  8
実線
100
AcDbLine
 10
6007.599902671413
 20
-3701.722032838445
 30
0.0
 11
6007.599902671413
 21
-3666.07327395458
 31
0.0
  0
ARC
  5
9D07A
330
18
100
AcDbEntity
  8
実線
100
AcDbCircle
 10
5882.599902671413
 20
-3601.847111061255
 30
0.0
 40
160.0
100
AcDbArc
 50
308.6248328730631
 51
321.3751671269367
  0
LINE
  5
9D080
330
18
100
AcDbEntity
  8
外形線
100
AcDbLine
 10
5675.749888053045
 20
-3474.605782305631
 30
0.0
 11
5675.749888053047
 21
-3728.847111061254
 31
0.0
  0
LINE
  5
9D086
330
18
100
AcDbEntity
  8
中心線
100
AcDbLine
 10
5319.067462445381
 20
-3619.835034695877
 30
0.0
 11
5308.442278356201
 21
-3622.682044192004
 31
0.0
  0
CIRCLE
  5
9D087
330
18
100
AcDbEntity
  8
実線
100
AcDbCircle
 10
5313.754870400791
 20
-3621.258539443942
 30
0.0
 40
3.0
  0
LINE
  5
9D088
330
18
100
AcDbEntity
  8
実線
100
AcDbLine
 10
5310.857092921924
 20
-3622.034996579248
 30
0.0
 11
5316.652647879658
 21
-3620.482082308632
 31
0.0
  0
LINE
  5
9D089
330
18
100
AcDbEntity
  8
実線
100
AcDbLine
 10
5312.978413265484
 20
-3618.360761965074
 30
0.0
 11
5314.531327536099
 21
-3624.156316922808
 31
0.0
  0
LINE
  5
9D093
330
18
100
AcDbEntity
  8
実線
 48
2.0
100
AcDbLine
 10
5150.749307372471
 20
-3970.84711005381
 30
0.0
 11
5150.129112374481
 21
-3987.647110053811
 31
0.0
  0
LINE
  5
9D094
330
18
100
AcDbEntity
  8
実線
 48
2.0
100
AcDbLine
 10
5152.257112374481
 20
-3987.647110053811
 30
0.0
 11
5151.749307372472
 21
-3970.84711005381
 31
0.0
  0
LINE
  5
9D095
330
18
100
AcDbEntity
  8
実線
 48
2.0
100
AcDbLine
 10
5156.51311237448
 20
-3987.647110053811
 30
0.0
 11
5153.749307372471
 21
-3970.84711005381
 31
0.0
  0
LINE
  5
9D096
330
18
100
AcDbEntity
  8
実線
 48
2.0
100
AcDbLine
 10
5152.749307372472
 20
-3970.84711005381
 30
0.0
 11
5154.385112374481
 21
-3987.647110053811
 31
0.0
  0
LINE
  5
9D097
330
18
100
AcDbEntity
  8
実線
 48
2.0
100
AcDbLine
 10
5166.249307372471
 20
-4002.594478474863
 30
0.0
 11
5162.549307372471
 21
-3999.647110053811
 31
0.0
  0
LINE
  5
9D098
330
18
100
AcDbEntity
  8
実線
 48
2.0
100
AcDbLine
 10
5154.49930737247
 20
-3970.84711005381
 30
0.0
 11
5154.49930737247
 21
-3937.147110053809
 31
0.0
  0
LINE
  5
9D099
330
18
100
AcDbEntity
  8
実線
 48
2.0
100
AcDbLine
 10
5166.249307372471
 20
-4002.594478474863
 30
0.0
 11
5162.549307372471
 21
-4010.84711005381
 31
0.0
  0
LINE
  5
9D09A
330
18
100
AcDbEntity
  8
実線
 48
2.0
100
AcDbLine
 10
5136.149307372471
 20
-4002.594478474863
 30
0.0
 11
5139.849307372472
 21
-3999.647110053811
 31
0.0
  0
LINE
  5
9D09B
330
18
100
AcDbEntity
  8
実線
 48
2.0
100
AcDbLine
 10
5147.899307372469
 20
-3937.147110053809
 30
0.0
 11
5147.899307372472
 21
-3970.84711005381
 31
0.0
  0
LINE
  5
9D09C
330
18
100
AcDbEntity
  8
実線
 48
2.0
100
AcDbLine
 10
5136.149307372471
 20
-4002.594478474863
 30
0.0
 11
5139.849307372472
 21
-4010.84711005381
 31
0.0
  0
LINE
  5
9D09D
330
18
100
AcDbEntity
  8
実線
 48
2.0
100
AcDbLine
 10
5148.749307372472
 20
-3970.84711005381
 30
0.0
 11
5145.873112374481
 21
-3987.647110053811
 31
0.0
  0
LINE
  5
9D09E
330
18
100
AcDbEntity
  8
実線
 48
2.0
100
AcDbLine
 10
5148.001112374481
 20
-3987.647110053811
 30
0.0
 11
5149.749307372472
 21
-3970.84711005381
 31
0.0
  0
LWPOLYLINE
  5
9D09F
330
18
100
AcDbEntity
  8
実線
 48
2.0
100
AcDbPolyline
 90
        4
 70
   129
 43
0.0
 10
5162.549307372471
 20
-3987.647110053811
 10
5162.549307372471
 20
-4010.84711005381
 10
5139.84930737247
 20
-4010.84711005381
 10
5139.84930737247
 20
-3987.647110053811
  0
LINE
  5
9D0A0
330
18
100
AcDbEntity
  8
実線
 48
2.0
100
AcDbLine
 10
5139.849307372472
 20
-3999.647110053811
 30
0.0
 11
5162.549307372471
 21
-3999.647110053811
 31
0.0
  0
LINE
  5
9D0A1
330
18
100
AcDbEntity
  8
実線
 48
2.0
100
AcDbLine
 10
5147.899307372472
 20
-3970.84711005381
 30
0.0
 11
5154.49930737247
 21
-3970.84711005381
 31
0.0
  0
LINE
  5
9D0AE
330
18
100
AcDbEntity
  8
実線
 48
2.0
100
AcDbLine
 10
5182.49930737247
 20
-3909.147110053809
 30
0.0
 11
5194.199307372474
 21
-3909.147110053809
 31
0.0
  0
ARC
  5
9D0AF
330
18
100
AcDbEntity
  8
実線
 48
2.0
100
AcDbCircle
 10
5182.49930737247
 20
-3937.147110053809
 30
0.0
 40
28.0
100
AcDbArc
 50
90.0
 51
180.0
  0
ARC
  5
9D0B0
330
18
100
AcDbEntity
  8
実線
 48
2.0
100
AcDbCircle
 10
5182.49930737247
 20
-3937.147110053809
 30
0.0
 40
34.6
100
AcDbArc
 50
90.0
 51
180.0
  0
LINE
  5
9D0B2
330
18
100
AcDbEntity
  8
実線
 48
2.0
100
AcDbLine
 10
5194.199307372474
 20
-3902.547110053809
 30
0.0
 11
5182.49930737247
 21
-3902.547110053809
 31
0.0
  0
LINE
  5
9D0B3
330
18
100
AcDbEntity
  8
実線
 48
2.0
100
AcDbLine
 10
5224.199307372473
 20
-3902.547110053809
 30
0.0
 11
5196.199307372469
 21
-3902.547110053809
 31
0.0
  0
SPLINE
  5
9D0B4
330
18
100
AcDbEntity
  8
細線
 48
0.5
100
AcDbSpline
210
0.0
220
0.0
230
1.0
 70
  1064
 71
     3
 72
     9
 73
     5
 74
     3
 42
0.000000001
 43
0.0000000001
 44
0.0000000001
 40
0.0
 40
0.0
 40
0.0
 40
0.0
 40
1.468130713949827
 40
3.465256168846882
 40
3.465256168846882
 40
3.465256168846882
 40
3.465256168846882
 10
5196.197171337614
 20
-3905.847110053809
 30
0.0
 10
5195.959582833957
 20
-3905.392705216654
 30
0.0
 10
5195.398798279747
 20
-3904.320165046936
 30
0.0
 10
5195.906629709854
 20
-3903.195364515624
 30
0.0
 10
5196.199307372469
 20
-3902.547110053813
 30
0.0
 11
5196.197171337614
 21
-3905.847110053809
 31
0.0
 11
5195.676219880609
 21
-3904.474514930443
 31
0.0
 11
5196.199307372469
 21
-3902.547110053813
 31
0.0
  0
SPLINE
  5
9D0B5
330
18
100
AcDbEntity
  8
細線
 48
0.5
100
AcDbSpline
210
0.0
220
0.0
230
1.0
 70
  1064
 71
     3
 72
    11
 73
     7
 74
     5
 42
0.000000001
 43
0.0000000001
 44
0.0000000001
 40
0.0
 40
0.0
 40
0.0
 40
0.0
 40
1.992484014116254
 40
3.465112482101315
 40
4.934764524499
 40
6.931889979397007
 40
6.931889979397007
 40
6.931889979397007
 40
6.931889979397007
 10
5196.199307372469
 20
-3909.147110053817
 30
0.0
 10
5195.907474905057
 20
-3908.500685877208
 30
0.0
 10
5195.399951472825
 20
-3907.376494934034
 30
0.0
 10
5196.195069638163
 20
-3905.847335620766
 30
0.0
 10
5197.001806308775
 20
-3904.321407332372
 30
0.0
 10
5196.492630857028
 20
-3903.195638091477
 30
0.0
 10
5196.199307372469
 20
-3902.547110053813
 30
0.0
 11
5196.199307372469
 21
-3909.147110053817
 31
0.0
 11
5195.676219880608
 21
-3907.224514926815
 31
0.0
 11
5196.197171337611
 21
-3905.847110053814
 31
0.0
 11
5196.722394864332
 21
-3904.474514930443
 31
0.0
 11
5196.199307372469
 21
-3902.547110053813
 31
0.0
  0
SPLINE
  5
9D0B6
330
18
100
AcDbEntity
  8
細線
 48
0.5
100
AcDbSpline
210
0.0
220
0.0
230
1.0
 70
  1064
 71
     3
 72
     9
 73
     5
 74
     3
 42
0.000000001
 43
0.0000000001
 44
0.0000000001
 40
0.0
 40
0.0
 40
0.0
 40
0.0
 40
1.461279472202089
 40
3.466269181094111
 40
3.466269181094111
 40
3.466269181094111
 40
3.466269181094111
 10
5194.199307372474
 20
-3905.847110053809
 30
0.0
 10
5194.437209432301
 20
-3906.298678088657
 30
0.0
 10
5195.001531722313
 20
-3907.369832780238
 30
0.0
 10
5194.493289360531
 20
-3908.495811565654
 30
0.0
 10
5194.199307372474
 20
-3909.147110053809
 30
0.0
 11
5194.199307372474
 21
-3905.847110053809
 31
0.0
 11
5194.722394864332
 21
-3907.211557623978
 31
0.0
 11
5194.199307372474
 21
-3909.147110053809
 31
0.0
  0
SPLINE
  5
9D0B7
330
18
100
AcDbEntity
  8
細線
 48
0.5
100
AcDbSpline
210
0.0
220
0.0
230
1.0
 70
  1064
 71
     3
 72
    11
 73
     7
 74
     5
 42
0.000000001
 43
0.0000000001
 44
0.0000000001
 40
0.0
 40
0.0
 40
0.0
 40
0.0
 40
1.98462339927702
 40
3.465628480259964
 40
4.926907952464008
 40
6.931897661357453
 40
6.931897661357453
 40
6.931897661357453
 40
6.931897661357453
 10
5194.199307372474
 20
-3902.547110053809
 30
0.0
 10
5194.490314371026
 20
-3903.190648889384
 30
0.0
 10
5194.99848239046
 20
-3904.314422053368
 30
0.0
 10
5194.203918412362
 20
-3905.841939150131
 30
0.0
 10
5193.396580556115
 20
-3907.369500795937
 30
0.0
 10
5193.905141251256
 20
-3908.495689907161
 30
0.0
 10
5194.199307372474
 20
-3909.147110053809
 30
0.0
 11
5194.199307372474
 21
-3902.547110053809
 31
0.0
 11
5194.722394864333
 21
-3904.461557627606
 31
0.0
 11
5194.199307372474
 21
-3905.847110053809
 31
0.0
 11
5193.676219880609
 21
-3907.211557623978
 31
0.0
 11
5194.199307372474
 21
-3909.147110053809
 31
0.0
  0
LINE
  5
9D0B8
330
18
100
AcDbEntity
  8
実線
 48
2.0
100
AcDbLine
 10
5196.199307372469
 20
-3909.147110053809
 30
0.0
 11
5224.199307372473
 21
-3909.147110053809
 31
0.0
  0
LINE
  5
9D0B9
330
18
100
AcDbEntity
  8
中心線
 48
0.5
100
AcDbLine
 10
5248.681999999556
 20
-3905.847110053809
 30
0.0
 11
5219.199307372467
 21
-3905.847110053809
 31
0.0
  0
LINE
  5
9D0BA
330
18
100
AcDbEntity
  8
実線
 48
0.1
100
AcDbLine
 10
5241.199307372471
 20
-3901.083970332996
 30
0.0
 11
5246.199307372467
 21
-3901.083970332994
 31
0.0
  0
LINE
  5
9D0BB
330
18
100
AcDbEntity
  8
実線
 48
0.1
100
AcDbLine
 10
5241.199307372471
 20
-3902.383008438671
 30
0.0
 11
5246.199307372467
 21
-3902.383008438671
 31
0.0
  0
LINE
  5
9D0BC
330
18
100
AcDbEntity
  8
実線
 48
0.1
100
AcDbLine
 10
5241.199307372467
 20
-3909.311211668948
 30
0.0
 11
5246.199307372471
 21
-3909.311211668948
 31
0.0
  0
LINE
  5
9D0BD
330
18
100
AcDbEntity
  8
実線
 48
0.1
100
AcDbLine
 10
5241.199307372467
 20
-3910.610249774622
 30
0.0
 11
5246.199307372471
 21
-3910.610249774622
 31
0.0
  0
LINE
  5
9D0BE
330
18
100
AcDbEntity
  8
実線
100
AcDbLine
 10
5241.199307372471
 20
-3897.619868717858
 30
0.0
 11
5246.199307372467
 21
-3897.619868717858
 31
0.0
  0
LINE
  5
9D0BF
330
18
100
AcDbEntity
  8
実線
100
AcDbLine
 10
5241.199307372467
 20
-3914.074351389761
 30
0.0
 11
5246.199307372471
 21
-3914.074351389761
 31
0.0
  0
LINE
  5
9D0C0
330
18
100
AcDbEntity
  8
実線
100
AcDbLine
 10
5229.266294670576
 20
-3914.074351389762
 30
0.0
 11
5237.199307372467
 21
-3914.074351389762
 31
0.0
  0
LINE
  5
9D0C1
330
18
100
AcDbEntity
  8
実線
100
AcDbLine
 10
5229.266294670576
 20
-3897.619868717858
 30
0.0
 11
5237.19930737247
 21
-3897.619868717858
 31
0.0
  0
LINE
  5
9D0C2
330
18
100
AcDbEntity
  8
実線
 48
0.1
100
AcDbLine
 10
5228.699307372471
 20
-3901.083970332996
 30
0.0
 11
5237.19930737247
 21
-3901.083970332996
 31
0.0
  0
LINE
  5
9D0C3
330
18
100
AcDbEntity
  8
実線
 48
0.1
100
AcDbLine
 10
5228.699307372471
 20
-3902.383008438671
 30
0.0
 11
5237.19930737247
 21
-3902.383008438671
 31
0.0
  0
LINE
  5
9D0C4
330
18
100
AcDbEntity
  8
実線
 48
0.1
100
AcDbLine
 10
5228.699307372471
 20
-3910.610249774624
 30
0.0
 11
5237.199307372467
 21
-3910.610249774622
 31
0.0
  0
LINE
  5
9D0C5
330
18
100
AcDbEntity
  8
実線
 48
0.1
100
AcDbLine
 10
5228.699307372471
 20
-3909.311211668949
 30
0.0
 11
5237.199307372467
 21
-3909.311211668948
 31
0.0
  0
LINE
  5
9D0C6
330
18
100
AcDbEntity
  8
実線
100
AcDbLine
 10
5229.034243863008
 20
-3897.851919525428
 30
0.0
 11
5237.19930737247
 21
-3897.851919525428
 31
0.0
  0
LINE
  5
9D0C7
330
18
100
AcDbEntity
  8
実線
100
AcDbLine
 10
5228.699307372471
 20
-3898.251919525427
 30
0.0
 11
5237.19930737247
 21
-3898.251919525427
 31
0.0
  0
LINE
  5
9D0C8
330
18
100
AcDbEntity
  8
実線
100
AcDbLine
 10
5228.699307372471
 20
-3900.451919525426
 30
0.0
 11
5237.19930737247
 21
-3900.451919525426
 31
0.0
  0
LINE
  5
9D0C9
330
18
100
AcDbEntity
  8
実線
100
AcDbLine
 10
5228.699307372471
 20
-3900.851919525428
 30
0.0
 11
5237.19930737247
 21
-3900.851919525428
 31
0.0
  0
LINE
  5
9D0CA
330
18
100
AcDbEntity
  8
実線
100
AcDbLine
 10
5229.034243863008
 20
-3913.842300582191
 30
0.0
 11
5237.19930737247
 21
-3913.842300582192
 31
0.0
  0
LINE
  5
9D0CB
330
18
100
AcDbEntity
  8
実線
100
AcDbLine
 10
5228.699307372471
 20
-3913.442300582193
 30
0.0
 11
5237.19930737247
 21
-3913.442300582193
 31
0.0
  0
LINE
  5
9D0CC
330
18
100
AcDbEntity
  8
実線
100
AcDbLine
 10
5228.699307372471
 20
-3911.242300582193
 30
0.0
 11
5237.19930737247
 21
-3911.242300582193
 31
0.0
  0
LINE
  5
9D0CD
330
18
100
AcDbEntity
  8
実線
100
AcDbLine
 10
5228.699307372471
 20
-3910.842300582194
 30
0.0
 11
5237.19930737247
 21
-3910.842300582192
 31
0.0
  0
LINE
  5
9D0CE
330
18
100
AcDbEntity
  8
実線
100
AcDbLine
 10
5228.699307372471
 20
-3902.847110053811
 30
0.0
 11
5237.19930737247
 21
-3902.847110053811
 31
0.0
  0
LINE
  5
9D0CF
330
18
100
AcDbEntity
  8
実線
100
AcDbLine
 10
5228.699307372471
 20
-3908.847110053809
 30
0.0
 11
5237.19930737247
 21
-3908.847110053809
 31
0.0
  0
LINE
  5
9D0D0
330
18
100
AcDbEntity
  8
実線
100
AcDbLine
 10
5228.699307372471
 20
-3903.64711005381
 30
0.0
 11
5237.199307372467
 21
-3903.64711005381
 31
0.0
  0
LINE
  5
9D0D1
330
18
100
AcDbEntity
  8
実線
100
AcDbLine
 10
5228.699307372471
 20
-3908.04711005381
 30
0.0
 11
5237.19930737247
 21
-3908.04711005381
 31
0.0
  0
LINE
  5
9D0D2
330
18
100
AcDbEntity
  8
実線
100
AcDbLine
 10
5228.699307372471
 20
-3898.186856015966
 30
0.0
 11
5229.266294670576
 21
-3897.619868717858
 31
0.0
  0
LINE
  5
9D0D3
330
18
100
AcDbEntity
  8
実線
100
AcDbLine
 10
5228.699307372471
 20
-3913.507364091653
 30
0.0
 11
5229.266294670576
 21
-3914.074351389762
 31
0.0
  0
ARC
  5
9D0D4
330
18
100
AcDbEntity
  8
実線
100
AcDbCircle
 10
5228.199307372467
 20
-3902.347110053809
 30
0.0
 40
4.0
100
AcDbArc
 50
90.0
 51
180.0
  0
ARC
  5
9D0D5
330
18
100
AcDbEntity
  8
実線
100
AcDbCircle
 10
5228.199307372467
 20
-3909.347110053809
 30
0.0
 40
4.0
100
AcDbArc
 50
180.0
 51
270.0
  0
LINE
  5
9D0D6
330
18
100
AcDbEntity
  8
実線
100
AcDbLine
 10
5228.699307372467
 20
-3898.347110053809
 30
0.0
 11
5228.199307372467
 21
-3898.347110053809
 31
0.0
  0
LINE
  5
9D0D7
330
18
100
AcDbEntity
  8
実線
100
AcDbLine
 10
5228.699307372471
 20
-3913.347110053809
 30
0.0
 11
5228.199307372467
 21
-3913.347110053809
 31
0.0
  0
LINE
  5
9D0D8
330
18
100
AcDbEntity
  8
実線
100
AcDbLine
 10
5228.699307372471
 20
-3913.507364091653
 30
0.0
 11
5228.699307372471
 21
-3898.186856015966
 31
0.0
  0
LINE
  5
9D0D9
330
18
100
AcDbEntity
  8
実線
100
AcDbLine
 10
5241.199307372467
 20
-3899.34711005381
 30
0.0
 11
5237.19930737247
 21
-3899.34711005381
 31
0.0
  0
LINE
  5
9D0DA
330
18
100
AcDbEntity
  8
実線
100
AcDbLine
 10
5241.199307372471
 20
-3912.347110053809
 30
0.0
 11
5237.19930737247
 21
-3912.347110053809
 31
0.0
  0
LINE
  5
9D0DB
330
18
100
AcDbEntity
  8
実線
100
AcDbLine
 10
5237.199307372467
 20
-3914.074351389762
 30
0.0
 11
5237.19930737247
 21
-3897.619868717858
 31
0.0
  0
LINE
  5
9D0DC
330
18
100
AcDbEntity
  8
実線
100
AcDbLine
 10
5224.199307372467
 20
-3909.347110053809
 30
0.0
 11
5224.199307372467
 21
-3902.347110053809
 31
0.0
  0
LINE
  5
9D0DD
330
18
100
AcDbEntity
  8
実線
100
AcDbLine
 10
5241.199307372467
 20
-3914.074351389761
 30
0.0
 11
5241.199307372471
 21
-3897.619868717858
 31
0.0
  0
LINE
  5
9D0DE
330
18
100
AcDbEntity
  8
実線
100
AcDbLine
 10
5246.199307372471
 20
-3914.074351389762
 30
0.0
 11
5246.199307372471
 21
-3897.619868717858
 31
0.0
  0
LINE
  5
9D0DF
330
18
100
AcDbEntity
  8
実線
 48
0.1
100
AcDbLine
 10
5241.199307372467
 20
-3872.08397134044
 30
0.0
 11
5246.199307372464
 21
-3872.083971340438
 31
0.0
  0
LINE
  5
9D0E0
330
18
100
AcDbEntity
  8
実線
 48
0.1
100
AcDbLine
 10
5241.199307372467
 20
-3873.383009446115
 30
0.0
 11
5246.199307372464
 21
-3873.383009446115
 31
0.0
  0
LINE
  5
9D0E1
330
18
100
AcDbEntity
  8
実線
 48
0.1
100
AcDbLine
 10
5241.199307372464
 20
-3880.311212676392
 30
0.0
 11
5246.199307372467
 21
-3880.311212676392
 31
0.0
  0
LINE
  5
9D0E2
330
18
100
AcDbEntity
  8
実線
 48
0.1
100
AcDbLine
 10
5241.199307372464
 20
-3881.610250782067
 30
0.0
 11
5246.199307372467
 21
-3881.610250782067
 31
0.0
  0
LINE
  5
9D0E3
330
18
100
AcDbEntity
  8
実線
100
AcDbLine
 10
5241.199307372467
 20
-3868.619869725302
 30
0.0
 11
5246.199307372464
 21
-3868.619869725302
 31
0.0
  0
LINE
  5
9D0E4
330
18
100
AcDbEntity
  8
実線
100
AcDbLine
 10
5241.199307372464
 20
-3885.074352397205
 30
0.0
 11
5246.199307372467
 21
-3885.074352397205
 31
0.0
  0
LINE
  5
9D0E5
330
18
100
AcDbEntity
  8
実線
100
AcDbLine
 10
5229.266294670573
 20
-3885.074352397207
 30
0.0
 11
5237.199307372463
 21
-3885.074352397207
 31
0.0
  0
LINE
  5
9D0E6
330
18
100
AcDbEntity
  8
実線
100
AcDbLine
 10
5229.266294670573
 20
-3868.619869725302
 30
0.0
 11
5237.199307372467
 21
-3868.619869725302
 31
0.0
  0
LINE
  5
9D0E7
330
18
100
AcDbEntity
  8
実線
 48
0.1
100
AcDbLine
 10
5228.699307372467
 20
-3872.08397134044
 30
0.0
 11
5237.199307372467
 21
-3872.08397134044
 31
0.0
  0
LINE
  5
9D0E8
330
18
100
AcDbEntity
  8
実線
 48
0.1
100
AcDbLine
 10
5228.699307372467
 20
-3873.383009446115
 30
0.0
 11
5237.199307372467
 21
-3873.383009446115
 31
0.0
  0
LINE
  5
9D0E9
330
18
100
AcDbEntity
  8
実線
 48
0.1
100
AcDbLine
 10
5228.699307372467
 20
-3881.61025078207
 30
0.0
 11
5237.199307372463
 21
-3881.610250782067
 31
0.0
  0
LINE
  5
9D0EA
330
18
100
AcDbEntity
  8
実線
 48
0.1
100
AcDbLine
 10
5228.699307372467
 20
-3880.311212676394
 30
0.0
 11
5237.199307372463
 21
-3880.311212676392
 31
0.0
  0
LINE
  5
9D0EB
330
18
100
AcDbEntity
  8
実線
100
AcDbLine
 10
5229.034243863004
 20
-3868.851920532872
 30
0.0
 11
5237.199307372467
 21
-3868.851920532872
 31
0.0
  0
LINE
  5
9D0EC
330
18
100
AcDbEntity
  8
実線
100
AcDbLine
 10
5228.699307372467
 20
-3869.251920532872
 30
0.0
 11
5237.199307372467
 21
-3869.251920532872
 31
0.0
  0
LINE
  5
9D0ED
330
18
100
AcDbEntity
  8
実線
100
AcDbLine
 10
5228.699307372467
 20
-3871.451920532872
 30
0.0
 11
5237.199307372467
 21
-3871.451920532872
 31
0.0
  0
LINE
  5
9D0EE
330
18
100
AcDbEntity
  8
実線
100
AcDbLine
 10
5228.699307372467
 20
-3871.851920532872
 30
0.0
 11
5237.199307372467
 21
-3871.851920532872
 31
0.0
  0
LINE
  5
9D0EF
330
18
100
AcDbEntity
  8
実線
100
AcDbLine
 10
5229.034243863004
 20
-3884.842301589635
 30
0.0
 11
5237.199307372467
 21
-3884.842301589637
 31
0.0
  0
LINE
  5
9D0F0
330
18
100
AcDbEntity
  8
実線
100
AcDbLine
 10
5228.699307372467
 20
-3884.442301589637
 30
0.0
 11
5237.199307372467
 21
-3884.442301589637
 31
0.0
  0
LINE
  5
9D0F1
330
18
100
AcDbEntity
  8
実線
100
AcDbLine
 10
5228.699307372467
 20
-3882.242301589637
 30
0.0
 11
5237.199307372467
 21
-3882.242301589637
 31
0.0
  0
LINE
  5
9D0F2
330
18
100
AcDbEntity
  8
実線
100
AcDbLine
 10
5228.699307372467
 20
-3881.842301589639
 30
0.0
 11
5237.199307372467
 21
-3881.842301589637
 31
0.0
  0
LINE
  5
9D0F3
330
18
100
AcDbEntity
  8
実線
100
AcDbLine
 10
5228.699307372467
 20
-3873.847111061255
 30
0.0
 11
5237.199307372467
 21
-3873.847111061255
 31
0.0
  0
LINE
  5
9D0F4
330
18
100
AcDbEntity
  8
実線
100
AcDbLine
 10
5228.699307372467
 20
-3879.847111061254
 30
0.0
 11
5237.199307372467
 21
-3879.847111061254
 31
0.0
  0
LINE
  5
9D0F5
330
18
100
AcDbEntity
  8
実線
100
AcDbLine
 10
5228.699307372467
 20
-3874.647111061256
 30
0.0
 11
5237.199307372463
 21
-3874.647111061256
 31
0.0
  0
LINE
  5
9D0F6
330
18
100
AcDbEntity
  8
実線
100
AcDbLine
 10
5228.699307372467
 20
-3879.047111061254
 30
0.0
 11
5237.199307372467
 21
-3879.047111061254
 31
0.0
  0
LINE
  5
9D0F7
330
18
100
AcDbEntity
  8
実線
100
AcDbLine
 10
5228.699307372467
 20
-3869.186857023409
 30
0.0
 11
5229.266294670573
 21
-3868.619869725302
 31
0.0
  0
LINE
  5
9D0F8
330
18
100
AcDbEntity
  8
実線
100
AcDbLine
 10
5228.699307372467
 20
-3884.507365099099
 30
0.0
 11
5229.266294670573
 21
-3885.074352397207
 31
0.0
  0
ARC
  5
9D0F9
330
18
100
AcDbEntity
  8
実線
100
AcDbCircle
 10
5228.199307372463
 20
-3873.347111061254
 30
0.0
 40
4.0
100
AcDbArc
 50
90.0
 51
180.0
  0
ARC
  5
9D0FA
330
18
100
AcDbEntity
  8
実線
100
AcDbCircle
 10
5228.199307372463
 20
-3880.347111061254
 30
0.0
 40
4.0
100
AcDbArc
 50
180.0
 51
270.0
  0
LINE
  5
9D0FB
330
18
100
AcDbEntity
  8
実線
100
AcDbLine
 10
5228.699307372464
 20
-3869.347111061254
 30
0.0
 11
5228.199307372463
 21
-3869.347111061254
 31
0.0
  0
LINE
  5
9D0FC
330
18
100
AcDbEntity
  8
実線
100
AcDbLine
 10
5228.699307372467
 20
-3884.347111061254
 30
0.0
 11
5228.199307372463
 21
-3884.347111061254
 31
0.0
  0
LINE
  5
9D0FD
330
18
100
AcDbEntity
  8
実線
100
AcDbLine
 10
5228.699307372467
 20
-3884.507365099099
 30
0.0
 11
5228.699307372467
 21
-3869.186857023409
 31
0.0
  0
LINE
  5
9D0FE
330
18
100
AcDbEntity
  8
実線
100
AcDbLine
 10
5241.199307372464
 20
-3870.347111061254
 30
0.0
 11
5237.199307372467
 21
-3870.347111061254
 31
0.0
  0
LINE
  5
9D0FF
330
18
100
AcDbEntity
  8
実線
100
AcDbLine
 10
5241.199307372467
 20
-3883.347111061254
 30
0.0
 11
5237.199307372467
 21
-3883.347111061254
 31
0.0
  0
LINE
  5
9D100
330
18
100
AcDbEntity
  8
実線
100
AcDbLine
 10
5237.199307372463
 20
-3885.074352397207
 30
0.0
 11
5237.199307372467
 21
-3868.619869725302
 31
0.0
  0
LINE
  5
9D101
330
18
100
AcDbEntity
  8
実線
100
AcDbLine
 10
5224.199307372463
 20
-3880.347111061254
 30
0.0
 11
5224.199307372463
 21
-3873.347111061254
 31
0.0
  0
LINE
  5
9D102
330
18
100
AcDbEntity
  8
実線
100
AcDbLine
 10
5241.199307372464
 20
-3885.074352397205
 30
0.0
 11
5241.199307372467
 21
-3868.619869725302
 31
0.0
  0
LINE
  5
9D103
330
18
100
AcDbEntity
  8
実線
100
AcDbLine
 10
5246.199307372467
 20
-3885.074352397207
 30
0.0
 11
5246.199307372467
 21
-3868.619869725302
 31
0.0
  0
SPLINE
  5
9D104
330
18
100
AcDbEntity
  8
細線
 48
0.5
100
AcDbSpline
210
0.0
220
0.0
230
1.0
 70
  1064
 71
     3
 72
     9
 73
     5
 74
     3
 42
0.000000001
 43
0.0000000001
 44
0.0000000001
 40
0.0
 40
0.0
 40
0.0
 40
0.0
 40
1.46127947220124
 40
3.036235517911241
 40
3.036235517911241
 40
3.036235517911241
 40
3.036235517911241
 10
5194.199307372474
 20
-3876.847111061255
 30
0.0
 10
5194.454558583669
 20
-3877.300813458532
 30
0.0
 10
5194.984917634192
 20
-3878.243512893774
 30
0.0
 10
5194.467633165102
 20
-3879.200633482668
 30
0.0
 10
5194.199307372474
 20
-3879.697111061254
 30
0.0
 11
5194.199307372474
 21
-3876.847111061255
 31
0.0
 11
5194.722394864332
 21
-3878.211558631422
 31
0.0
 11
5194.199307372474
 21
-3879.697111061254
 31
0.0
  0
SPLINE
  5
9D105
330
18
100
AcDbEntity
  8
細線
 48
0.5
100
AcDbSpline
210
0.0
220
0.0
230
1.0
 70
  1064
 71
     3
 72
    11
 73
     7
 74
     5
 42
0.000000001
 43
0.0000000001
 44
0.0000000001
 40
0.0
 40
0.0
 40
0.0
 40
0.0
 40
1.555065021322577
 40
3.036070102306372
 40
4.497349574509566
 40
6.07230562022138
 40
6.07230562022138
 40
6.07230562022138
 40
6.07230562022138
 10
5194.199307372474
 20
-3873.997111061253
 30
0.0
 10
5194.465110253458
 20
-3874.485981924682
 30
0.0
 10
5194.984057158571
 20
-3875.44044118651
 30
0.0
 10
5194.203850586044
 20
-3876.842063102237
 30
0.0
 10
5193.413399332376
 20
-3878.243220841448
 30
0.0
 10
5193.930879873411
 20
-3879.20053373197
 30
0.0
 10
5194.199307372474
 20
-3879.697111061254
 30
0.0
 11
5194.199307372474
 21
-3873.997111061253
 31
0.0
 11
5194.722394864333
 21
-3875.461558635051
 31
0.0
 11
5194.199307372474
 21
-3876.847111061255
 31
0.0
 11
5193.676219880609
 21
-3878.211558631422
 31
0.0
 11
5194.199307372474
 21
-3879.697111061254
 31
0.0
  0
SPLINE
  5
9D106
330
18
100
AcDbEntity
  8
細線
 48
0.5
100
AcDbSpline
210
0.0
220
0.0
230
1.0
 70
  1064
 71
     3
 72
     9
 73
     5
 74
     3
 42
0.000000001
 43
0.0000000001
 44
0.0000000001
 40
0.0
 40
0.0
 40
0.0
 40
0.0
 40
1.468130713950677
 40
3.039244816786289
 40
3.039244816786289
 40
3.039244816786289
 40
3.039244816786289
 10
5196.197171337614
 20
-3876.851184837854
 30
0.0
 10
5195.942226131241
 20
-3876.394601176399
 30
0.0
 10
5195.414452350833
 20
-3875.449406369613
 30
0.0
 10
5195.931845160813
 20
-3874.492022993324
 30
0.0
 10
5196.199307372469
 20
-3873.997111061253
 30
0.0
 11
5196.197171337614
 21
-3876.851184837854
 31
0.0
 11
5195.676219880609
 21
-3875.478589714487
 31
0.0
 11
5196.199307372469
 21
-3873.997111061253
 31
0.0
  0
SPLINE
  5
9D107
330
18
100
AcDbEntity
  8
細線
 48
0.5
100
AcDbSpline
210
0.0
220
0.0
230
1.0
 70
  1064
 71
     3
 72
    11
 73
     7
 74
     5
 42
0.000000001
 43
0.0000000001
 44
0.0000000001
 40
0.0
 40
0.0
 40
0.0
 40
0.0
 40
1.558902011257945
 40
3.031530479243857
 40
4.501182521641541
 40
6.072296624478363
 40
6.072296624478363
 40
6.072296624478363
 40
6.072296624478363
 10
5196.199307372469
 20
-3879.697111061254
 30
0.0
 10
5195.932964926603
 20
-3879.206784067785
 30
0.0
 10
5195.415020093167
 20
-3878.25326600522
 30
0.0
 10
5196.195387801253
 20
-3876.851303918957
 30
0.0
 10
5196.985634364163
 20
-3875.450485822057
 30
0.0
 10
5196.467182807138
 20
-3874.492227469439
 30
0.0
 10
5196.199307372469
 20
-3873.997111061253
 30
0.0
 11
5196.199307372469
 21
-3879.697111061254
 31
0.0
 11
5195.676219880608
 21
-3878.22858971086
 31
0.0
 11
5196.197171337611
 21
-3876.851184837858
 31
0.0
 11
5196.722394864332
 21
-3875.478589714487
 31
0.0
 11
5196.199307372469
 21
-3873.997111061253
 31
0.0
  0
LINE
  5
9D10A
330
18
100
AcDbEntity
  8
実線
100
AcDbLine
 10
5148.34930737247
 20
-3815.547156162729
 30
0.0
 11
5154.049307372471
 21
-3815.547156162729
 31
0.0
  0
LINE
  5
9D10B
330
18
100
AcDbEntity
  8
実線
100
AcDbLine
 10
5148.078943644278
 20
-3805.54715616273
 30
0.0
 11
5149.068943644277
 21
-3815.547156162729
 31
0.0
  0
LINE
  5
9D10C
330
18
100
AcDbEntity
  8
実線
100
AcDbLine
 10
5153.329671100664
 20
-3815.547156162729
 30
0.0
 11
5154.319671100665
 21
-3805.54715616273
 31
0.0
  0
LINE
  5
9D112
330
18
100
AcDbEntity
  8
中心線
100
AcDbLine
 10
5386.199307372473
 20
-3741.622913305231
 30
0.0
 11
5386.199307372473
 21
-3466.200125250667
 31
0.0
  0
SPLINE
  5
9D115
330
18
100
AcDbEntity
  8
細線
 48
0.5
100
AcDbSpline
210
0.0
220
0.0
230
1.0
 70
  1064
 71
     3
 72
     9
 73
     5
 74
     3
 42
0.000000001
 43
0.0000000001
 44
0.0000000001
 40
0.0
 40
0.0
 40
0.0
 40
0.0
 40
1.781686233780978
 40
3.533768259619667
 40
3.533768259619667
 40
3.533768259619667
 40
3.533768259619667
 10
6049.604163962693
 20
-3601.847111061255
 30
0.0
 10
6049.921193706177
 20
-3601.291073540437
 30
0.0
 10
6050.549985478621
 20
-3600.188237527583
 30
0.0
 10
6049.914823246094
 20
-3599.091089423957
 30
0.0
 10
6049.599902671417
 20
-3598.547111061253
 30
0.0
 11
6049.604163962693
 21
-3601.847111061255
 31
0.0
 11
6050.233948116094
 21
-3600.18044440119
 31
0.0
 11
6049.599902671417
 21
-3598.547111061253
 31
0.0
  0
SPLINE
  5
9D116
330
18
100
AcDbEntity
  8
細線
 48
0.5
100
AcDbSpline
210
0.0
220
0.0
230
1.0
 70
  1064
 71
     3
 72
    11
 73
     7
 74
     5
 42
0.000000001
 43
0.0000000001
 44
0.0000000001
 40
0.0
 40
0.0
 40
0.0
 40
0.0
 40
1.752082017630011
 40
3.533768259648041
 40
5.318484832367327
 40
7.070566858207333
 40
7.070566858207333
 40
7.070566858207333
 40
7.070566858207333
 10
6049.599902671417
 20
-3605.147111061254
 30
0.0
 10
6049.914600580618
 20
-3604.603214988414
 30
0.0
 10
6050.549313722882
 20
-3603.506232849789
 30
0.0
 10
6049.606366773201
 20
-3601.845152013195
 30
0.0
 10
6048.647047187949
 20
-3600.190121760203
 30
0.0
 10
6049.28424401236
 20
-3599.091401945909
 30
0.0
 10
6049.599902671417
 20
-3598.547111061253
 30
0.0
 11
6049.599902671417
 21
-3605.147111061254
 31
0.0
 11
6050.233948116096
 21
-3603.513777730123
 31
0.0
 11
6049.604163962693
 21
-3601.847111061255
 31
0.0
 11
6048.965857226734
 21
-3600.18044440119
 31
0.0
 11
6049.599902671417
 21
-3598.547111061253
 31
0.0
  0
LINE
  5
9D117
330
18
100
AcDbEntity
  8
実線
100
AcDbLine
 10
6044.599902671416
 20
-3598.547111061253
 30
0.0
 11
6049.599902671415
 21
-3598.547111061253
 31
0.0
  0
LINE
  5
9D118
330
18
100
AcDbEntity
  8
実線
100
AcDbLine
 10
6044.599902671416
 20
-3605.147111061254
 30
0.0
 11
6049.599902671415
 21
-3605.147111061254
 31
0.0
  0
LINE
  5
9D119
330
18
100
AcDbEntity
  8
実線
100
AcDbLine
 10
6023.613230855238
 20
-3594.377111061253
 30
0.0
 11
6023.613230855238
 21
-3594.347111061254
 31
0.0
  0
LINE
  5
9D11A
330
18
100
AcDbEntity
  8
実線
100
AcDbLine
 10
6026.786574487587
 20
-3594.377111061253
 30
0.0
 11
6026.786574487587
 21
-3594.347111061254
 31
0.0
  0
LINE
  5
9D11B
330
18
100
AcDbEntity
  8
実線
100
AcDbLine
 10
6025.373236004746
 20
-3594.377111061253
 30
0.0
 11
6025.373236004746
 21
-3594.347111061254
 31
0.0
  0
LINE
  5
9D11C
330
18
100
AcDbEntity
  8
実線
100
AcDbLine
 10
6025.026569338079
 20
-3594.377111061253
 30
0.0
 11
6025.026569338079
 21
-3594.347111061254
 31
0.0
  0
LINE
  5
9D11D
330
18
100
AcDbEntity
  8
実線
100
AcDbLine
 10
6025.77768044919
 20
-3594.377111061253
 30
0.0
 11
6025.77768044919
 21
-3594.347111061254
 31
0.0
  0
LINE
  5
9D11E
330
18
100
AcDbEntity
  8
実線
100
AcDbLine
 10
6024.622124893634
 20
-3594.347111061254
 30
0.0
 11
6024.622124893634
 21
-3594.377111061253
 31
0.0
  0
LINE
  5
9D11F
330
18
100
AcDbEntity
  8
実線
100
AcDbLine
 10
6023.740177897155
 20
-3594.377111061253
 30
0.0
 11
6023.740177897155
 21
-3594.347111061254
 31
0.0
  0
LINE
  5
9D120
330
18
100
AcDbEntity
  8
実線
100
AcDbLine
 10
6024.788581672243
 20
-3594.377111061253
 30
0.0
 11
6024.788581672243
 21
-3594.347111061254
 31
0.0
  0
LINE
  5
9D121
330
18
100
AcDbEntity
  8
実線
100
AcDbLine
 10
6023.633026116687
 20
-3594.347111061254
 30
0.0
 11
6023.633026116687
 21
-3594.377111061253
 31
0.0
  0
LINE
  5
9D122
330
18
100
AcDbEntity
  8
実線
100
AcDbLine
 10
6026.766753337053
 20
-3594.377111061253
 30
0.0
 11
6026.766753337053
 21
-3594.347111061254
 31
0.0
  0
LINE
  5
9D123
330
18
100
AcDbEntity
  8
実線
100
AcDbLine
 10
6026.65962744567
 20
-3594.377111061253
 30
0.0
 11
6026.65962744567
 21
-3594.347111061254
 31
0.0
  0
LINE
  5
9D124
330
18
100
AcDbEntity
  8
実線
100
AcDbLine
 10
6025.611223670582
 20
-3594.347111061254
 30
0.0
 11
6025.611223670582
 21
-3594.377111061253
 31
0.0
  0
LINE
  5
9D125
330
18
100
AcDbEntity
  8
実線
100
AcDbLine
 10
6023.506104963854
 20
-3594.377111061253
 30
0.0
 11
6023.506104963854
 21
-3594.347111061254
 31
0.0
  0
LINE
  5
9D126
330
18
100
AcDbEntity
  8
実線
100
AcDbLine
 10
6024.045952226692
 20
-3594.377111061253
 30
0.0
 11
6024.045952226692
 21
-3594.347111061254
 31
0.0
  0
LINE
  5
9D127
330
18
100
AcDbEntity
  8
実線
100
AcDbLine
 10
6023.466569338079
 20
-3594.347111061254
 30
0.0
 11
6023.466569338079
 21
-3594.377111061253
 31
0.0
  0
LINE
  5
9D128
330
18
100
AcDbEntity
  8
実線
100
AcDbLine
 10
6026.893700378971
 20
-3594.377111061253
 30
0.0
 11
6026.893700378971
 21
-3594.347111061254
 31
0.0
  0
LINE
  5
9D129
330
18
100
AcDbEntity
  8
実線
100
AcDbLine
 10
6026.933236004746
 20
-3594.377111061253
 30
0.0
 11
6026.933236004746
 21
-3594.347111061254
 31
0.0
  0
LINE
  5
9D12A
330
18
100
AcDbEntity
  8
実線
100
AcDbLine
 10
6026.353853116133
 20
-3594.377111061253
 30
0.0
 11
6026.353853116133
 21
-3594.347111061254
 31
0.0
  0
LINE
  5
9D12B
330
18
100
AcDbEntity
  8
実線
100
AcDbLine
 10
6025.994936304741
 20
-3594.377111061253
 30
0.0
 11
6025.994936304741
 21
-3594.347111061254
 31
0.0
  0
LINE
  5
9D12C
330
18
100
AcDbEntity
  8
実線
100
AcDbLine
 10
6026.275395529456
 20
-3594.377111061253
 30
0.0
 11
6026.275395529456
 21
-3594.347111061254
 31
0.0
  0
LINE
  5
9D12D
330
18
100
AcDbEntity
  8
実線
100
AcDbLine
 10
6026.388977111575
 20
-3594.377111061253
 30
0.0
 11
6026.388977111575
 21
-3594.347111061254
 31
0.0
  0
LINE
  5
9D12E
330
18
100
AcDbEntity
  8
実線
100
AcDbLine
 10
6025.233421556019
 20
-3594.347111061254
 30
0.0
 11
6025.233421556019
 21
-3594.377111061253
 31
0.0
  0
LINE
  5
9D12F
330
18
100
AcDbEntity
  8
実線
100
AcDbLine
 10
6024.404869038085
 20
-3594.377111061253
 30
0.0
 11
6024.404869038085
 21
-3594.347111061254
 31
0.0
  0
LINE
  5
9D130
330
18
100
AcDbEntity
  8
実線
100
AcDbLine
 10
6024.124409813368
 20
-3594.377111061253
 30
0.0
 11
6024.124409813368
 21
-3594.347111061254
 31
0.0
  0
LINE
  5
9D131
330
18
100
AcDbEntity
  8
実線
100
AcDbLine
 10
6025.166383786807
 20
-3594.377111061253
 30
0.0
 11
6025.166383786807
 21
-3594.347111061254
 31
0.0
  0
LINE
  5
9D132
330
18
100
AcDbEntity
  8
実線
100
AcDbLine
 10
6024.010828231251
 20
-3594.347111061254
 30
0.0
 11
6024.010828231251
 21
-3594.377111061253
 31
0.0
  0
LINE
  5
9D133
330
18
100
AcDbEntity
  8
実線
100
AcDbLine
 10
6024.326411451409
 20
-3594.377111061253
 30
0.0
 11
6024.326411451409
 21
-3594.347111061254
 31
0.0
  0
LINE
  5
9D134
330
18
100
AcDbEntity
  8
実線
100
AcDbLine
 10
6026.073393891416
 20
-3594.377111061253
 30
0.0
 11
6026.073393891416
 21
-3594.347111061254
 31
0.0
  0
LINE
  5
9D135
330
18
100
AcDbEntity
  8
実線
100
AcDbLine
 10
6027.10656933808
 20
-3594.377111061253
 30
0.0
 11
6027.10656933808
 21
-3594.347111061254
 31
0.0
  0
LINE
  5
9D136
330
18
100
AcDbEntity
  8
実線
100
AcDbLine
 10
6023.293236004747
 20
-3594.377111061253
 30
0.0
 11
6023.293236004747
 21
-3594.347111061254
 31
0.0
  0
LINE
  5
9D137
330
18
100
AcDbEntity
  8
実線
100
AcDbLine
 10
6023.293236004747
 20
-3594.377111061253
 30
0.0
 11
6027.10656933808
 21
-3594.377111061253
 31
0.0
  0
LINE
  5
9D138
330
18
100
AcDbEntity
  8
実線
100
AcDbLine
 10
6022.599902671412
 20
-3594.347111061254
 30
0.0
 11
6022.599902671412
 21
-3609.347111061254
 31
0.0
  0
LINE
  5
9D139
330
18
100
AcDbEntity
  8
実線
100
AcDbLine
 10
6022.599902671412
 20
-3594.347111061254
 30
0.0
 11
6027.799902671413
 21
-3594.347111061254
 31
0.0
  0
LINE
  5
9D13A
330
18
100
AcDbEntity
  8
実線
100
AcDbLine
 10
6031.599902671413
 20
-3594.347111061254
 30
0.0
 11
6031.599902671413
 21
-3609.347111061254
 31
0.0
  0
LINE
  5
9D13B
330
18
100
AcDbEntity
  8
実線
100
AcDbLine
 10
6022.599902671412
 20
-3609.347111061254
 30
0.0
 11
6027.799902671413
 21
-3609.347111061254
 31
0.0
  0
LINE
  5
9D13C
330
18
100
AcDbEntity
  8
実線
100
AcDbLine
 10
6022.503669239721
 20
-3607.037111061254
 30
0.0
 11
6022.599902671412
 21
-3607.037111061254
 31
0.0
  0
LINE
  5
9D13D
330
18
100
AcDbEntity
  8
実線
100
AcDbLine
 10
6022.599902671412
 20
-3596.657111061254
 30
0.0
 11
6022.503669239721
 21
-3596.657111061254
 31
0.0
  0
LINE
  5
9D13E
330
18
100
AcDbEntity
  8
実線
100
AcDbLine
 10
6039.765010379674
 20
-3595.018150197585
 30
0.0
 11
6039.765010379674
 21
-3594.347111061254
 31
0.0
  0
LINE
  5
9D13F
330
18
100
AcDbEntity
  8
実線
100
AcDbLine
 10
6027.585543317467
 20
-3608.676071924922
 30
0.0
 11
6027.585543317467
 21
-3609.347111061254
 31
0.0
  0
LINE
  5
9D140
330
18
100
AcDbEntity
  8
実線
100
AcDbLine
 10
6027.799902671413
 20
-3594.347111061254
 30
0.0
 11
6027.799902671413
 21
-3609.347111061254
 31
0.0
  0
LINE
  5
9D141
330
18
100
AcDbEntity
  8
実線
100
AcDbLine
 10
6027.585543317467
 20
-3594.347111061254
 30
0.0
 11
6027.585543317467
 21
-3595.018150197585
 31
0.0
  0
LINE
  5
9D142
330
18
100
AcDbEntity
  8
実線
100
AcDbLine
 10
6039.765010379674
 20
-3609.347111061254
 30
0.0
 11
6039.765010379674
 21
-3608.676071924922
 31
0.0
  0
LINE
  5
9D143
330
18
100
AcDbEntity
  8
実線
100
AcDbLine
 10
6027.799902671413
 20
-3608.447111061253
 30
0.0
 11
6031.599902671413
 21
-3608.447111061253
 31
0.0
  0
LINE
  5
9D144
330
18
100
AcDbEntity
  8
実線
100
AcDbLine
 10
6031.599902671413
 20
-3595.247111061254
 30
0.0
 11
6027.799902671413
 21
-3595.247111061254
 31
0.0
  0
LINE
  5
9D145
330
18
100
AcDbEntity
  8
実線
100
AcDbLine
 10
6044.599902671413
 20
-3596.987111061254
 30
0.0
 11
6044.599902671413
 21
-3606.707111061253
 31
0.0
  0
ARC
  5
9D146
330
18
100
AcDbEntity
  8
実線
100
AcDbCircle
 10
6041.959902671412
 20
-3606.707111061253
 30
0.0
 40
2.639999999999998
100
AcDbArc
 50
270.0
 51
0.0
  0
ARC
  5
9D147
330
18
100
AcDbEntity
  8
実線
100
AcDbCircle
 10
6041.959902671412
 20
-3596.987111061254
 30
0.0
 40
2.640000000000004
100
AcDbArc
 50
0.0000008537783835
 51
90.0
  0
LINE
  5
9D148
330
18
100
AcDbEntity
  8
実線
100
AcDbLine
 10
6040.565010379674
 20
-3594.347111061254
 30
0.0
 11
6040.565010379674
 21
-3609.347111061254
 31
0.0
  0
LINE
  5
9D149
330
18
100
AcDbEntity
  8
実線
100
AcDbLine
 10
6031.599902671413
 20
-3609.347111061254
 30
0.0
 11
6041.959902671412
 21
-3609.347111061254
 31
0.0
  0
LINE
  5
9D14A
330
18
100
AcDbEntity
  8
実線
100
AcDbLine
 10
6041.959902671412
 20
-3594.347111061254
 30
0.0
 11
6031.599902671413
 21
-3594.347111061254
 31
0.0
  0
LINE
  5
9D14B
330
18
100
AcDbEntity
  8
実線
100
AcDbLine
 10
6041.959902671412
 20
-3594.347111061254
 30
0.0
 11
6041.959902671412
 21
-3609.347111061254
 31
0.0
  0
LWPOLYLINE
  5
9D14C
330
18
100
AcDbEntity
  8
実線
100
AcDbPolyline
 90
        8
 70
     0
 43
0.0
 10
6039.765010379674
 20
-3608.676071924922
 10
6039.970886408385
 20
-3608.233091584442
 10
6040.15207681439
 20
-3607.781852102004
 10
6040.3047011349
 20
-3607.323175857518
 10
6040.428145519259
 20
-3606.842437190303
 10
6040.513851976379
 20
-3606.355056022142
 10
6040.558667867052
 20
-3605.86428785218
 10
6040.565010379674
 20
-3605.597111061254
  0
LINE
  5
9D14D
330
18
100
AcDbEntity
  8
実線
100
AcDbLine
 10
6039.765010379674
 20
-3608.676071924922
 30
0.0
 11
6031.599902671413
 21
-3608.676071924922
 31
0.0
  0
LINE
  5
9D14E
330
18
100
AcDbEntity
  8
実線
100
AcDbLine
 10
6022.599902671412
 20
-3608.676071924922
 30
0.0
 11
6027.585543317467
 21
-3608.676071924922
 31
0.0
  0
LWPOLYLINE
  5
9D14F
330
18
100
AcDbEntity
  8
実線
100
AcDbPolyline
 90
        5
 70
     0
 43
0.0
 10
6027.799902671413
 20
-3605.597111061254
 10
6027.785776454795
 20
-3606.36721784794
 10
6027.744225972533
 20
-3607.136591493088
 10
6027.676562740365
 20
-3607.907223970583
 10
6027.585543317467
 20
-3608.676071924922
  0
LINE
  5
9D150
330
18
100
AcDbEntity
  8
実線
100
AcDbLine
 10
6022.599902671412
 20
-3595.018150197585
 30
0.0
 11
6027.585543317467
 21
-3595.018150197585
 31
0.0
  0
LWPOLYLINE
  5
9D151
330
18
100
AcDbEntity
  8
実線
100
AcDbPolyline
 90
        5
 70
     0
 43
0.0
 10
6027.585543317467
 20
-3595.018150197585
 10
6027.676299930119
 20
-3595.784461783065
 10
6027.743862685061
 20
-3596.552547436119
 10
6027.785682964102
 20
-3597.32445917044
 10
6027.799902671413
 20
-3598.097111061254
  0
LWPOLYLINE
  5
9D152
330
18
100
AcDbEntity
  8
実線
100
AcDbPolyline
 90
        9
 70
     0
 43
0.0
 10
6040.565010379674
 20
-3598.097111061254
 10
6040.550404555067
 20
-3597.693612657629
 10
6040.50735939997
 20
-3597.291244518086
 10
6040.437033392472
 20
-3596.892111190737
 10
6040.337441421235
 20
-3596.485185651049
 10
6040.2126904125
 20
-3596.083148876053
 10
6040.065377158767
 20
-3595.687111320219
 10
6039.922038375602
 20
-3595.350568726913
 10
6039.765010379674
 20
-3595.018150197585
  0
LINE
  5
9D153
330
18
100
AcDbEntity
  8
実線
100
AcDbLine
 10
6039.765010379674
 20
-3595.018150197585
 30
0.0
 11
6031.599902671413
 21
-3595.018150197585
 31
0.0
  0
LINE
  5
9D154
330
18
100
AcDbEntity
  8
実線
100
AcDbLine
 10
6022.599902671412
 20
-3601.176071924922
 30
0.0
 11
6027.585543317467
 21
-3601.176071924922
 31
0.0
  0
LINE
  5
9D155
330
18
100
AcDbEntity
  8
実線
100
AcDbLine
 10
6022.599902671412
 20
-3602.518150197585
 30
0.0
 11
6027.585543317467
 21
-3602.518150197585
 31
0.0
  0
LINE
  5
9D156
330
18
100
AcDbEntity
  8
実線
100
AcDbLine
 10
6039.765010379674
 20
-3601.176071924922
 30
0.0
 11
6031.599902671413
 21
-3601.176071924922
 31
0.0
  0
LINE
  5
9D157
330
18
100
AcDbEntity
  8
実線
100
AcDbLine
 10
6039.765010379674
 20
-3602.518150197585
 30
0.0
 11
6031.599902671413
 21
-3602.518150197585
 31
0.0
  0
LWPOLYLINE
  5
9D158
330
18
100
AcDbEntity
  8
実線
100
AcDbPolyline
 90
        5
 70
     0
 43
0.0
 10
6027.799902671413
 20
-3598.097111061254
 10
6027.785776454795
 20
-3598.867217847941
 10
6027.744225972533
 20
-3599.636591493089
 10
6027.676562740365
 20
-3600.407223970583
 10
6027.585543317467
 20
-3601.176071924922
  0
LINE
  5
9D159
330
18
100
AcDbEntity
  8
実線
100
AcDbLine
 10
6027.585543317467
 20
-3601.176071924922
 30
0.0
 11
6027.585543317467
 21
-3602.518150197585
 31
0.0
  0
LWPOLYLINE
  5
9D15A
330
18
100
AcDbEntity
  8
実線
100
AcDbPolyline
 90
        5
 70
     0
 43
0.0
 10
6027.585543317467
 20
-3602.518150197585
 10
6027.676299930119
 20
-3603.284461783064
 10
6027.743862685061
 20
-3604.052547436119
 10
6027.785682964102
 20
-3604.824459170441
 10
6027.799902671413
 20
-3605.597111061254
  0
LWPOLYLINE
  5
9D15B
330
18
100
AcDbEntity
  8
実線
100
AcDbPolyline
 90
        8
 70
     0
 43
0.0
 10
6039.765010379674
 20
-3601.176071924922
 10
6039.970886408384
 20
-3600.733091584442
 10
6040.15207681439
 20
-3600.281852102004
 10
6040.3047011349
 20
-3599.823175857518
 10
6040.428145519259
 20
-3599.342437190304
 10
6040.513851976379
 20
-3598.855056022142
 10
6040.558667867052
 20
-3598.36428785218
 10
6040.565010379674
 20
-3598.097111061254
  0
LINE
  5
9D15C
330
18
100
AcDbEntity
  8
実線
100
AcDbLine
 10
6039.765010379674
 20
-3602.518150197585
 30
0.0
 11
6039.765010379674
 21
-3601.176071924922
 31
0.0
  0
LWPOLYLINE
  5
9D15D
330
18
100
AcDbEntity
  8
実線
100
AcDbPolyline
 90
        9
 70
     0
 43
0.0
 10
6040.565010379674
 20
-3605.597111061254
 10
6040.550404555067
 20
-3605.193612657629
 10
6040.50735939997
 20
-3604.791244518085
 10
6040.437033392472
 20
-3604.392111190737
 10
6040.337441421235
 20
-3603.985185651048
 10
6040.2126904125
 20
-3603.583148876054
 10
6040.065377158767
 20
-3603.187111320219
 10
6039.922038375602
 20
-3602.850568726913
 10
6039.765010379674
 20
-3602.518150197585
  0
SPLINE
  5
9D15E
330
18
100
AcDbEntity
  8
細線
 48
0.5
100
AcDbSpline
210
0.0
220
0.0
230
1.0
 70
  1064
 71
     3
 72
     9
 73
     5
 74
     3
 42
0.000000001
 43
0.0000000001
 44
0.0000000001
 40
0.0
 40
0.0
 40
0.0
 40
0.0
 40
1.781692860184902
 40
3.124187336642761
 40
3.124187336642761
 40
3.124187336642761
 40
3.124187336642761
 10
5219.195064827324
 20
-3601.847111061255
 30
0.0
 10
5218.845288102119
 20
-3602.411810707359
 30
0.0
 10
5218.231956792354
 20
-3603.402008020708
 30
0.0
 10
5218.908562953021
 20
-3604.307858199482
 30
0.0
 10
5219.19930737247
 20
-3604.697111061254
 30
0.0
 11
5219.195064827324
 21
-3601.847111061255
 31
0.0
 11
5218.565261927791
 21
-3603.51377772132
 31
0.0
 11
5219.19930737247
 21
-3604.697111061254
 31
0.0
  0
SPLINE
  5
9D15F
330
18
100
AcDbEntity
  8
細線
 48
0.5
100
AcDbSpline
210
0.0
220
0.0
230
1.0
 70
  1064
 71
     3
 72
    11
 73
     7
 74
     5
 42
0.000000001
 43
0.0000000001
 44
0.0000000001
 40
0.0
 40
0.0
 40
0.0
 40
0.0
 40
1.34249446869977
 40
3.124187337120843
 40
4.908897205342464
 40
6.251391681801182
 40
6.251391681801182
 40
6.251391681801182
 40
6.251391681801182
 10
5219.19930737247
 20
-3598.997111061253
 30
0.0
 10
5218.908717412051
 20
-3599.386307297701
 30
0.0
 10
5218.232470696847
 20
-3600.292025706167
 30
0.0
 10
5219.19279279249
 20
-3601.849117307484
 30
0.0
 10
5220.168900296172
 20
-3603.400422198525
 30
0.0
 10
5219.490529040097
 20
-3604.307644632853
 30
0.0
 10
5219.19930737247
 20
-3604.697111061254
 30
0.0
 11
5219.19930737247
 21
-3598.997111061253
 31
0.0
 11
5218.565261927789
 21
-3600.180444392385
 31
0.0
 11
5219.195064827324
 21
-3601.847111061255
 31
0.0
 11
5219.83335281715
 21
-3603.51377772132
 31
0.0
 11
5219.19930737247
 21
-3604.697111061254
 31
0.0
  0
LINE
  5
9D160
330
18
100
AcDbEntity
  8
実線
100
AcDbLine
 10
5245.185979188647
 20
-3609.317111061255
 30
0.0
 11
5245.185979188647
 21
-3609.347111061255
 31
0.0
  0
LINE
  5
9D161
330
18
100
AcDbEntity
  8
実線
100
AcDbLine
 10
5242.012635556298
 20
-3609.317111061255
 30
0.0
 11
5242.012635556298
 21
-3609.347111061255
 31
0.0
  0
LINE
  5
9D162
330
18
100
AcDbEntity
  8
実線
100
AcDbLine
 10
5243.425974039139
 20
-3609.317111061255
 30
0.0
 11
5243.425974039139
 21
-3609.347111061255
 31
0.0
  0
LINE
  5
9D163
330
18
100
AcDbEntity
  8
実線
100
AcDbLine
 10
5243.772640705806
 20
-3609.317111061255
 30
0.0
 11
5243.772640705806
 21
-3609.347111061255
 31
0.0
  0
LINE
  5
9D164
330
18
100
AcDbEntity
  8
実線
100
AcDbLine
 10
5243.021529594694
 20
-3609.317111061255
 30
0.0
 11
5243.021529594694
 21
-3609.347111061255
 31
0.0
  0
LINE
  5
9D165
330
18
100
AcDbEntity
  8
実線
100
AcDbLine
 10
5244.17708515025
 20
-3609.347111061255
 30
0.0
 11
5244.17708515025
 21
-3609.317111061255
 31
0.0
  0
LINE
  5
9D166
330
18
100
AcDbEntity
  8
実線
100
AcDbLine
 10
5245.05903214673
 20
-3609.317111061255
 30
0.0
 11
5245.05903214673
 21
-3609.347111061255
 31
0.0
  0
LINE
  5
9D167
330
18
100
AcDbEntity
  8
実線
100
AcDbLine
 10
5244.010628371642
 20
-3609.317111061255
 30
0.0
 11
5244.010628371642
 21
-3609.347111061255
 31
0.0
  0
LINE
  5
9D168
330
18
100
AcDbEntity
  8
実線
100
AcDbLine
 10
5245.166183927198
 20
-3609.347111061255
 30
0.0
 11
5245.166183927198
 21
-3609.317111061255
 31
0.0
  0
LINE
  5
9D169
330
18
100
AcDbEntity
  8
実線
100
AcDbLine
 10
5242.032456706832
 20
-3609.317111061255
 30
0.0
 11
5242.032456706832
 21
-3609.347111061255
 31
0.0
  0
LINE
  5
9D16A
330
18
100
AcDbEntity
  8
実線
100
AcDbLine
 10
5242.139582598215
 20
-3609.317111061255
 30
0.0
 11
5242.139582598215
 21
-3609.347111061255
 31
0.0
  0
LINE
  5
9D16B
330
18
100
AcDbEntity
  8
実線
100
AcDbLine
 10
5243.187986373303
 20
-3609.347111061255
 30
0.0
 11
5243.187986373303
 21
-3609.317111061255
 31
0.0
  0
LINE
  5
9D16C
330
18
100
AcDbEntity
  8
実線
100
AcDbLine
 10
5245.293105080031
 20
-3609.317111061255
 30
0.0
 11
5245.293105080031
 21
-3609.347111061255
 31
0.0
  0
LINE
  5
9D16D
330
18
100
AcDbEntity
  8
実線
100
AcDbLine
 10
5244.753257817193
 20
-3609.317111061255
 30
0.0
 11
5244.753257817193
 21
-3609.347111061255
 31
0.0
  0
LINE
  5
9D16E
330
18
100
AcDbEntity
  8
実線
100
AcDbLine
 10
5245.332640705806
 20
-3609.347111061255
 30
0.0
 11
5245.332640705806
 21
-3609.317111061255
 31
0.0
  0
LINE
  5
9D16F
330
18
100
AcDbEntity
  8
実線
100
AcDbLine
 10
5241.905509664913
 20
-3609.317111061255
 30
0.0
 11
5241.905509664913
 21
-3609.347111061255
 31
0.0
  0
LINE
  5
9D170
330
18
100
AcDbEntity
  8
実線
100
AcDbLine
 10
5241.865974039138
 20
-3609.317111061255
 30
0.0
 11
5241.865974039138
 21
-3609.347111061255
 31
0.0
  0
LINE
  5
9D171
330
18
100
AcDbEntity
  8
実線
100
AcDbLine
 10
5242.445356927753
 20
-3609.317111061255
 30
0.0
 11
5242.445356927753
 21
-3609.347111061255
 31
0.0
  0
LINE
  5
9D172
330
18
100
AcDbEntity
  8
実線
100
AcDbLine
 10
5242.804273739144
 20
-3609.317111061255
 30
0.0
 11
5242.804273739144
 21
-3609.347111061255
 31
0.0
  0
LINE
  5
9D173
330
18
100
AcDbEntity
  8
実線
100
AcDbLine
 10
5242.523814514427
 20
-3609.317111061255
 30
0.0
 11
5242.523814514427
 21
-3609.347111061255
 31
0.0
  0
LINE
  5
9D174
330
18
100
AcDbEntity
  8
実線
100
AcDbLine
 10
5242.41023293231
 20
-3609.317111061255
 30
0.0
 11
5242.41023293231
 21
-3609.347111061255
 31
0.0
  0
LINE
  5
9D175
330
18
100
AcDbEntity
  8
実線
100
AcDbLine
 10
5243.565788487866
 20
-3609.347111061255
 30
0.0
 11
5243.565788487866
 21
-3609.317111061255
 31
0.0
  0
LINE
  5
9D176
330
18
100
AcDbEntity
  8
実線
100
AcDbLine
 10
5244.394341005801
 20
-3609.317111061255
 30
0.0
 11
5244.394341005801
 21
-3609.347111061255
 31
0.0
  0
LINE
  5
9D177
330
18
100
AcDbEntity
  8
実線
100
AcDbLine
 10
5244.674800230517
 20
-3609.317111061255
 30
0.0
 11
5244.674800230517
 21
-3609.347111061255
 31
0.0
  0
LINE
  5
9D178
330
18
100
AcDbEntity
  8
実線
100
AcDbLine
 10
5243.632826257079
 20
-3609.317111061255
 30
0.0
 11
5243.632826257079
 21
-3609.347111061255
 31
0.0
  0
LINE
  5
9D179
330
18
100
AcDbEntity
  8
実線
100
AcDbLine
 10
5244.788381812635
 20
-3609.347111061255
 30
0.0
 11
5244.788381812635
 21
-3609.317111061255
 31
0.0
  0
LINE
  5
9D17A
330
18
100
AcDbEntity
  8
実線
100
AcDbLine
 10
5244.472798592475
 20
-3609.317111061255
 30
0.0
 11
5244.472798592475
 21
-3609.347111061255
 31
0.0
  0
LINE
  5
9D17B
330
18
100
AcDbEntity
  8
実線
100
AcDbLine
 10
5242.725816152469
 20
-3609.317111061255
 30
0.0
 11
5242.725816152469
 21
-3609.347111061255
 31
0.0
  0
LINE
  5
9D17C
330
18
100
AcDbEntity
  8
実線
100
AcDbLine
 10
5241.692640705806
 20
-3609.317111061255
 30
0.0
 11
5241.692640705806
 21
-3609.347111061255
 31
0.0
  0
LINE
  5
9D17D
330
18
100
AcDbEntity
  8
実線
100
AcDbLine
 10
5245.505974039139
 20
-3609.317111061255
 30
0.0
 11
5245.505974039139
 21
-3609.347111061255
 31
0.0
  0
LINE
  5
9D17E
330
18
100
AcDbEntity
  8
実線
100
AcDbLine
 10
5245.505974039139
 20
-3609.317111061255
 30
0.0
 11
5241.692640705806
 21
-3609.317111061255
 31
0.0
  0
LINE
  5
9D17F
330
18
100
AcDbEntity
  8
実線
100
AcDbLine
 10
5246.199307372473
 20
-3609.347111061255
 30
0.0
 11
5246.199307372473
 21
-3594.347111061255
 31
0.0
  0
LINE
  5
9D180
330
18
100
AcDbEntity
  8
実線
100
AcDbLine
 10
5246.199307372473
 20
-3609.347111061255
 30
0.0
 11
5240.999307372472
 21
-3609.347111061255
 31
0.0
  0
LINE
  5
9D181
330
18
100
AcDbEntity
  8
実線
100
AcDbLine
 10
5237.199307372474
 20
-3609.347111061255
 30
0.0
 11
5237.199307372474
 21
-3594.347111061255
 31
0.0
  0
LINE
  5
9D182
330
18
100
AcDbEntity
  8
実線
100
AcDbLine
 10
5246.199307372473
 20
-3594.347111061255
 30
0.0
 11
5240.999307372472
 21
-3594.347111061255
 31
0.0
  0
LINE
  5
9D183
330
18
100
AcDbEntity
  8
実線
100
AcDbLine
 10
5246.295540804163
 20
-3596.657111061255
 30
0.0
 11
5246.199307372473
 21
-3596.657111061255
 31
0.0
  0
LINE
  5
9D184
330
18
100
AcDbEntity
  8
実線
100
AcDbLine
 10
5246.199307372473
 20
-3607.037111061254
 30
0.0
 11
5246.295540804163
 21
-3607.037111061254
 31
0.0
  0
LINE
  5
9D185
330
18
100
AcDbEntity
  8
実線
100
AcDbLine
 10
5229.034199664211
 20
-3608.676071924923
 30
0.0
 11
5229.034199664211
 21
-3609.347111061255
 31
0.0
  0
LINE
  5
9D186
330
18
100
AcDbEntity
  8
実線
100
AcDbLine
 10
5241.213666726418
 20
-3595.018150197585
 30
0.0
 11
5241.213666726418
 21
-3594.347111061255
 31
0.0
  0
LINE
  5
9D187
330
18
100
AcDbEntity
  8
実線
100
AcDbLine
 10
5240.999307372472
 20
-3609.347111061255
 30
0.0
 11
5240.999307372472
 21
-3594.347111061255
 31
0.0
  0
LINE
  5
9D188
330
18
100
AcDbEntity
  8
実線
100
AcDbLine
 10
5241.213666726418
 20
-3609.347111061255
 30
0.0
 11
5241.213666726418
 21
-3608.676071924923
 31
0.0
  0
LINE
  5
9D189
330
18
100
AcDbEntity
  8
実線
100
AcDbLine
 10
5229.034199664211
 20
-3594.347111061255
 30
0.0
 11
5229.034199664211
 21
-3595.018150197585
 31
0.0
  0
LINE
  5
9D18A
330
18
100
AcDbEntity
  8
実線
100
AcDbLine
 10
5240.999307372472
 20
-3595.247111061255
 30
0.0
 11
5237.199307372474
 21
-3595.247111061255
 31
0.0
  0
LINE
  5
9D18B
330
18
100
AcDbEntity
  8
実線
100
AcDbLine
 10
5237.199307372474
 20
-3608.447111061254
 30
0.0
 11
5240.999307372472
 21
-3608.447111061254
 31
0.0
  0
LINE
  5
9D18C
330
18
100
AcDbEntity
  8
実線
100
AcDbLine
 10
5224.199307372473
 20
-3606.707111061254
 30
0.0
 11
5224.199307372473
 21
-3596.987111061255
 31
0.0
  0
ARC
  5
9D18D
330
18
100
AcDbEntity
  8
実線
100
AcDbCircle
 10
5226.839307372473
 20
-3596.987111061255
 30
0.0
 40
2.639999999999998
100
AcDbArc
 50
90.0
 51
180.0
  0
ARC
  5
9D18E
330
18
100
AcDbEntity
  8
実線
100
AcDbCircle
 10
5226.839307372473
 20
-3606.707111061254
 30
0.0
 40
2.640000000000004
100
AcDbArc
 50
180.0000008537784
 51
270.0
  0
LINE
  5
9D18F
330
18
100
AcDbEntity
  8
実線
100
AcDbLine
 10
5228.23419966421
 20
-3609.347111061255
 30
0.0
 11
5228.23419966421
 21
-3594.347111061255
 31
0.0
  0
LINE
  5
9D190
330
18
100
AcDbEntity
  8
実線
100
AcDbLine
 10
5237.199307372474
 20
-3594.347111061255
 30
0.0
 11
5226.839307372473
 21
-3594.347111061255
 31
0.0
  0
LINE
  5
9D191
330
18
100
AcDbEntity
  8
実線
100
AcDbLine
 10
5226.839307372473
 20
-3609.347111061255
 30
0.0
 11
5237.199307372474
 21
-3609.347111061255
 31
0.0
  0
LINE
  5
9D192
330
18
100
AcDbEntity
  8
実線
100
AcDbLine
 10
5226.839307372473
 20
-3609.347111061255
 30
0.0
 11
5226.839307372473
 21
-3594.347111061255
 31
0.0
  0
LWPOLYLINE
  5
9D193
330
18
100
AcDbEntity
  8
実線
100
AcDbPolyline
 90
        8
 70
     0
 43
0.0
 10
5229.034199664211
 20
-3595.018150197585
 10
5228.8283236355
 20
-3595.461130538066
 10
5228.647133229495
 20
-3595.912370020504
 10
5228.494508908985
 20
-3596.371046264991
 10
5228.371064524626
 20
-3596.851784932205
 10
5228.285358067505
 20
-3597.339166100366
 10
5228.240542176834
 20
-3597.829934270329
 10
5228.23419966421
 20
-3598.097111061255
  0
LINE
  5
9D194
330
18
100
AcDbEntity
  8
実線
100
AcDbLine
 10
5229.034199664211
 20
-3595.018150197585
 30
0.0
 11
5237.199307372474
 21
-3595.018150197585
 31
0.0
  0
LINE
  5
9D195
330
18
100
AcDbEntity
  8
実線
100
AcDbLine
 10
5246.199307372473
 20
-3595.018150197585
 30
0.0
 11
5241.213666726418
 21
-3595.018150197585
 31
0.0
  0
LWPOLYLINE
  5
9D196
330
18
100
AcDbEntity
  8
実線
100
AcDbPolyline
 90
        5
 70
     0
 43
0.0
 10
5240.999307372472
 20
-3598.097111061255
 10
5241.01343358909
 20
-3597.327004274568
 10
5241.054984071352
 20
-3596.557630629421
 10
5241.12264730352
 20
-3595.786998151925
 10
5241.213666726418
 20
-3595.018150197585
  0
LINE
  5
9D197
330
18
100
AcDbEntity
  8
実線
100
AcDbLine
 10
5246.199307372473
 20
-3608.676071924923
 30
0.0
 11
5241.213666726418
 21
-3608.676071924923
 31
0.0
  0
LWPOLYLINE
  5
9D198
330
18
100
AcDbEntity
  8
実線
100
AcDbPolyline
 90
        5
 70
     0
 43
0.0
 10
5241.213666726418
 20
-3608.676071924923
 10
5241.122910113766
 20
-3607.909760339444
 10
5241.055347358824
 20
-3607.141674686389
 10
5241.013527079783
 20
-3606.369762952069
 10
5240.999307372472
 20
-3605.597111061256
  0
LWPOLYLINE
  5
9D199
330
18
100
AcDbEntity
  8
実線
100
AcDbPolyline
 90
        9
 70
     0
 43
0.0
 10
5228.23419966421
 20
-3605.597111061256
 10
5228.248805488818
 20
-3606.000609464879
 10
5228.291850643914
 20
-3606.402977604425
 10
5228.362176651412
 20
-3606.802110931771
 10
5228.461768622651
 20
-3607.20903647146
 10
5228.586519631384
 20
-3607.611073246455
 10
5228.733832885119
 20
-3608.007110802289
 10
5228.877171668283
 20
-3608.343653395596
 10
5229.034199664211
 20
-3608.676071924923
  0
LINE
  5
9D19A
330
18
100
AcDbEntity
  8
実線
100
AcDbLine
 10
5229.034199664211
 20
-3608.676071924923
 30
0.0
 11
5237.199307372474
 21
-3608.676071924923
 31
0.0
  0
LINE
  5
9D19B
330
18
100
AcDbEntity
  8
実線
100
AcDbLine
 10
5246.199307372473
 20
-3602.518150197586
 30
0.0
 11
5241.213666726418
 21
-3602.518150197586
 31
0.0
  0
LINE
  5
9D19C
330
18
100
AcDbEntity
  8
実線
100
AcDbLine
 10
5246.199307372473
 20
-3601.176071924923
 30
0.0
 11
5241.213666726418
 21
-3601.176071924923
 31
0.0
  0
LINE
  5
9D19D
330
18
100
AcDbEntity
  8
実線
100
AcDbLine
 10
5229.034199664211
 20
-3602.518150197586
 30
0.0
 11
5237.199307372474
 21
-3602.518150197586
 31
0.0
  0
LINE
  5
9D19E
330
18
100
AcDbEntity
  8
実線
100
AcDbLine
 10
5229.034199664211
 20
-3601.176071924923
 30
0.0
 11
5237.199307372474
 21
-3601.176071924923
 31
0.0
  0
LWPOLYLINE
  5
9D19F
330
18
100
AcDbEntity
  8
実線
100
AcDbPolyline
 90
        5
 70
     0
 43
0.0
 10
5240.999307372472
 20
-3605.597111061256
 10
5241.01343358909
 20
-3604.827004274568
 10
5241.054984071352
 20
-3604.057630629422
 10
5241.12264730352
 20
-3603.286998151926
 10
5241.213666726418
 20
-3602.518150197586
  0
LINE
  5
9D1A0
330
18
100
AcDbEntity
  8
実線
100
AcDbLine
 10
5241.213666726418
 20
-3602.518150197586
 30
0.0
 11
5241.213666726418
 21
-3601.176071924923
 31
0.0
  0
LWPOLYLINE
  5
9D1A1
330
18
100
AcDbEntity
  8
実線
100
AcDbPolyline
 90
        5
 70
     0
 43
0.0
 10
5241.213666726418
 20
-3601.176071924923
 10
5241.122910113766
 20
-3600.409760339444
 10
5241.055347358824
 20
-3599.641674686389
 10
5241.013527079783
 20
-3598.869762952068
 10
5240.999307372472
 20
-3598.097111061255
  0
LWPOLYLINE
  5
9D1A2
330
18
100
AcDbEntity
  8
実線
100
AcDbPolyline
 90
        8
 70
     0
 43
0.0
 10
5229.034199664211
 20
-3602.518150197586
 10
5228.828323635501
 20
-3602.961130538066
 10
5228.647133229495
 20
-3603.412370020504
 10
5228.494508908985
 20
-3603.871046264991
 10
5228.371064524626
 20
-3604.351784932205
 10
5228.285358067505
 20
-3604.839166100366
 10
5228.240542176834
 20
-3605.329934270329
 10
5228.23419966421
 20
-3605.597111061256
  0
LINE
  5
9D1A3
330
18
100
AcDbEntity
  8
実線
100
AcDbLine
 10
5229.034199664211
 20
-3601.176071924923
 30
0.0
 11
5229.034199664211
 21
-3602.518150197586
 31
0.0
  0
LWPOLYLINE
  5
9D1A4
330
18
100
AcDbEntity
  8
実線
100
AcDbPolyline
 90
        9
 70
     0
 43
0.0
 10
5228.23419966421
 20
-3598.097111061255
 10
5228.248805488818
 20
-3598.500609464879
 10
5228.291850643914
 20
-3598.902977604424
 10
5228.362176651412
 20
-3599.302110931771
 10
5228.461768622651
 20
-3599.70903647146
 10
5228.586519631384
 20
-3600.111073246455
 10
5228.733832885119
 20
-3600.507110802289
 10
5228.877171668283
 20
-3600.843653395596
 10
5229.034199664211
 20
-3601.176071924923
  0
TEXT
  5
9D1C3
330
18
100
AcDbEntity
  8
文字
370
     9
100
AcDbText
 10
5692.753659833855
 20
-3692.842861254027
 30
0.0
 40
1.439999999999999
  1
DENSO
 50
90.0
  7
TIMESNR
100
AcDbText
  0
TEXT
  5
9D1C4
330
18
100
AcDbEntity
  8
文字
370
     9
100
AcDbText
 10
5691.056897424871
 20
-3692.721448143887
 30
0.0
 40
1.439999999999999
  1
NIKKI
 50
90.0
  7
TIMESNR
100
AcDbText
  0
TEXT
  5
9D1C5
330
18
100
AcDbEntity
  8
文字
370
     9
100
AcDbText
 10
5687.141328602125
 20
-3698.507315400826
 30
0.0
 40
2.0
  1
Certificate
 50
90.0
  7
TIMESNR
 11
5687.780117354829
 21
-3698.507315400826
 31
0.0
100
AcDbText
 73
     1
  0
LINE
  5
9D1C6
330
18
100
AcDbEntity
  8
文字
100
AcDbLine
 10
5688.099888053046
 20
-3699.722033880033
 30
0.0
 11
5688.099888053046
 21
-3684.722033880034
 31
0.0
  0
LWPOLYLINE
  5
9D1C7
330
18
100
AcDbEntity
  8
文字
100
AcDbPolyline
 90
        8
 70
     1
 43
0.0
 10
5694.099888053045
 20
-3699.222033880033
 10
5694.09988805305
 20
-3685.222033880033
 42
0.4142135623730951
 10
5693.59988805305
 20
-3684.722033880034
 10
5684.59988805305
 20
-3684.722033880034
 42
0.4142135623730951
 10
5684.09988805305
 20
-3685.222033880033
 10
5684.09988805305
 20
-3699.222033880033
 42
0.4142135623730996
 10
5684.59988805305
 20
-3699.722033880033
 10
5693.599888053046
 20
-3699.722033880033
 42
0.4142135623730904
  0
LINE
  5
9D1C8
330
18
100
AcDbEntity
  8
文字
370
     9
100
AcDbLine
 10
5692.801393972434
 20
-3694.059460478413
 30
0.0
 11
5690.798893972434
 21
-3693.819160478415
 31
0.0
  0
LINE
  5
9D1C9
330
18
100
AcDbEntity
  8
文字
370
     9
100
AcDbLine
 10
5692.801393972434
 20
-3698.464960478414
 30
0.0
 11
5689.597393972436
 21
-3698.064460478414
 31
0.0
  0
LINE
  5
9D1CA
330
18
100
AcDbEntity
  8
文字
370
     9
100
AcDbLine
 10
5689.597393972436
 20
-3698.064460478414
 30
0.0
 11
5689.597393972436
 21
-3693.658960478413
 31
0.0
  0
ARC
  5
9D1CB
330
18
100
AcDbEntity
  8
文字
370
     9
100
AcDbCircle
 10
5691.599893972441
 20
-3696.061960478417
 30
0.0
 40
0.8009999999999999
100
AcDbArc
 50
0.0
 51
180.0
  0
CIRCLE
  5
9D1CC
330
18
100
AcDbEntity
  8
文字
370
     9
100
AcDbCircle
 10
5691.39964397244
 20
-3696.061960478417
 30
0.0
 40
0.6007500000000002
  0
ARC
  5
9D1CD
330
18
100
AcDbEntity
  8
文字
370
     9
100
AcDbCircle
 10
5691.397781181742
 20
-3696.061029083067
 30
0.0
 40
1.003113223100251
100
AcDbArc
 50
203.5897772726021
 51
359.9468005913668
  0
LINE
  5
9D1CE
330
18
100
AcDbEntity
  8
文字
370
     9
100
AcDbLine
 10
5689.597393972436
 20
-3693.658960478413
 30
0.0
 11
5690.478493972435
 21
-3696.462460478415
 31
0.0
  0
LINE
  5
9D1CF
330
18
100
AcDbEntity
  8
文字
370
     9
100
AcDbLine
 10
5690.798893972434
 20
-3696.061960478415
 30
0.0
 11
5690.798893972434
 21
-3693.819160478415
 31
0.0
  0
LINE
  5
9D1D0
330
18
100
AcDbEntity
  8
文字
370
     9
100
AcDbLine
 10
5692.801393972434
 20
-3698.464960478414
 30
0.0
 11
5692.801393972434
 21
-3694.059460478413
 31
0.0
  0
LINE
  5
9D388
330
18
100
AcDbEntity
  8
実線
100
AcDbLine
 10
5147.404307372471
 20
-3781.847156162729
 30
0.0
 11
5150.854307372472
 21
-3781.847156162729
 31
0.0
  0
LINE
  5
9D389
330
18
100
AcDbEntity
  8
実線
100
AcDbLine
 10
5151.544307372471
 20
-3781.847156162729
 30
0.0
 11
5154.99430737247
 21
-3781.847156162729
 31
0.0
  0
LINE
  5
9D38A
330
18
100
AcDbEntity
  8
実線
100
AcDbLine
 10
5144.899307372472
 20
-3783.64715616273
 30
0.0
 11
5143.899307372471
 21
-3783.64715616273
 31
0.0
  0
LINE
  5
9D38B
330
18
100
AcDbEntity
  8
実線
100
AcDbLine
 10
5157.099307372471
 20
-3805.54715616273
 30
0.0
 11
5157.099307372471
 21
-3805.047156162729
 31
0.0
  0
LINE
  5
9D38C
330
18
100
AcDbEntity
  8
実線
100
AcDbLine
 10
5156.59930737247
 20
-3804.54715616273
 30
0.0
 11
5156.59930737247
 21
-3805.54715616273
 31
0.0
  0
LINE
  5
9D38D
330
18
100
AcDbEntity
  8
実線
100
AcDbLine
 10
5156.09930737247
 20
-3804.54715616273
 30
0.0
 11
5156.09930737247
 21
-3791.14715616273
 31
0.0
  0
LINE
  5
9D38E
330
18
100
AcDbEntity
  8
実線
100
AcDbLine
 10
5155.599307372471
 20
-3805.047156162729
 30
0.0
 11
5155.599307372471
 21
-3791.14715616273
 31
0.0
  0
LINE
  5
9D38F
330
18
100
AcDbEntity
  8
実線
100
AcDbLine
 10
5142.899307372471
 20
-3788.197156162729
 30
0.0
 11
5143.899307372471
 21
-3788.197156162729
 31
0.0
  0
LINE
  5
9D390
330
18
100
AcDbEntity
  8
実線
100
AcDbLine
 10
5154.99430737247
 20
-3790.847156162729
 30
0.0
 11
5154.99430737247
 21
-3781.847156162729
 31
0.0
  0
LINE
  5
9D391
330
18
100
AcDbEntity
  8
実線
100
AcDbLine
 10
5144.899307372472
 20
-3788.083420900179
 30
0.0
 11
5146.19930737247
 21
-3788.197156162729
 31
0.0
  0
LINE
  5
9D392
330
18
100
AcDbEntity
  8
実線
100
AcDbLine
 10
5143.899307372471
 20
-3790.347156162729
 30
0.0
 11
5144.899307372472
 21
-3790.347156162729
 31
0.0
  0
LINE
  5
9D393
330
18
100
AcDbEntity
  8
実線
100
AcDbLine
 10
5147.404307372471
 20
-3790.847156162729
 30
0.0
 11
5150.854307372472
 21
-3790.847156162729
 31
0.0
  0
LINE
  5
9D394
330
18
100
AcDbEntity
  8
実線
100
AcDbLine
 10
5151.544307372471
 20
-3790.847156162729
 30
0.0
 11
5154.99430737247
 21
-3790.847156162729
 31
0.0
  0
LINE
  5
9D395
330
18
100
AcDbEntity
  8
実線
100
AcDbLine
 10
5151.544307372471
 20
-3790.847156162729
 30
0.0
 11
5151.544307372471
 21
-3781.847156162729
 31
0.0
  0
LINE
  5
9D396
330
18
100
AcDbEntity
  8
実線
100
AcDbLine
 10
5156.09930737247
 20
-3791.14715616273
 30
0.0
 11
5146.299307372471
 21
-3791.14715616273
 31
0.0
  0
LINE
  5
9D397
330
18
100
AcDbEntity
  8
実線
100
AcDbLine
 10
5145.599307372471
 20
-3791.84715616273
 30
0.0
 11
5142.899307372471
 21
-3791.84715616273
 31
0.0
  0
LINE
  5
9D398
330
18
100
AcDbEntity
  8
実線
100
AcDbLine
 10
5150.854307372472
 20
-3790.847156162729
 30
0.0
 11
5150.854307372472
 21
-3781.847156162729
 31
0.0
  0
LINE
  5
9D399
330
18
100
AcDbEntity
  8
実線
100
AcDbLine
 10
5144.399307372471
 20
-3793.34715616273
 30
0.0
 11
5145.79930737247
 21
-3793.34715616273
 31
0.0
  0
LINE
  5
9D39A
330
18
100
AcDbEntity
  8
実線
100
AcDbLine
 10
5146.341049802971
 20
-3793.54715616273
 30
0.0
 11
5145.399307372471
 21
-3793.54715616273
 31
0.0
  0
LINE
  5
9D39B
330
18
100
AcDbEntity
  8
実線
100
AcDbLine
 10
5146.19930737247
 20
-3786.697156162729
 30
0.0
 11
5144.899307372472
 21
-3783.64715616273
 31
0.0
  0
LINE
  5
9D39C
330
18
100
AcDbEntity
  8
実線
100
AcDbLine
 10
5147.799307372471
 20
-3805.54715616273
 30
0.0
 11
5147.799307372471
 21
-3791.14715616273
 31
0.0
  0
LINE
  5
9D39D
330
18
100
AcDbEntity
  8
実線
100
AcDbLine
 10
5147.404307372471
 20
-3790.847156162729
 30
0.0
 11
5147.404307372471
 21
-3781.847156162729
 31
0.0
  0
LINE
  5
9D39E
330
18
100
AcDbEntity
  8
実線
100
AcDbLine
 10
5147.29930737247
 20
-3805.54715616273
 30
0.0
 11
5147.29930737247
 21
-3791.14715616273
 31
0.0
  0
LINE
  5
9D39F
330
18
100
AcDbEntity
  8
実線
100
AcDbLine
 10
5146.799307372472
 20
-3791.14715616273
 30
0.0
 11
5146.799307372472
 21
-3804.54715616273
 31
0.0
  0
LINE
  5
9D3A0
330
18
100
AcDbEntity
  8
実線
100
AcDbLine
 10
5146.341049802971
 20
-3804.54715616273
 30
0.0
 11
5146.341049802971
 21
-3793.54715616273
 31
0.0
  0
LINE
  5
9D3A1
330
18
100
AcDbEntity
  8
実線
100
AcDbLine
 10
5146.299307372471
 20
-3791.14715616273
 30
0.0
 11
5146.299307372471
 21
-3793.54715616273
 31
0.0
  0
LINE
  5
9D3A2
330
18
100
AcDbEntity
  8
実線
100
AcDbLine
 10
5146.19930737247
 20
-3788.197156162729
 30
0.0
 11
5146.19930737247
 21
-3786.697156162729
 31
0.0
  0
LINE
  5
9D3A3
330
18
100
AcDbEntity
  8
実線
100
AcDbLine
 10
5145.757564941972
 20
-3804.54715616273
 30
0.0
 11
5145.757564941972
 21
-3805.54715616273
 31
0.0
  0
LINE
  5
9D3A4
330
18
100
AcDbEntity
  8
実線
100
AcDbLine
 10
5145.299307372471
 20
-3805.54715616273
 30
0.0
 11
5145.299307372471
 21
-3804.54715616273
 31
0.0
  0
LINE
  5
9D3A5
330
18
100
AcDbEntity
  8
実線
100
AcDbLine
 10
5142.899307372471
 20
-3798.347156162729
 30
0.0
 11
5142.399307372471
 21
-3798.347156162729
 31
0.0
  0
LINE
  5
9D3A6
330
18
100
AcDbEntity
  8
実線
100
AcDbLine
 10
5144.899307372472
 20
-3805.54715616273
 30
0.0
 11
5144.899307372472
 21
-3794.047156162729
 31
0.0
  0
LINE
  5
9D3A7
330
18
100
AcDbEntity
  8
実線
100
AcDbLine
 10
5144.899307372472
 20
-3791.84715616273
 30
0.0
 11
5144.899307372472
 21
-3788.083420900179
 31
0.0
  0
LINE
  5
9D3A8
330
18
100
AcDbEntity
  8
実線
100
AcDbLine
 10
5143.899307372471
 20
-3799.347156162729
 30
0.0
 11
5144.899307372472
 21
-3793.34715616273
 31
0.0
  0
LINE
  5
9D3A9
330
18
100
AcDbEntity
  8
実線
100
AcDbLine
 10
5142.399307372471
 20
-3799.347156162729
 30
0.0
 11
5143.899307372471
 21
-3799.347156162729
 31
0.0
  0
LINE
  5
9D3AA
330
18
100
AcDbEntity
  8
実線
100
AcDbLine
 10
5143.899307372471
 20
-3799.347156162729
 30
0.0
 11
5143.899307372471
 21
-3793.847156162729
 31
0.0
  0
LINE
  5
9D3AB
330
18
100
AcDbEntity
  8
実線
100
AcDbLine
 10
5143.899307372471
 20
-3791.347156162729
 30
0.0
 11
5143.899307372471
 21
-3788.197156162729
 31
0.0
  0
LINE
  5
9D3AC
330
18
100
AcDbEntity
  8
実線
100
AcDbLine
 10
5142.899307372471
 20
-3784.64715616273
 30
0.0
 11
5142.899307372471
 21
-3798.347156162729
 31
0.0
  0
LINE
  5
9D3AD
330
18
100
AcDbEntity
  8
実線
100
AcDbLine
 10
5142.399307372471
 20
-3789.063181566529
 30
0.0
 11
5142.399307372471
 21
-3799.347156162729
 31
0.0
  0
LINE
  5
9D3AE
330
18
100
AcDbEntity
  8
実線
100
AcDbLine
 10
5142.899307372471
 20
-3788.197156162729
 30
0.0
 11
5142.399307372471
 21
-3789.063181566529
 31
0.0
  0
LINE
  5
9D3AF
330
18
100
AcDbEntity
  8
実線
100
AcDbLine
 10
5143.899307372471
 20
-3783.64715616273
 30
0.0
 11
5142.899307372471
 21
-3784.64715616273
 31
0.0
  0
LINE
  5
9D3B0
330
18
100
AcDbEntity
  8
実線
100
AcDbLine
 10
5156.59930737247
 20
-3804.54715616273
 30
0.0
 11
5156.09930737247
 21
-3804.54715616273
 31
0.0
  0
LINE
  5
9D3B1
330
18
100
AcDbEntity
  8
実線
100
AcDbLine
 10
5146.799307372472
 20
-3804.54715616273
 30
0.0
 11
5145.299307372471
 21
-3804.54715616273
 31
0.0
  0
LINE
  5
9D3B2
330
18
100
AcDbEntity
  8
実線
100
AcDbLine
 10
5157.099307372471
 20
-3805.047156162729
 30
0.0
 11
5155.599307372471
 21
-3805.047156162729
 31
0.0
  0
LINE
  5
9D3B3
330
18
100
AcDbEntity
  8
実線
100
AcDbLine
 10
5157.099307372471
 20
-3805.54715616273
 30
0.0
 11
5144.899307372472
 21
-3805.54715616273
 31
0.0
  0
ARC
  5
9D3B4
330
18
100
AcDbEntity
  8
実線
100
AcDbCircle
 10
5145.599307372471
 20
-3791.14715616273
 30
0.0
 40
0.7
100
AcDbArc
 50
270.0
 51
0.0
  0
ARC
  5
9D3B5
330
18
100
AcDbEntity
  8
実線
100
AcDbCircle
 10
5145.79930737247
 20
-3793.847156162729
 30
0.0
 40
0.5
100
AcDbArc
 50
37.24116237545892
 51
90.0
  0
ARC
  5
9D3B6
330
18
100
AcDbEntity
  8
実線
100
AcDbCircle
 10
5144.399307372471
 20
-3793.847156162729
 30
0.0
 40
0.5
100
AcDbArc
 50
90.0
 51
180.0
  0
ARC
  5
9D3B7
330
18
100
AcDbEntity
  8
実線
100
AcDbCircle
 10
5156.59930737247
 20
-3805.047156162729
 30
0.0
 40
0.5
100
AcDbArc
 50
0.0
 51
90.0
  0
ARC
  5
9D3B8
330
18
100
AcDbEntity
  8
実線
100
AcDbCircle
 10
5144.399307372471
 20
-3791.347156162729
 30
0.0
 40
0.5
100
AcDbArc
 50
180.0
 51
270.0
  0
ARC
  5
9D3B9
330
18
100
AcDbEntity
  8
実線
100
AcDbCircle
 10
5145.399307372471
 20
-3794.047156162729
 30
0.0
 40
0.5
100
AcDbArc
 50
90.0
 51
180.0
  0
ARC
  5
9D3BA
330
18
100
AcDbEntity
  8
実線
100
AcDbCircle
 10
5155.294307372471
 20
-3790.847156162729
 30
0.0
 40
0.3
100
AcDbArc
 50
180.0
 51
270.0
  0
ARC
  5
9D3BB
330
18
100
AcDbEntity
  8
実線
100
AcDbCircle
 10
5151.244307372471
 20
-3790.847156162729
 30
0.0
 40
0.3
100
AcDbArc
 50
270.0
 51
0.0
  0
ARC
  5
9D3BC
330
18
100
AcDbEntity
  8
実線
100
AcDbCircle
 10
5147.104307372472
 20
-3790.847156162729
 30
0.0
 40
0.3
100
AcDbArc
 50
270.0
 51
0.0
  0
ARC
  5
9D3BD
330
18
100
AcDbEntity
  8
実線
100
AcDbCircle
 10
5151.154307372471
 20
-3790.847156162729
 30
0.0
 40
0.3
100
AcDbArc
 50
180.0
 51
270.0
  0
LINE
  5
9D3BE
330
18
100
AcDbEntity
  8
実線
100
AcDbLine
 10
5156.09930737247
 20
-3804.54715616273
 30
0.0
 11
5155.599307372471
 21
-3805.047156162729
 31
0.0
  0
LINE
  5
9D435
330
18
100
AcDbEntity
  8
実線
100
AcDbLine
 10
5224.199307372463
 20
-3873.997111061253
 30
0.0
 11
5196.199307372469
 21
-3873.997111061253
 31
0.0
  0
LINE
  5
9D436
330
18
100
AcDbEntity
  8
実線
100
AcDbLine
 10
5224.199307372463
 20
-3879.697111061254
 30
0.0
 11
5196.199307372469
 21
-3879.697111061254
 31
0.0
  0
LINE
  5
9D437
330
18
100
AcDbEntity
  8
実線
100
AcDbLine
 10
5148.34930737247
 20
-3815.547156162729
 30
0.0
 11
5148.34930737247
 21
-3838.997111061253
 31
0.0
  0
LINE
  5
9D438
330
18
100
AcDbEntity
  8
実線
100
AcDbLine
 10
5154.049307372471
 20
-3815.547156162729
 30
0.0
 11
5154.049307372471
 21
-3838.997111061253
 31
0.0
  0
ARC
  5
9D439
330
18
100
AcDbEntity
  8
実線
100
AcDbCircle
 10
5189.049307372471
 20
-3838.997111061253
 30
0.0
 40
35.00000000000001
100
AcDbArc
 50
180.0
 51
270.0
  0
ARC
  5
9D43A
330
18
100
AcDbEntity
  8
実線
100
AcDbCircle
 10
5189.049307372471
 20
-3838.997111061253
 30
0.0
 40
40.70000000000001
100
AcDbArc
 50
180.0
 51
270.0
  0
LINE
  5
9D43B
330
18
100
AcDbEntity
  8
実線
100
AcDbLine
 10
5194.199307372474
 20
-3873.997111061253
 30
0.0
 11
5189.049307372471
 21
-3873.997111061253
 31
0.0
  0
LINE
  5
9D43C
330
18
100
AcDbEntity
  8
実線
100
AcDbLine
 10
5194.199307372474
 20
-3879.697111061254
 30
0.0
 11
5189.049307372471
 21
-3879.697111061254
 31
0.0
  0
LINE
  5
9D43D
330
18
100
AcDbEntity
  8
実線
100
AcDbLine
 10
5224.199307372473
 20
-3598.997111061253
 30
0.0
 11
5219.199307372469
 21
-3598.997111061253
 31
0.0
  0
LINE
  5
9D43E
330
18
100
AcDbEntity
  8
実線
100
AcDbLine
 10
5224.199307372473
 20
-3604.697111061254
 30
0.0
 11
5219.199307372469
 21
-3604.697111061254
 31
0.0
  0
LINE
  5
9D43F
330
18
100
AcDbEntity
  8
実線
100
AcDbLine
 10
5149.777205295525
 20
-3805.54715616273
 30
0.0
 11
5150.767205295525
 21
-3815.547156162729
 31
0.0
  0
LINE
  5
9D440
330
18
100
AcDbEntity
  8
実線
100
AcDbLine
 10
5151.631409449416
 20
-3815.547156162729
 30
0.0
 11
5152.621409449417
 21
-3805.54715616273
 31
0.0
  0
LINE
  5
9D963
330
18
100
AcDbEntity
  8
実線
100
AcDbLine
 10
5327.949309626368
 20
-3863.147110053805
 30
0.0
 11
5320.949309626367
 21
-3863.147110053805
 31
0.0
  0
LINE
  5
9D964
330
18
100
AcDbEntity
  8
実線
100
AcDbLine
 10
5327.949309626368
 20
-3862.647110053806
 30
0.0
 11
5326.899309626369
 21
-3862.347110053803
 31
0.0
  0
LINE
  5
9D965
330
18
100
AcDbEntity
  8
実線
100
AcDbLine
 10
5327.949309626368
 20
-3862.647110053806
 30
0.0
 11
5327.949309626368
 21
-3863.147110053805
 31
0.0
  0
LINE
  5
9D966
330
18
100
AcDbEntity
  8
実線
100
AcDbLine
 10
5320.949309626367
 20
-3862.647110053806
 30
0.0
 11
5320.949309626367
 21
-3863.147110053805
 31
0.0
  0
LINE
  5
9D967
330
18
100
AcDbEntity
  8
実線
100
AcDbLine
 10
5326.899309626369
 20
-3862.347110053803
 30
0.0
 11
5321.999309626367
 21
-3862.347110053803
 31
0.0
  0
LINE
  5
9D968
330
18
100
AcDbEntity
  8
実線
100
AcDbLine
 10
5327.949309626368
 20
-3862.647110053806
 30
0.0
 11
5320.949309626367
 21
-3862.647110053806
 31
0.0
  0
LINE
  5
9D969
330
18
100
AcDbEntity
  8
実線
100
AcDbLine
 10
5320.949309626367
 20
-3862.647110053806
 30
0.0
 11
5321.999309626367
 21
-3862.347110053803
 31
0.0
  0
LINE
  5
9D9A5
330
18
100
AcDbEntity
  8
実線
100
AcDbLine
 10
5451.449307372246
 20
-3863.147110053807
 30
0.0
 11
5444.449307372247
 21
-3863.147110053807
 31
0.0
  0
LINE
  5
9D9A6
330
18
100
AcDbEntity
  8
実線
100
AcDbLine
 10
5451.449307372246
 20
-3862.647110053806
 30
0.0
 11
5450.399307372247
 21
-3862.347110053804
 31
0.0
  0
LINE
  5
9D9A7
330
18
100
AcDbEntity
  8
実線
100
AcDbLine
 10
5451.449307372246
 20
-3862.647110053806
 30
0.0
 11
5451.449307372246
 21
-3863.147110053807
 31
0.0
  0
LINE
  5
9D9A8
330
18
100
AcDbEntity
  8
実線
100
AcDbLine
 10
5444.449307372247
 20
-3862.647110053806
 30
0.0
 11
5444.449307372247
 21
-3863.147110053807
 31
0.0
  0
LINE
  5
9D9A9
330
18
100
AcDbEntity
  8
実線
100
AcDbLine
 10
5450.399307372247
 20
-3862.347110053804
 30
0.0
 11
5445.499307372246
 21
-3862.347110053804
 31
0.0
  0
LINE
  5
9D9AA
330
18
100
AcDbEntity
  8
実線
100
AcDbLine
 10
5451.449307372246
 20
-3862.647110053806
 30
0.0
 11
5444.449307372247
 21
-3862.647110053806
 31
0.0
  0
LINE
  5
9D9AB
330
18
100
AcDbEntity
  8
実線
100
AcDbLine
 10
5444.449307372247
 20
-3862.647110053806
 30
0.0
 11
5445.499307372246
 21
-3862.347110053804
 31
0.0
  0
LINE
  5
9DB39
330
18
100
AcDbEntity
  8
実線
100
AcDbLine
 10
5641.549888053043
 20
-3605.347111582043
 30
0.0
 11
5641.24988805304
 21
-3604.297111582044
 31
0.0
  0
LINE
  5
9DB3A
330
18
100
AcDbEntity
  8
実線
100
AcDbLine
 10
5641.549888053043
 20
-3598.347111582043
 30
0.0
 11
5641.549888053043
 21
-3605.347111582043
 31
0.0
  0
LINE
  5
9DB3B
330
18
100
AcDbEntity
  8
実線
100
AcDbLine
 10
5641.24988805304
 20
-3599.397111582042
 30
0.0
 11
5641.24988805304
 21
-3604.297111582044
 31
0.0
  0
LINE
  5
9DB3C
330
18
100
AcDbEntity
  8
実線
100
AcDbLine
 10
5641.549888053043
 20
-3605.347111582043
 30
0.0
 11
5642.049888053043
 21
-3605.347111582043
 31
0.0
  0
LINE
  5
9DB3D
330
18
100
AcDbEntity
  8
実線
100
AcDbLine
 10
5641.549888053043
 20
-3598.347111582043
 30
0.0
 11
5642.049888053043
 21
-3598.347111582043
 31
0.0
  0
LINE
  5
9DB3E
330
18
100
AcDbEntity
  8
実線
100
AcDbLine
 10
5641.549888053043
 20
-3598.347111582043
 30
0.0
 11
5641.24988805304
 21
-3599.397111582042
 31
0.0
  0
LINE
  5
9DB3F
330
18
100
AcDbEntity
  8
実線
100
AcDbLine
 10
5642.049888053043
 20
-3598.347111582043
 30
0.0
 11
5642.049888053043
 21
-3605.347111582043
 31
0.0
  0
TEXT
  5
9DDCE
330
18
100
AcDbEntity
  8
文字
100
AcDbText
 10
5945.637931628308
 20
-3902.341874163918
 30
0.0
 40
3.2
  1
τDISCモータ ND250-55-FSB-UC（ABS） NMR-SEMJA2A-711AB-UC
 41
0.4200000000000001
  7
まこ
100
AcDbText
  0
TEXT
  5
9DDCF
330
18
100
AcDbEntity
  8
文字
100
AcDbText
 10
5947.446670646407
 20
-3913.567043038496
 30
0.0
 40
6.0
  1
外形図（ABS）
 41
0.6
  7
まこ
100
AcDbText
  0
TEXT
  5
9DDD0
330
18
100
AcDbEntity
  8
文字
100
AcDbText
 10
5945.598221464418
 20
-3924.924949806343
 30
0.0
 40
7.0
  1
ＳＥ－７６６１０Ａ
 41
0.9529999999999999
  7
まこ
100
AcDbText
  0
CIRCLE
  5
9DDDE
330
18
100
AcDbEntity
  8
実線
100
AcDbCircle
 10
5386.235654506723
 20
-3601.9137957764
 30
0.0
 40
32.5
  0
CIRCLE
  5
9DDDF
330
18
100
AcDbEntity
  8
実線
100
AcDbCircle
 10
5882.667262470868
 20
-3601.851656038729
 30
0.0
 40
32.5
  0
CIRCLE
  5
9DDE0
330
18
100
AcDbEntity
  8
実線
100
AcDbCircle
 10
5882.667262470868
 20
-3601.777181409828
 30
0.0
 40
34.0
  0
CIRCLE
  5
9DDE1
330
18
100
AcDbEntity
  8
実線
100
AcDbCircle
 10
5882.667262470868
 20
-3601.777181409828
 30
0.0
 40
34.5
  0
CIRCLE
  5
9DDE2
330
18
100
AcDbEntity
  8
実線
100
AcDbCircle
 10
5882.625504511443
 20
-3601.846775392741
 30
0.0
 40
84.0
  0
CIRCLE
  5
9DDE3
330
18
100
AcDbEntity
  8
実線
100
AcDbCircle
 10
5882.608469287379
 20
-3601.829156177398
 30
0.0
 40
85.0
  0
LWPOLYLINE
  5
9DE6C
330
18
100
AcDbEntity
  8
文字
100
AcDbPolyline
 90
        6
 70
   129
 43
0.0
 10
5646.644738053045
 20
-3622.452203010879
 10
5669.701838053047
 20
-3635.76422590261
 42
0.5773502691896259
 10
5670.749888053046
 20
-3635.159133952987
 10
5670.749888053046
 20
-3608.535088169522
 42
0.5773502691896262
 10
5669.701838053047
 20
-3607.929996219898
 10
5646.644738053045
 20
-3621.24201911163
 42
0.5773502691896262
  0
SPLINE
  5
9DE6D
330
18
100
AcDbEntity
  8
文字
100
AcDbSpline
210
0.0
220
0.0
230
1.0
 70
  1064
 71
     3
 72
    11
 73
     7
 74
     5
 42
0.000000001
 43
0.0000000001
 44
0.0000000001
 40
0.0
 40
0.0
 40
0.0
 40
0.0
 40
3.50036830584443
 40
6.267490993923532
 40
8.842055688450869
 40
14.55347537638492
 40
14.55347537638492
 40
14.55347537638492
 40
14.55347537638492
 10
5653.410482130048
 20
-3621.847111061254
 30
0.0
 10
5654.433306814401
 20
-3622.548052581067
 30
0.0
 10
5656.264698238795
 20
-3623.80310470097
 30
0.0
 10
5659.336744604577
 20
-3622.71435244861
 30
0.0
 10
5661.69878805157
 20
-3619.438994717347
 30
0.0
 10
5664.688866462967
 20
-3620.864517215405
 30
0.0
 10
5666.749888053046
 20
-3621.847111061254
 30
0.0
 11
5653.410482130048
 21
-3621.847111061254
 31
0.0
 11
5656.586929338072
 21
-3623.317744058031
 31
0.0
 11
5659.211943738537
 21
-3622.442377067434
 31
0.0
 11
5661.146164748291
 21
-3620.743208902791
 31
0.0
 11
5666.749888053046
 21
-3621.847111061254
 31
0.0
  0
SPLINE
  5
9DE6E
330
18
100
AcDbEntity
  8
文字
100
AcDbSpline
210
0.0
220
0.0
230
1.0
 70
  1064
 71
     3
 72
    11
 73
     7
 74
     5
 42
0.000000001
 43
0.0000000001
 44
0.0000000001
 40
0.0
 40
0.0
 40
0.0
 40
0.0
 40
3.50036830584443
 40
6.267490993923532
 40
8.842055688450869
 40
14.55347537638492
 40
14.55347537638492
 40
14.55347537638492
 40
14.55347537638492
 10
5653.410482130048
 20
-3624.847111061254
 30
0.0
 10
5654.433306814401
 20
-3625.548052581068
 30
0.0
 10
5656.264698238795
 20
-3626.803104700972
 30
0.0
 10
5659.336744604577
 20
-3625.714352448609
 30
0.0
 10
5661.69878805157
 20
-3622.438994717347
 30
0.0
 10
5664.688866462967
 20
-3623.864517215406
 30
0.0
 10
5666.749888053046
 20
-3624.847111061254
 30
0.0
 11
5653.410482130048
 21
-3624.847111061254
 31
0.0
 11
5656.586929338072
 21
-3626.317744058031
 31
0.0
 11
5659.211943738537
 21
-3625.442377067434
 31
0.0
 11
5661.146164748291
 21
-3623.743208902791
 31
0.0
 11
5666.749888053046
 21
-3624.847111061254
 31
0.0
  0
SPLINE
  5
9DE6F
330
18
100
AcDbEntity
  8
文字
100
AcDbSpline
210
0.0
220
0.0
230
1.0
 70
  1064
 71
     3
 72
    11
 73
     7
 74
     5
 42
0.000000001
 43
0.0000000001
 44
0.0000000001
 40
0.0
 40
0.0
 40
0.0
 40
0.0
 40
3.50036830584443
 40
6.267490993923532
 40
8.842055688450869
 40
14.55347537638492
 40
14.55347537638492
 40
14.55347537638492
 40
14.55347537638492
 10
5653.410482130048
 20
-3618.847111061254
 30
0.0
 10
5654.433306814401
 20
-3619.548052581067
 30
0.0
 10
5656.264698238795
 20
-3620.80310470097
 30
0.0
 10
5659.336744604577
 20
-3619.714352448609
 30
0.0
 10
5661.69878805157
 20
-3616.438994717348
 30
0.0
 10
5664.688866462967
 20
-3617.864517215406
 30
0.0
 10
5666.749888053046
 20
-3618.847111061254
 30
0.0
 11
5653.410482130048
 21
-3618.847111061254
 31
0.0
 11
5656.586929338072
 21
-3620.317744058031
 31
0.0
 11
5659.211943738537
 21
-3619.442377067433
 31
0.0
 11
5661.146164748291
 21
-3617.74320890279
 31
0.0
 11
5666.749888053046
 21
-3618.847111061254
 31
0.0
  0
LINE
  5
9DE70
330
18
100
AcDbEntity
  8
文字
100
AcDbLine
 10
5667.749888053045
 20
-3626.847111061255
 30
0.0
 11
5667.749888053045
 21
-3616.847111061254
 31
0.0
  0
TEXT
  5
9DF08
330
18
100
AcDbEntity
  8
文字
370
     9
100
AcDbText
 10
5692.753659833855
 20
-3692.842861254028
 30
0.0
 40
1.44
  1
DENSO
 50
90.0
  7
TIMESNR
100
AcDbText
  0
TEXT
  5
9DF09
330
18
100
AcDbEntity
  8
文字
370
     9
100
AcDbText
 10
5691.056897424871
 20
-3692.721448143887
 30
0.0
 40
1.44
  1
NIKKI
 50
90.0
  7
TIMESNR
100
AcDbText
  0
TEXT
  5
9DF0A
330
18
100
AcDbEntity
  8
文字
370
     9
100
AcDbText
 10
5687.141328602125
 20
-3698.507315400826
 30
0.0
 40
2.0
  1
Certificate
 50
90.0
  7
TIMESNR
 11
5687.780117354829
 21
-3698.507315400826
 31
0.0
100
AcDbText
 73
     1
  0
LINE
  5
9DF0B
330
18
100
AcDbEntity
  8
文字
100
AcDbLine
 10
5688.099888053046
 20
-3699.722033880033
 30
0.0
 11
5688.099888053046
 21
-3684.722033880034
 31
0.0
  0
LWPOLYLINE
  5
9DF0C
330
18
100
AcDbEntity
  8
文字
100
AcDbPolyline
 90
        8
 70
     1
 43
0.0
 10
5694.099888053045
 20
-3699.222033880033
 10
5694.09988805305
 20
-3685.222033880033
 42
0.4142135623730951
 10
5693.59988805305
 20
-3684.722033880034
 10
5684.59988805305
 20
-3684.722033880034
 42
0.4142135623730951
 10
5684.09988805305
 20
-3685.222033880033
 10
5684.09988805305
 20
-3699.222033880033
 42
0.4142135623730996
 10
5684.59988805305
 20
-3699.722033880033
 10
5693.599888053046
 20
-3699.722033880033
 42
0.4142135623730904
  0
LINE
  5
9DF0D
330
18
100
AcDbEntity
  8
文字
370
     9
100
AcDbLine
 10
5692.801393972434
 20
-3694.059460478413
 30
0.0
 11
5690.798893972434
 21
-3693.819160478416
 31
0.0
  0
LINE
  5
9DF0E
330
18
100
AcDbEntity
  8
文字
370
     9
100
AcDbLine
 10
5692.801393972434
 20
-3698.464960478414
 30
0.0
 11
5689.597393972436
 21
-3698.064460478415
 31
0.0
  0
LINE
  5
9DF0F
330
18
100
AcDbEntity
  8
文字
370
     9
100
AcDbLine
 10
5689.597393972436
 20
-3698.064460478415
 30
0.0
 11
5689.597393972436
 21
-3693.658960478414
 31
0.0
  0
ARC
  5
9DF10
330
18
100
AcDbEntity
  8
文字
370
     9
100
AcDbCircle
 10
5691.599893972441
 20
-3696.061960478417
 30
0.0
 40
0.8009999999999999
100
AcDbArc
 50
0.0
 51
180.0
  0
CIRCLE
  5
9DF11
330
18
100
AcDbEntity
  8
文字
370
     9
100
AcDbCircle
 10
5691.39964397244
 20
-3696.061960478417
 30
0.0
 40
0.6007500000000002
  0
ARC
  5
9DF12
330
18
100
AcDbEntity
  8
文字
370
     9
100
AcDbCircle
 10
5691.397781181742
 20
-3696.061029083068
 30
0.0
 40
1.00311322310025
100
AcDbArc
 50
203.589777272609
 51
359.9468005913759
  0
LINE
  5
9DF13
330
18
100
AcDbEntity
  8
文字
370
     9
100
AcDbLine
 10
5689.597393972436
 20
-3693.658960478414
 30
0.0
 11
5690.478493972435
 21
-3696.462460478416
 31
0.0
  0
LINE
  5
9DF14
330
18
100
AcDbEntity
  8
文字
370
     9
100
AcDbLine
 10
5690.798893972434
 20
-3696.061960478416
 30
0.0
 11
5690.798893972434
 21
-3693.819160478416
 31
0.0
  0
LINE
  5
9DF15
330
18
100
AcDbEntity
  8
文字
370
     9
100
AcDbLine
 10
5692.801393972434
 20
-3698.464960478414
 30
0.0
 11
5692.801393972434
 21
-3694.059460478413
 31
0.0
  0
LINE
  5
9DF16
330
18
100
AcDbEntity
  8
文字
100
AcDbLine
 10
5679.748630132722
 20
-3504.472190325652
 30
0.0
 11
5679.748630132722
 21
-3538.472190325652
 31
0.0
  0
LINE
  5
9DF17
330
18
100
AcDbEntity
  8
文字
100
AcDbLine
 10
5691.748630132723
 20
-3538.472190325652
 30
0.0
 11
5691.748630132723
 21
-3504.472190325652
 31
0.0
  0
LINE
  5
9DF18
330
18
100
AcDbEntity
  8
文字
100
AcDbLine
 10
5686.748630132722
 20
-3538.972190325652
 30
0.0
 11
5686.748630132722
 21
-3503.972190325652
 31
0.0
  0
TEXT
  5
9DF19
330
18
100
AcDbEntity
  8
文字
100
AcDbText
 10
5686.189751333476
 20
-3537.175346867599
 30
0.0
 40
2.0
  1
SER No.******
 50
90.0
 41
1.199999999999999
  7
MS\U+FF7A\U+FF9E\U+FF7C\U+FF6F\U+FF78N
 11
5686.555233566978
 21
-3537.175346867599
 31
0.0
100
AcDbText
 73
     1
  0
LINE
  5
9DF1A
330
18
100
AcDbEntity
  8
文字
100
AcDbLine
 10
5687.691106714719
 20
-3531.620143824575
 30
0.0
 11
5688.572206714718
 21
-3534.423643824573
 31
0.0
  0
LINE
  5
9DF1B
330
18
100
AcDbEntity
  8
文字
100
AcDbLine
 10
5687.691106714719
 20
-3536.025643824576
 30
0.0
 11
5687.691106714719
 21
-3531.620143824575
 31
0.0
  0
LINE
  5
9DF1C
330
18
100
AcDbEntity
  8
文字
100
AcDbLine
 10
5688.892606714722
 20
-3534.023143824573
 30
0.0
 11
5688.892606714722
 21
-3531.780343824574
 31
0.0
  0
ARC
  5
9DF1D
330
18
100
AcDbEntity
  8
文字
100
AcDbCircle
 10
5689.693606714722
 20
-3534.023143824575
 30
0.0
 40
0.8009999999999999
100
AcDbArc
 50
0.0
 51
180.0
  0
CIRCLE
  5
9DF1E
330
18
100
AcDbEntity
  8
文字
100
AcDbCircle
 10
5689.49335671472
 20
-3534.023143824575
 30
0.0
 40
0.6007500000000002
  0
LINE
  5
9DF1F
330
18
100
AcDbEntity
  8
文字
100
AcDbLine
 10
5690.89510671472
 20
-3536.426143824576
 30
0.0
 11
5690.89510671472
 21
-3532.020643824575
 31
0.0
  0
LINE
  5
9DF20
330
18
100
AcDbEntity
  8
文字
100
AcDbLine
 10
5680.248630132723
 20
-3538.972190325652
 30
0.0
 11
5691.248630132722
 21
-3538.972190325652
 31
0.0
  0
LINE
  5
9DF21
330
18
100
AcDbEntity
  8
文字
100
AcDbLine
 10
5690.89510671472
 20
-3536.426143824576
 30
0.0
 11
5687.691106714719
 21
-3536.025643824576
 31
0.0
  0
ARC
  5
9DF22
330
18
100
AcDbEntity
  8
文字
100
AcDbCircle
 10
5689.491493924022
 20
-3534.022212429226
 30
0.0
 40
1.00311322310025
100
AcDbArc
 50
203.589777272609
 51
359.9468005913759
  0
ARC
  5
9DF23
330
18
100
AcDbEntity
  8
文字
100
AcDbCircle
 10
5680.248630132723
 20
-3538.472190325654
 30
0.0
 40
0.5
100
AcDbArc
 50
180.0
 51
270.0
  0
ARC
  5
9DF24
330
18
100
AcDbEntity
  8
文字
100
AcDbCircle
 10
5691.248630132722
 20
-3538.472190325654
 30
0.0
 40
0.5
100
AcDbArc
 50
270.0
 51
0.0
  0
LINE
  5
9DF25
330
18
100
AcDbEntity
  8
文字
100
AcDbLine
 10
5690.89510671472
 20
-3532.020643824575
 30
0.0
 11
5688.892606714722
 21
-3531.780343824574
 31
0.0
  0
TEXT
  5
9DF26
330
18
100
AcDbEntity
  8
文字
100
AcDbText
 10
5690.847372576136
 20
-3530.80404460019
 30
0.0
 40
1.44
  1
DENSO
 50
90.0
 41
1.3
  7
TIMESNR
100
AcDbText
  0
TEXT
  5
9DF27
330
18
100
AcDbEntity
  8
文字
100
AcDbText
 10
5689.150610167151
 20
-3530.68263149005
 30
0.0
 40
1.44
  1
NIKKI
 50
90.0
 41
1.25
  7
TIMESNR
100
AcDbText
  0
LINE
  5
9DF28
330
18
100
AcDbEntity
  8
文字
100
AcDbLine
 10
5691.248630132722
 20
-3503.972190325652
 30
0.0
 11
5680.248630132723
 21
-3503.972190325652
 31
0.0
  0
ARC
  5
9DF29
330
18
100
AcDbEntity
  8
文字
100
AcDbCircle
 10
5680.248630132723
 20
-3504.472190325654
 30
0.0
 40
0.5
100
AcDbArc
 50
90.0
 51
180.0
  0
ARC
  5
9DF2A
330
18
100
AcDbEntity
  8
文字
100
AcDbCircle
 10
5691.248630132722
 20
-3504.472190325654
 30
0.0
 40
0.5
100
AcDbArc
 50
0.0
 51
90.0
  0
TEXT
  5
9DF2B
330
18
100
AcDbEntity
  8
文字
100
AcDbText
 10
5691.113820906672
 20
-3518.430515002824
 30
137.5
 40
1.5
  1
MADE IN JAPAN
 50
90.0
  7
MS\U+FF7A\U+FF9E\U+FF7C\U+FF6F\U+FF78N
 11
5691.387932581798
 21
-3518.430515002824
 31
137.5
100
AcDbText
 73
     1
  0
TEXT
  5
9DF2C
330
18
100
AcDbEntity
  8
文字
100
AcDbText
 10
5689.244034856286
 20
-3518.430515002824
 30
137.5
 40
1.5
  1
SN-16140
 50
90.0
  7
MS\U+FF7A\U+FF9E\U+FF7C\U+FF6F\U+FF78N
 11
5689.518146531412
 21
-3518.430515002824
 31
137.5
100
AcDbText
 73
     1
  0
TEXT
  5
9DF2D
330
18
100
AcDbEntity
  8
文字
100
AcDbText
 10
5690.848630496457
 20
-3566.804044600189
 30
0.0
 40
1.44
  1
DENSO
 50
90.0
 41
1.3
  7
TIMESNR
100
AcDbText
  0
TEXT
  5
9DF2E
330
18
100
AcDbEntity
  8
文字
100
AcDbText
 10
5689.151868087472
 20
-3566.682631490049
 30
0.0
 40
1.44
  1
NIKKI
 50
90.0
 41
1.25
  7
TIMESNR
100
AcDbText
  0
TEXT
  5
9DF2F
330
18
100
AcDbEntity
  8
文字
100
AcDbText
 10
5683.366975905364
 20
-3573.148220294787
 30
0.0
 40
2.6
  1
ENCODER
 50
90.0
 41
1.199999999999999
  7
MS\U+FF7A\U+FF9E\U+FF7C\U+FF6F\U+FF78N
 11
5683.842102808918
 21
-3573.148220294787
 31
0.0
100
AcDbText
 73
     1
  0
TEXT
  5
9DF30
330
18
100
AcDbEntity
  8
文字
100
AcDbText
 10
5686.191009253796
 20
-3573.175346867599
 30
0.0
 40
2.0
  1
******PPR
 50
90.0
 41
1.199999999999999
  7
MS\U+FF7A\U+FF9E\U+FF7C\U+FF6F\U+FF78N
 11
5686.5564914873
 21
-3573.175346867599
 31
0.0
100
AcDbText
 73
     1
  0
LINE
  5
9DF31
330
18
100
AcDbEntity
  8
文字
100
AcDbLine
 10
5686.74988805304
 20
-3574.972190325652
 30
0.0
 11
5686.74988805304
 21
-3539.972190325652
 31
0.0
  0
LINE
  5
9DF32
330
18
100
AcDbEntity
  8
文字
100
AcDbLine
 10
5691.74988805304
 20
-3574.472190325652
 30
0.0
 11
5691.74988805304
 21
-3540.472190325652
 31
0.0
  0
LINE
  5
9DF33
330
18
100
AcDbEntity
  8
文字
100
AcDbLine
 10
5679.749888053041
 20
-3540.472190325652
 30
0.0
 11
5679.749888053041
 21
-3574.472190325652
 31
0.0
  0
ARC
  5
9DF34
330
18
100
AcDbEntity
  8
文字
100
AcDbCircle
 10
5691.249888053044
 20
-3574.472190325653
 30
0.0
 40
0.5
100
AcDbArc
 50
270.0
 51
0.0
  0
ARC
  5
9DF35
330
18
100
AcDbEntity
  8
文字
100
AcDbCircle
 10
5680.249888053044
 20
-3574.472190325653
 30
0.0
 40
0.5
100
AcDbArc
 50
180.0
 51
270.0
  0
LINE
  5
9DF36
330
18
100
AcDbEntity
  8
文字
100
AcDbLine
 10
5680.24988805304
 20
-3574.972190325652
 30
0.0
 11
5691.249888053039
 21
-3574.972190325652
 31
0.0
  0
ARC
  5
9DF37
330
18
100
AcDbEntity
  8
文字
100
AcDbCircle
 10
5689.694864635043
 20
-3570.023143824574
 30
0.0
 40
0.8009999999999999
100
AcDbArc
 50
0.0
 51
180.0
  0
LINE
  5
9DF38
330
18
100
AcDbEntity
  8
文字
100
AcDbLine
 10
5690.896364635039
 20
-3568.020643824575
 30
0.0
 11
5688.89386463504
 21
-3567.780343824573
 31
0.0
  0
LINE
  5
9DF39
330
18
100
AcDbEntity
  8
文字
100
AcDbLine
 10
5690.896364635039
 20
-3572.426143824575
 30
0.0
 11
5687.692364635037
 21
-3572.025643824576
 31
0.0
  0
ARC
  5
9DF3A
330
18
100
AcDbEntity
  8
文字
100
AcDbCircle
 10
5689.492751844344
 20
-3570.022212429226
 30
0.0
 40
1.00311322310025
100
AcDbArc
 50
203.589777272609
 51
359.9468005913759
  0
LINE
  5
9DF3B
330
18
100
AcDbEntity
  8
文字
100
AcDbLine
 10
5688.89386463504
 20
-3570.023143824573
 30
0.0
 11
5688.89386463504
 21
-3567.780343824573
 31
0.0
  0
LINE
  5
9DF3C
330
18
100
AcDbEntity
  8
文字
100
AcDbLine
 10
5687.692364635037
 20
-3572.025643824576
 30
0.0
 11
5687.692364635037
 21
-3567.620143824575
 31
0.0
  0
LINE
  5
9DF3D
330
18
100
AcDbEntity
  8
文字
100
AcDbLine
 10
5687.692364635037
 20
-3567.620143824575
 30
0.0
 11
5688.573464635036
 21
-3570.423643824573
 31
0.0
  0
CIRCLE
  5
9DF3E
330
18
100
AcDbEntity
  8
文字
100
AcDbCircle
 10
5689.494614635041
 20
-3570.023143824574
 30
0.0
 40
0.6007500000000002
  0
LINE
  5
9DF3F
330
18
100
AcDbEntity
  8
文字
100
AcDbLine
 10
5690.896364635039
 20
-3572.426143824575
 30
0.0
 11
5690.896364635039
 21
-3568.020643824575
 31
0.0
  0
LINE
  5
9DF40
330
18
100
AcDbEntity
  8
文字
100
AcDbLine
 10
5691.249888053039
 20
-3539.972190325652
 30
0.0
 11
5680.24988805304
 21
-3539.972190325652
 31
0.0
  0
ARC
  5
9DF41
330
18
100
AcDbEntity
  8
文字
100
AcDbCircle
 10
5680.249888053044
 20
-3540.472190325653
 30
0.0
 40
0.5
100
AcDbArc
 50
90.0
 51
180.0
  0
ARC
  5
9DF42
330
18
100
AcDbEntity
  8
文字
100
AcDbCircle
 10
5691.249888053044
 20
-3540.472190325653
 30
0.0
 40
0.5
100
AcDbArc
 50
0.0
 51
90.0
  0
TEXT
  5
9DF43
330
18
100
AcDbEntity
  8
文字
100
AcDbText
 10
5691.115078826992
 20
-3555.350529931103
 30
137.5
 40
1.5
  1
MADE IN JAPAN
 50
90.0
  7
MS\U+FF7A\U+FF9E\U+FF7C\U+FF6F\U+FF78N
 11
5691.389190502119
 21
-3555.350529931103
 31
137.5
100
AcDbText
 73
     1
  0
TEXT
  5
9DF44
330
18
100
AcDbEntity
  8
文字
100
AcDbText
 10
5689.245292776607
 20
-3555.350529931103
 30
137.5
 40
1.5
  1
SN-16140
 50
90.0
  7
MS\U+FF7A\U+FF9E\U+FF7C\U+FF6F\U+FF78N
 11
5689.519404451734
 21
-3555.350529931103
 31
137.5
100
AcDbText
 73
     1
  0
LINE
  5
9DF45
330
18
100
AcDbEntity
  8
文字
100
AcDbLine
 10
5686.316446516925
 20
-3640.695533880033
 30
0.0
 11
5686.316446516925
 21
-3634.904033880032
 31
0.0
  0
HATCH
  5
9DF46
330
18
100
AcDbEntity
  8
文字
100
AcDbHatch
 10
0.0
 20
0.0
 30
0.0
210
0.0
220
0.0
230
1.0
  2
ANSI37
 70
     0
 71
     0
 91
        2
 92
       17
 93
        1
 72
     2
 10
5688.685696516927
 20
-3638.063033880034
 40
0.7897500000000002
 50
90.0
 51
450.0
 73
     1
 97
        0
 92
        1
 93
        8
 72
     2
 10
5688.683247679717
 20
-3638.061809461428
 40
1.318699405648644
 50
203.5897772726301
 51
359.946800591415
 73
     1
 72
     2
 10
5688.948946516926
 20
-3638.063033880034
 40
1.053
 50
0.0
 51
180.0
 73
     1
 72
     1
 10
5687.895946516927
 20
-3638.063033880034
 11
5687.895946516927
 21
-3635.114633880034
 72
     1
 10
5687.895946516927
 20
-3635.114633880033
 11
5690.528446516926
 21
-3635.430533880032
 72
     1
 10
5690.528446516926
 20
-3635.430533880032
 11
5690.528446516926
 21
-3641.222033880031
 72
     1
 10
5690.528446516926
 20
-3641.222033880033
 11
5686.316446516927
 21
-3640.695533880033
 72
     1
 10
5686.316446516925
 20
-3640.695533880033
 11
5686.316446516925
 21
-3634.904033880034
 72
     1
 10
5686.316446516925
 20
-3634.904033880032
 11
5687.474746516924
 21
-3638.589533880032
 97
        0
 75
     0
 76
     1
 52
89.99999999999998
 41
0.8424000000000001
 77
     0
 78
     2
 53
135.0
 43
5685.426162208568
 44
-3902.926989846612
 45
-0.0744583440589435
 46
-0.0744583440589434
 79
     0
 53
225.0
 43
5685.426162208568
 44
-3902.926989846612
 45
0.0744583440589434
 46
-0.0744583440589435
 79
     0
 98
        1
 10
5685.426162208568
 20
-3902.926989846612
  0
TEXT
  5
9DF47
330
18
100
AcDbEntity
  8
文字
100
AcDbText
 10
5684.698483649957
 20
-3641.327867335157
 30
0.0
 40
2.1
  1
SER No : 
 50
90.0
  7
MS\U+FF7A\U+FF9E\U+FF7C\U+FF6F\U+FF78
 11
5683.648483649957
 21
-3641.327867335157
 31
0.0
100
AcDbText
 73
     2
  0
TEXT
  5
9DF48
330
18
100
AcDbEntity
  8
文字
100
AcDbText
 10
5682.180510635384
 20
-3682.295818470557
 30
0.0
 40
1.8
  1
OUT PUT: 714W　
 50
90.0
  7
MS\U+FF7A\U+FF9E\U+FF7C\U+FF6F\U+FF78
 11
5681.280510635384
 21
-3682.295818470557
 31
0.0
100
AcDbText
 73
     2
  0
TEXT
  5
9DF49
330
18
100
AcDbEntity
  8
文字
100
AcDbText
 10
5684.457759207696
 20
-3682.25723872509
 30
0.0
 40
1.8
  1
AMPS   : 6.0A
 50
90.0
  7
MS\U+FF7A\U+FF9E\U+FF7C\U+FF6F\U+FF78
 11
5683.557759207698
 21
-3682.25723872509
 31
0.0
100
AcDbText
 73
     2
  0
TEXT
  5
9DF4A
330
18
100
AcDbEntity
  8
文字
100
AcDbText
 10
5686.73663534857
 20
-3682.331039411642
 30
0.0
 40
1.8
  1
DUTY  : CONT/S1
 50
90.0
  7
MS\U+FF7A\U+FF9E\U+FF7C\U+FF6F\U+FF78
 11
5685.836635348571
 21
-3682.331039411642
 31
0.0
100
AcDbText
 73
     2
  0
TEXT
  5
9DF4B
330
18
100
AcDbEntity
  8
文字
100
AcDbText
 10
5689.018023068712
 20
-3682.341012730692
 30
0.0
 40
1.8
  1
FREQ   : 75Hz
 50
90.0
  7
MS\U+FF7A\U+FF9E\U+FF7C\U+FF6F\U+FF78
 11
5688.118023068711
 21
-3682.341012730692
 31
0.0
100
AcDbText
 73
     2
  0
TEXT
  5
9DF4C
330
18
100
AcDbEntity
  8
文字
100
AcDbText
 10
5691.301996624201
 20
-3682.697720859162
 30
0.0
 40
1.8
  1
INS. 　: F
 50
90.0
  7
MS\U+FF7A\U+FF9E\U+FF7C\U+FF6F\U+FF78
 11
5690.401996624201
 21
-3682.697720859162
 31
0.0
100
AcDbText
 73
     2
  0
LINE
  5
9DF4D
330
18
100
AcDbEntity
  8
文字
100
AcDbLine
 10
5694.099888053048
 20
-3641.722033880034
 30
0.0
 11
5694.099888053048
 21
-3603.722033880033
 31
0.0
  0
LINE
  5
9DF4E
330
18
100
AcDbEntity
  8
文字
100
AcDbLine
 10
5677.099888053048
 20
-3682.722033880033
 30
0.0
 11
5677.099888053048
 21
-3644.722033880033
 31
0.0
  0
TEXT
  5
9DF4F
330
18
100
AcDbEntity
  8
文字
100
AcDbText
 10
5679.901940728996
 20
-3682.313134987801
 30
0.0
 40
1.8
  1
MODEL:NMR-SEMJA2A-711AB-UC
 50
90.0
  7
MS\U+FF7A\U+FF9E\U+FF7C\U+FF6F\U+FF78
 11
5679.001940728997
 21
-3682.313134987801
 31
0.0
100
AcDbText
 73
     2
  0
LINE
  5
9DF50
330
18
100
AcDbEntity
  8
文字
100
AcDbLine
 10
5681.099888053047
 20
-3642.722033880033
 30
0.0
 11
5681.099888053047
 21
-3602.722033880033
 31
0.0
  0
LINE
  5
9DF51
330
18
100
AcDbEntity
  8
文字
100
AcDbLine
 10
5694.099888053048
 20
-3683.722033880033
 30
0.0
 11
5678.099888053048
 21
-3683.722033880033
 31
0.0
  0
ARC
  5
9DF52
330
18
100
AcDbEntity
  8
文字
100
AcDbCircle
 10
5693.099888053049
 20
-3641.722033880034
 30
0.0
 40
1.0
100
AcDbArc
 50
270.0
 51
0.0
  0
LINE
  5
9DF53
330
18
100
AcDbEntity
  8
文字
100
AcDbLine
 10
5690.528446516926
 20
-3641.222033880033
 30
0.0
 11
5686.316446516925
 21
-3640.695533880033
 31
0.0
  0
ARC
  5
9DF54
330
18
100
AcDbEntity
  8
文字
100
AcDbCircle
 10
5678.09988805305
 20
-3682.722033880033
 30
0.0
 40
1.0
100
AcDbArc
 50
180.0
 51
270.0
  0
LINE
  5
9DF55
330
18
100
AcDbEntity
  8
文字
100
AcDbLine
 10
5678.099888053048
 20
-3643.722033880033
 30
0.0
 11
5694.099888053048
 21
-3643.722033880033
 31
0.0
  0
TEXT
  5
9DF56
330
18
100
AcDbEntity
  8
文字
100
AcDbText
 10
5682.186787073796
 20
-3663.266386198799
 30
0.0
 40
1.8
  1
VOLTS : 96V
 50
90.0
  7
MS\U+FF7A\U+FF9E\U+FF7C\U+FF6F\U+FF78
 11
5681.286787073798
 21
-3663.266386198799
 31
0.0
100
AcDbText
 73
     2
  0
TEXT
  5
9DF57
330
18
100
AcDbEntity
  8
文字
100
AcDbText
 10
5684.457827810128
 20
-3663.32091507528
 30
0.0
 40
1.8
  1
TORQUE : 37.9N\U+FF65m
 50
90.0
 41
0.9
  7
MS\U+FF7A\U+FF9E\U+FF7C\U+FF6F\U+FF78
 11
5683.55782781013
 21
-3663.32091507528
 31
0.0
100
AcDbText
 73
     2
  0
TEXT
  5
9DF58
330
18
100
AcDbEntity
  8
文字
100
AcDbText
 10
5686.737062517103
 20
-3663.312799848837
 30
0.0
 40
1.8
  1
SPEED : 3rps
 50
90.0
  7
MS\U+FF7A\U+FF9E\U+FF7C\U+FF6F\U+FF78
 11
5685.837062517102
 21
-3663.312799848837
 31
0.0
100
AcDbText
 73
     2
  0
TEXT
  5
9DF59
330
18
100
AcDbEntity
  8
文字
100
AcDbText
 10
5689.016846434974
 20
-3663.331470210226
 30
0.0
 40
1.8
  1
TEMP  :
 50
90.0
  7
MS\U+FF7A\U+FF9E\U+FF7C\U+FF6F\U+FF78
 11
5688.116846434974
 21
-3663.331470210226
 31
0.0
100
AcDbText
 73
     2
  0
TEXT
  5
9DF5A
330
18
100
AcDbEntity
  8
文字
100
AcDbText
 10
5693.387413840119
 20
-3640.569592061583
 30
0.0
 40
1.8
  1
NIKKI DENSO CO.,LTD.
 50
90.0
 41
0.55
 11
5692.487413840119
 21
-3640.569592061583
 31
0.0
100
AcDbText
 73
     2
  0
TEXT
  5
9DF5B
330
18
100
AcDbEntity
  8
文字
100
AcDbText
 10
5688.235696786306
 20
-3633.608656388321
 30
0.0
 40
1.9
  1
NIKKI
 50
90.0
  7
TIMESNR
 11
5687.285696786307
 21
-3633.608656388321
 31
0.0
100
AcDbText
 73
     2
  0
TEXT
  5
9DF5C
330
18
100
AcDbEntity
  8
文字
100
AcDbText
 10
5690.473958355831
 20
-3633.590707138092
 30
0.0
 40
1.9
  1
DENSO
 50
90.0
  7
TIMESNR
 11
5689.523958355831
 21
-3633.590707138092
 31
0.0
100
AcDbText
 73
     2
  0
LINE
  5
9DF5D
330
18
100
AcDbEntity
  8
文字
100
AcDbLine
 10
5690.528446516926
 20
-3635.430533880032
 30
0.0
 11
5687.895946516927
 21
-3635.114633880033
 31
0.0
  0
LINE
  5
9DF5E
330
18
100
AcDbEntity
  8
文字
100
AcDbLine
 10
5687.895946516927
 20
-3638.063033880034
 30
0.0
 11
5687.895946516927
 21
-3635.114633880033
 31
0.0
  0
LINE
  5
9DF5F
330
18
100
AcDbEntity
  8
文字
100
AcDbLine
 10
5686.316446516925
 20
-3634.904033880032
 30
0.0
 11
5687.474746516926
 21
-3638.589533880033
 31
0.0
  0
ARC
  5
9DF60
330
18
100
AcDbEntity
  8
文字
100
AcDbCircle
 10
5688.948946516926
 20
-3638.063033880034
 30
0.0
 40
1.053
100
AcDbArc
 50
0.0
 51
180.0
  0
CIRCLE
  5
9DF61
330
18
100
AcDbEntity
  8
文字
100
AcDbCircle
 10
5688.685696516927
 20
-3638.063033880034
 30
0.0
 40
0.7897500000000002
  0
ARC
  5
9DF62
330
18
100
AcDbEntity
  8
文字
100
AcDbCircle
 10
5688.683247679717
 20
-3638.061809461428
 30
0.0
 40
1.318699405648644
100
AcDbArc
 50
203.589777272609
 51
359.9468005913759
  0
TEXT
  5
9DF63
330
18
100
AcDbEntity
  8
文字
100
AcDbText
 10
5684.614945572427
 20
-3629.775392981072
 30
0.0
 40
2.1
  1
*******
 50
90.0
  7
MS\U+FF7A\U+FF9E\U+FF7C\U+FF6F\U+FF78
 11
5683.564945572427
 21
-3629.775392981072
 31
0.0
100
AcDbText
 73
     2
  0
TEXT
  5
9DF64
330
18
100
AcDbEntity
  8
文字
100
AcDbText
 10
5693.37733023595
 20
-3623.820054324723
 30
0.0
 40
1.8
  1
MADE IN JAPAN
 50
90.0
 41
0.55
 11
5692.477330235949
 21
-3623.820054324723
 31
0.0
100
AcDbText
 73
     2
  0
ARC
  5
9DF65
330
18
100
AcDbEntity
  8
文字
100
AcDbCircle
 10
5693.099888053049
 20
-3603.722033880033
 30
0.0
 40
1.0
100
AcDbArc
 50
0.0
 51
90.0
  0
ARC
  5
9DF66
102
{ACAD_REACTORS
330
9DF68
102
}
330
18
100
AcDbEntity
  8
文字
100
AcDbCircle
 10
5689.709015218198
 20
-3607.710267761298
 30
0.0
 40
0.3145728000000001
100
AcDbArc
 50
0.0
 51
110.0000000000471
  0
LINE
  5
9DF67
102
{ACAD_REACTORS
330
9DF68
102
}
330
18
100
AcDbEntity
  8
文字
100
AcDbLine
 10
5685.965598898199
 20
-3608.737998494658
 30
0.0
 11
5689.601424984058
 21
-3607.414666022437
 31
0.0
  0
HATCH
  5
9DF68
330
18
100
AcDbEntity
  8
文字
100
AcDbHatch
 10
0.0
 20
0.0
 30
0.0
210
0.0
220
0.0
230
1.0
  2
SOLID
 70
     1
 71
     1
 91
        2
 92
        1
 93
       16
 72
     1
 10
5685.965598898199
 20
-3613.470338580067
 11
5685.965598898199
 21
-3610.751264414659
 72
     1
 10
5685.965598898199
 20
-3610.751264414659
 11
5688.7652968182
 21
-3609.732257706843
 72
     1
 10
5688.7652968182
 20
-3609.73225770684
 11
5688.7652968182
 21
-3608.977282986842
 72
     1
 10
5688.7652968182
 20
-3608.977282986842
 11
5685.965598898199
 21
-3609.996289694658
 72
     1
 10
5685.965598898199
 20
-3609.996289694658
 11
5685.965598898199
 21
-3608.737998494658
 72
     1
 10
5685.965598898199
 20
-3608.737998494658
 11
5689.601424984058
 21
-3607.414666022437
 72
     2
 10
5689.709015218198
 20
-3607.710267761298
 40
0.3145728000000001
 50
249.9999999999289
 51
360.0
 73
     0
 72
     1
 10
5690.023588018199
 20
-3607.710267761298
 11
5690.023588018199
 21
-3610.532568364002
 72
     1
 10
5690.023588018199
 20
-3610.532568364002
 11
5688.513638578199
 21
-3611.082145015409
 72
     1
 10
5688.513638578199
 20
-3611.082145015409
 11
5688.513638578199
 21
-3611.312623502741
 72
     1
 10
5688.513638578199
 20
-3611.312623502741
 11
5690.023588018199
 21
-3611.633573164003
 72
     1
 10
5690.023588018199
 20
-3611.633573164003
 11
5690.023588018199
 21
-3612.891864364002
 72
     1
 10
5690.023588018199
 20
-3612.891864364002
 11
5688.513638578199
 21
-3612.570914702741
 72
     1
 10
5688.513638578199
 20
-3612.570914702741
 11
5688.513638578199
 21
-3613.441441015409
 72
     1
 10
5688.513638578199
 20
-3613.441441015409
 11
5686.809924966483
 21
-3614.061542057788
 72
     2
 10
5686.5947444982
 20
-3613.470338580067
 40
0.6291456000000003
 50
70.00000000011285
 51
180.0
 73
     0
 97
       16
330
9DF6A
330
9DF6E
330
9DF70
330
9DF6D
330
9DF6C
330
9DF6B
330
9DF77
330
9DF76
330
9DF78
330
9DF73
330
9DF66
330
9DF67
330
9DF7C
330
9DF71
330
9DF7B
330
9DF72
 92
       16
 93
        4
 72
     1
 10
5686.877860018199
 20
-3612.778524521099
 11
5687.601377458199
 21
-3612.515185708968
 72
     1
 10
5687.601377458199
 20
-3612.515185708968
 11
5687.601377458199
 21
-3611.414180908967
 72
     1
 10
5687.601377458199
 20
-3611.414180908967
 11
5686.877860018199
 21
-3611.677519721101
 72
     1
 10
5686.877860018199
 20
-3611.677519721101
 11
5686.877860018199
 21
-3612.778524521099
 97
        4
330
9DF7A
330
9DF74
330
9DF79
330
9DF75
 75
     0
 76
     1
 98
        2
 10
5687.851035142959
 20
-3612.237969366201
 10
5687.851035142959
 20
-3612.237969366201
  0
TEXT
  5
9DF69
330
18
100
AcDbEntity
  8
文字
100
AcDbText
 10
5689.014383887796
 20
-3653.857512206924
 30
0.0
 40
1.8
  1
0～+40℃
 50
90.0
 41
0.8
  7
MS\U+FF7A\U+FF9E\U+FF7C\U+FF6F\U+FF78
 11
5688.114383887796
 21
-3653.857512206924
 31
0.0
100
AcDbText
 73
     2
  0
LINE
  5
9DF6A
102
{ACAD_REACTORS
330
9DF68
102
}
330
18
100
AcDbEntity
  8
文字
100
AcDbLine
 10
5685.965598898199
 20
-3613.470338580067
 30
0.0
 11
5685.965598898199
 21
-3610.751264414659
 31
0.0
  0
LINE
  5
9DF6B
102
{ACAD_REACTORS
330
9DF68
102
}
330
18
100
AcDbEntity
  8
文字
100
AcDbLine
 10
5690.023588018199
 20
-3612.891864364002
 30
0.0
 11
5690.023588018199
 21
-3611.633573164003
 31
0.0
  0
LINE
  5
9DF6C
102
{ACAD_REACTORS
330
9DF68
102
}
330
18
100
AcDbEntity
  8
文字
100
AcDbLine
 10
5690.023588018199
 20
-3612.891864364002
 30
0.0
 11
5688.513638578199
 21
-3612.570914702741
 31
0.0
  0
LINE
  5
9DF6D
102
{ACAD_REACTORS
330
9DF68
102
}
330
18
100
AcDbEntity
  8
文字
100
AcDbLine
 10
5688.513638578199
 20
-3613.441441015409
 30
0.0
 11
5688.513638578199
 21
-3612.570914702741
 31
0.0
  0
ARC
  5
9DF6E
102
{ACAD_REACTORS
330
9DF68
102
}
330
18
100
AcDbEntity
  8
文字
100
AcDbCircle
 10
5686.5947444982
 20
-3613.470338580067
 30
0.0
 40
0.6291456000000003
100
AcDbArc
 50
180.0
 51
289.9999999998824
  0
TEXT
  5
9DF6F
330
18
100
AcDbEntity
  8
文字
100
AcDbText
 10
5690.046725694203
 20
-3615.257637443939
 30
0.0
 40
1.79306496
  1
C
 50
90.0
  7
MS\U+FF7A\U+FF9E\U+FF7C\U+FF6F\U+FF78
100
AcDbText
  0
LINE
  5
9DF70
102
{ACAD_REACTORS
330
9DF68
102
}
330
18
100
AcDbEntity
  8
文字
100
AcDbLine
 10
5686.809924966483
 20
-3614.061542057788
 30
0.0
 11
5688.513638578199
 21
-3613.441441015409
 31
0.0
  0
LINE
  5
9DF71
102
{ACAD_REACTORS
330
9DF68
102
}
330
18
100
AcDbEntity
  8
文字
100
AcDbLine
 10
5685.965598898199
 20
-3609.996289694658
 30
0.0
 11
5688.7652968182
 21
-3608.977282986842
 31
0.0
  0
LINE
  5
9DF72
102
{ACAD_REACTORS
330
9DF68
102
}
330
18
100
AcDbEntity
  8
文字
100
AcDbLine
 10
5685.965598898199
 20
-3610.751264414659
 30
0.0
 11
5688.7652968182
 21
-3609.732257706843
 31
0.0
  0
LINE
  5
9DF73
102
{ACAD_REACTORS
330
9DF68
102
}
330
18
100
AcDbEntity
  8
文字
100
AcDbLine
 10
5690.023588018199
 20
-3610.532568364002
 30
0.0
 11
5690.023588018199
 21
-3607.710267761298
 31
0.0
  0
LINE
  5
9DF74
102
{ACAD_REACTORS
330
9DF68
102
}
330
18
100
AcDbEntity
  8
文字
100
AcDbLine
 10
5686.877860018199
 20
-3612.778524521099
 30
0.0
 11
5686.877860018199
 21
-3611.677519721101
 31
0.0
  0
LINE
  5
9DF75
102
{ACAD_REACTORS
330
9DF68
102
}
330
18
100
AcDbEntity
  8
文字
100
AcDbLine
 10
5687.601377458199
 20
-3612.515185708968
 30
0.0
 11
5687.601377458199
 21
-3611.414180908967
 31
0.0
  0
LINE
  5
9DF76
102
{ACAD_REACTORS
330
9DF68
102
}
330
18
100
AcDbEntity
  8
文字
100
AcDbLine
 10
5688.513638578199
 20
-3611.312623502741
 30
0.0
 11
5688.513638578199
 21
-3611.082145015409
 31
0.0
  0
LINE
  5
9DF77
102
{ACAD_REACTORS
330
9DF68
102
}
330
18
100
AcDbEntity
  8
文字
100
AcDbLine
 10
5690.023588018199
 20
-3611.633573164003
 30
0.0
 11
5688.513638578199
 21
-3611.312623502741
 31
0.0
  0
LINE
  5
9DF78
102
{ACAD_REACTORS
330
9DF68
102
}
330
18
100
AcDbEntity
  8
文字
100
AcDbLine
 10
5688.513638578199
 20
-3611.082145015409
 30
0.0
 11
5690.023588018199
 21
-3610.532568364002
 31
0.0
  0
LINE
  5
9DF79
102
{ACAD_REACTORS
330
9DF68
102
}
330
18
100
AcDbEntity
  8
文字
100
AcDbLine
 10
5686.877860018199
 20
-3611.677519721101
 30
0.0
 11
5687.601377458199
 21
-3611.414180908967
 31
0.0
  0
LINE
  5
9DF7A
102
{ACAD_REACTORS
330
9DF68
102
}
330
18
100
AcDbEntity
  8
文字
100
AcDbLine
 10
5686.877860018199
 20
-3612.778524521099
 30
0.0
 11
5687.601377458199
 21
-3612.515185708968
 31
0.0
  0
LINE
  5
9DF7B
102
{ACAD_REACTORS
330
9DF68
102
}
330
18
100
AcDbEntity
  8
文字
100
AcDbLine
 10
5688.7652968182
 20
-3609.73225770684
 30
0.0
 11
5688.7652968182
 21
-3608.977282986842
 31
0.0
  0
LINE
  5
9DF7C
102
{ACAD_REACTORS
330
9DF68
102
}
330
18
100
AcDbEntity
  8
文字
100
AcDbLine
 10
5685.965598898199
 20
-3609.996289694658
 30
0.0
 11
5685.965598898199
 21
-3608.737998494658
 31
0.0
  0
TEXT
  5
9DF7D
330
18
100
AcDbEntity
  8
文字
100
AcDbText
 10
5690.046725694203
 20
-3605.795161941411
 30
0.0
 40
1.79306496
  1
S
 50
90.0
  7
MS\U+FF7A\U+FF9E\U+FF7C\U+FF6F\U+FF78
100
AcDbText
  0
TEXT
  5
9DF7E
330
18
100
AcDbEntity
  8
文字
100
AcDbText
 10
5690.046725694203
 20
-3607.094002250204
 30
0.0
 40
1.79306496
  1
U
 50
90.0
  7
MS\U+FF7A\U+FF9E\U+FF7C\U+FF6F\U+FF78
100
AcDbText
  0
ARC
  5
9DF7F
330
18
100
AcDbEntity
  8
文字
100
AcDbCircle
 10
5678.09988805305
 20
-3644.722033880033
 30
0.0
 40
1.0
100
AcDbArc
 50
90.0
 51
180.0
  0
TEXT
  5
9DF80
330
18
100
AcDbEntity
  8
文字
100
AcDbText
 10
5693.347852512283
 20
-3611.075038219325
 30
0.0
 40
1.8
  1
SN-26490
 50
90.0
 41
0.55
 11
5692.447852512283
 21
-3611.075038219325
 31
0.0
100
AcDbText
 73
     2
  0
TEXT
  5
9DF81
330
18
100
AcDbEntity
  8
文字
100
AcDbText
 10
5693.552996883623
 20
-3682.348930325682
 30
0.0
 40
1.8
  1
Ph3
 50
90.0
  7
MS\U+FF7A\U+FF9E\U+FF7C\U+FF6F\U+FF78
 11
5692.652996883623
 21
-3682.348930325682
 31
0.0
100
AcDbText
 73
     2
  0
TEXT
  5
9DF82
330
18
100
AcDbEntity
  8
文字
100
AcDbText
 10
5684.309400508942
 20
-3611.665367089307
 30
0.0
 40
2.1
  1
#100 R
 50
90.0
  7
MS\U+FF7A\U+FF9E\U+FF7C\U+FF6F\U+FF78
 11
5683.259400508941
 21
-3611.665367089307
 31
0.0
100
AcDbText
 73
     2
  0
ARC
  5
9DF83
330
18
100
AcDbEntity
  8
文字
 48
3.0
100
AcDbCircle
 10
5688.035637864821
 20
-3616.969900890988
 30
0.0
 40
1.8
100
AcDbArc
 50
279.5940682268241
 51
0.0
  0
ARC
  5
9DF84
330
18
100
AcDbEntity
  8
文字
 48
3.0
100
AcDbCircle
 10
5688.035637864821
 20
-3620.585871323605
 30
0.0
 40
2.4
100
AcDbArc
 50
180.0
 51
0.0
  0
ARC
  5
9DF85
330
18
100
AcDbEntity
  8
文字
 48
3.0
100
AcDbCircle
 10
5688.035637864821
 20
-3620.585871323605
 30
0.0
 40
1.8
100
AcDbArc
 50
180.0
 51
0.0
  0
HATCH
  5
9DF86
330
18
100
AcDbEntity
  8
文字
 48
3.0
100
AcDbHatch
 10
0.0
 20
0.0
 30
0.0
210
0.0
220
0.0
230
1.0
  2
SOLID
 70
     1
 71
     0
 91
        1
 92
        7
 72
     1
 73
     1
 93
        4
 10
5690.435637864821
 20
-3620.585871323605
 42
0.0
 10
5689.83563786482
 20
-3620.585871323605
 42
-1.0
 10
5686.23563786482
 20
-3620.585871323605
 42
0.0
 10
5685.63563786482
 20
-3620.585871323605
 42
1.0
 97
        0
 75
     0
 76
     1
 47
0.0446283734803627
 98
        1
 10
5687.178295512487
 20
-3622.552358301194
  0
ARC
  5
9DF87
330
18
100
AcDbEntity
  8
文字
 48
3.0
100
AcDbCircle
 10
5688.035637864821
 20
-3616.969900890988
 30
0.0
 40
2.4
100
AcDbArc
 50
180.0
 51
0.0
  0
HATCH
  5
9DF88
330
18
100
AcDbEntity
  8
文字
 48
3.0
100
AcDbHatch
 10
0.0
 20
0.0
 30
0.0
210
0.0
220
0.0
230
1.0
  2
SOLID
 70
     1
 71
     0
 91
        1
 92
        7
 72
     1
 73
     1
 93
        8
 10
5687.73563786482
 20
-3618.744724825918
 42
-0.3659773818630374
 10
5686.23563786482
 20
-3616.969900890988
 42
0.0
 10
5685.63563786482
 20
-3616.969900890988
 42
1.0
 10
5690.435637864821
 20
-3616.969900890988
 42
0.0
 10
5689.83563786482
 20
-3616.969900890988
 42
-0.3659773818630525
 10
5688.33563786482
 20
-3618.744724825918
 42
0.0
 10
5688.33563786482
 20
-3617.169900890988
 42
0.0
 10
5687.73563786482
 20
-3617.169900890988
 42
0.0
 97
        0
 75
     0
 76
     1
 47
0.0446283734803627
 98
        1
 10
5687.928052201771
 20
-3618.855352031904
  0
LINE
  5
9DF89
330
18
100
AcDbEntity
  8
文字
 48
3.0
100
AcDbLine
 10
5689.83563786482
 20
-3616.969900890988
 30
0.0
 11
5690.435637864821
 21
-3616.969900890988
 31
0.0
  0
LINE
  5
9DF8A
330
18
100
AcDbEntity
  8
文字
 48
3.0
100
AcDbLine
 10
5689.83563786482
 20
-3620.585871323605
 30
0.0
 11
5690.435637864821
 21
-3620.585871323605
 31
0.0
  0
LINE
  5
9DF8B
330
18
100
AcDbEntity
  8
文字
 48
3.0
100
AcDbLine
 10
5685.63563786482
 20
-3616.969900890988
 30
0.0
 11
5686.23563786482
 21
-3616.969900890988
 31
0.0
  0
LINE
  5
9DF8C
330
18
100
AcDbEntity
  8
文字
 48
3.0
100
AcDbLine
 10
5687.73563786482
 20
-3618.744724825918
 30
0.0
 11
5687.73563786482
 21
-3617.169900890988
 31
0.0
  0
LINE
  5
9DF8D
330
18
100
AcDbEntity
  8
文字
 48
3.0
100
AcDbLine
 10
5688.33563786482
 20
-3618.744724825918
 30
0.0
 11
5688.33563786482
 21
-3617.169900890988
 31
0.0
  0
LINE
  5
9DF8E
330
18
100
AcDbEntity
  8
文字
 48
3.0
100
AcDbLine
 10
5687.73563786482
 20
-3617.169900890988
 30
0.0
 11
5688.33563786482
 21
-3617.169900890988
 31
0.0
  0
ARC
  5
9DF8F
330
18
100
AcDbEntity
  8
文字
 48
3.0
100
AcDbCircle
 10
5688.035637864821
 20
-3616.969900890988
 30
0.0
 40
1.8
100
AcDbArc
 50
180.0
 51
260.4059317731202
  0
LINE
  5
9DF90
330
18
100
AcDbEntity
  8
文字
 48
3.0
100
AcDbLine
 10
5685.63563786482
 20
-3620.585871323605
 30
0.0
 11
5686.23563786482
 21
-3620.585871323605
 31
0.0
  0
TEXT
  5
9DF91
330
18
100
AcDbEntity
  8
文字
100
AcDbText
 10
5691.227437352866
 20
-3663.130155335659
 30
0.0
 40
1.8
  1
MASS: 10.7kg
 50
90.0
  7
MS\U+FF7A\U+FF9E\U+FF7C\U+FF6F\U+FF78
 11
5690.327437352866
 21
-3663.130155335659
 31
0.0
100
AcDbText
 73
     2
  0
TEXT
  5
9DF92
330
18
100
AcDbEntity
  8
文字
100
AcDbText
 10
5693.629006179126
 20
-3672.614192577479
 30
0.0
 40
1.8
  1
T E
 50
90.0
  7
MS\U+FF7A\U+FF9E\U+FF7C\U+FF6F\U+FF78
 11
5692.729006179125
 21
-3672.614192577479
 31
0.0
100
AcDbText
 73
     2
  0
TEXT
  5
9DF93
330
18
100
AcDbEntity
  8
文字
100
AcDbText
 10
5693.629006179126
 20
-3663.421650658735
 30
0.0
 40
1.8
  1
IP40
 50
90.0
  7
MS\U+FF7A\U+FF9E\U+FF7C\U+FF6F\U+FF78
 11
5692.729006179125
 21
-3663.421650658735
 31
0.0
100
AcDbText
 73
     2
  0
TEXT
  5
9DF94
330
18
100
AcDbEntity
  8
文字
100
AcDbText
 10
5693.629006179126
 20
-3654.349774564701
 30
0.0
 40
1.8
  1
EN60034
 50
90.0
  7
MS\U+FF7A\U+FF9E\U+FF7C\U+FF6F\U+FF78
 11
5692.729006179125
 21
-3654.349774564701
 31
0.0
100
AcDbText
 73
     2
  0
LINE
  5
9DF95
330
18
100
AcDbEntity
  8
文字
100
AcDbLine
 10
5694.099888053048
 20
-3643.722033880033
 30
0.0
 11
5694.099888053048
 21
-3683.722033880033
 31
0.0
  0
LINE
  5
9DF96
330
18
100
AcDbEntity
  8
文字
100
AcDbLine
 10
5681.099888053047
 20
-3602.722033880033
 30
0.0
 11
5693.099888053049
 21
-3602.722033880033
 31
0.0
  0
LINE
  5
9DF97
330
18
100
AcDbEntity
  8
文字
100
AcDbLine
 10
5681.099888053047
 20
-3642.722033880033
 30
0.0
 11
5693.099888053049
 21
-3642.722033880033
 31
0.0
  0
HATCH
  5
9E045
330
18
100
AcDbEntity
  8
本体
100
AcDbHatch
 10
0.0
 20
0.0
 30
0.0
210
0.0
220
0.0
230
1.0
  2
SOLID
 70
     1
 71
     0
 91
        2
 92
        7
 72
     1
 73
     1
 93
        3
 10
5312.978413265481
 20
-3618.360761965071
 42
0.4142135623731056
 10
5310.857092921924
 20
-3622.034996579249
 42
0.0
 10
5313.754870400789
 20
-3621.258539443942
 42
0.0
 97
        0
 92
        7
 72
     1
 73
     1
 93
        3
 10
5316.652647879656
 20
-3620.482082308634
 42
0.0
 10
5313.754870400789
 20
-3621.258539443942
 42
0.0
 10
5314.531327536097
 20
-3624.15631692281
 42
0.4142135623731056
 97
        0
 75
     0
 76
     1
 47
0.0110124163047153
 98
        2
 10
5312.565594502309
 20
-3620.496514941882
 10
5315.689510098718
 20
-3622.071650795506
  0
VIEWPORT
  5
9DDD5
102
{ACAD_XDICTIONARY
360
9E099
102
}
330
9DDD1
100
AcDbEntity
 67
     1
  8
0
100
AcDbViewport
 10
5.249999999999999
 20
5.978311323982211
 30
0.0
 40
15.95993862921145
 41
10.23072989052016
 68
     1
 69
     1
 12
5.249999999999999
 22
5.978311323982211
 13
0.0
 23
0.0
 14
0.5
 24
0.5
 15
0.0
 25
0.0
 16
0.0
 26
0.0
 36
1.0
 17
0.0
 27
0.0
 37
0.0
 42
50.0
 43
0.0
 44
0.0
 45
10.23072989052016
 50
0.0
 51
0.0
 72
   100
 90
   557168
  1

281
     0
 71
     1
 74
     0
110
0.0
120
0.0
130
0.0
111
1.0
121
0.0
131
0.0
112
0.0
122
1.0
132
0.0
 79
     0
146
0.0
  0
VIEWPORT
  5
9DDD6
102
{ACAD_XDICTIONARY
360
9DDD7
102
}
330
9DDD1
100
AcDbEntity
 67
     1
  8
0
100
AcDbViewport
 10
5.25
 20
3.5
 30
0.0
 40
8.4
 41
5.6
 68
     2
 69
     2
 12
5594.126735667582
 22
-3734.422110557531
 13
0.0
 23
0.0
 14
0.5
 24
0.5
 15
0.0
 25
0.0
 16
0.0
 26
0.0
 36
1.0
 17
0.0
 27
0.0
 37
0.0
 42
50.0
 43
0.0
 44
0.0
 45
622.8493024813506
 50
0.0
 51
0.0
 72
   100
341
E
 90
   557152
  1

281
     0
 71
     1
 74
     0
110
0.0
120
0.0
130
0.0
111
1.0
121
0.0
131
0.0
112
0.0
122
1.0
132
0.0
 79
     0
146
0.0
  0
ENDSEC
  0
SECTION
  2
OBJECTS
  0
DICTIONARY
  5
C
330
0
100
AcDbDictionary
281
     1
  3
ACAD_2007HEADERVARS_RT
350
9E055
  3
ACAD_CIP_PREVIOUS_PRODUCT_INFO
350
886B3
  3
ACAD_COLOR
350
9DDED
  3
ACAD_DETAILVIEWSTYLE
350
9DD71
  3
ACAD_GROUP
350
D
  3
ACAD_IMAGE_VARS
350
88E9E
  3
ACAD_LAYOUT
350
73F
  3
ACAD_MATERIAL
350
9DC9D
  3
ACAD_MLEADERSTYLE
350
9DCA3
  3
ACAD_MLINESTYLE
350
1B
  3
ACAD_PLOTSETTINGS
350
740
  3
ACAD_PLOTSTYLENAME
350
73D
  3
ACAD_SCALELIST
350
88696
  3
ACAD_SECTIONVIEWSTYLE
350
9DD72
  3
ACAD_TABLESTYLE
350
9DCA1
  3
ACAD_VISUALSTYLE
350
9DC84
  3
AcadDim
350
9DD6C
  3
ACDB_RECOMPOSE_DATA
350
9E053
  3
AcDbVariableDictionary
350
11AC
  3
AcDsDecomposeData
350
9E05D
  3
APPDATA
350
88E9C
  3
DWGPROPS
350
9E054
  0
DICTIONARY
  5
1E591
330
2
100
AcDbDictionary
280
     1
281
     1
  3
ACAD_LAYERSTATES
360
1E615
  3
ACLYDICTIONARY
360
9DDDC
  0
DICTIONARY
  5
886FF
330
E
100
AcDbDictionary
280
     1
281
     1
  3
ADSK_XREC_LAYER_RECONCILED
360
88700
  0
DICTIONARY
  5
88707
330
8C6
100
AcDbDictionary
280
     1
281
     1
  3
ADSK_XREC_LAYER_RECONCILED
360
88708
  0
DICTIONARY
  5
8870D
330
96A
100
AcDbDictionary
280
     1
281
     1
  3
ADSK_XREC_LAYER_RECONCILED
360
8870E
  0
DICTIONARY
  5
8870F
330
1521
100
AcDbDictionary
280
     1
281
     1
  3
ADSK_XREC_LAYER_RECONCILED
360
88710
  0
DICTIONARY
  5
88713
330
1523
100
AcDbDictionary
280
     1
281
     1
  3
ADSK_XREC_LAYER_RECONCILED
360
88714
  0
DICTIONARY
  5
8871F
330
7920D
100
AcDbDictionary
280
     1
281
     1
  3
ADSK_XREC_LAYER_RECONCILED
360
88720
  0
DICTIONARY
  5
88721
330
7CE53
100
AcDbDictionary
280
     1
281
     1
  3
ADSK_XREC_LAYER_RECONCILED
360
88722
  0
DICTIONARY
  5
88723
330
80436
100
AcDbDictionary
280
     1
281
     1
  3
ADSK_XREC_LAYER_RECONCILED
360
88724
  0
DICTIONARY
  5
9E099
330
9DDD5
100
AcDbDictionary
280
     1
281
     1
  3
ACAD_XREC_ROUNDTRIP
360
9E09A
  0
DICTIONARY
  5
9DDD7
330
9DDD6
100
AcDbDictionary
280
     1
281
     1
  3
ACAD_XREC_ROUNDTRIP
360
9E09B
  3
ASDK_XREC_ANNOTATION_SCALE_INFO
360
9DDD8
  0
DICTIONARY
  5
9E055
102
{ACAD_REACTORS
330
C
102
}
330
C
100
AcDbDictionary
281
     1
  3
INTERFERECOLOR
350
9E056
  0
XRECORD
  5
886B3
102
{ACAD_REACTORS
330
C
102
}
330
C
100
AcDbXrecord
280
     1
300
ACDLT
300
2019
300
87085ACDLT_2019_0F
  0
DICTIONARY
  5
9DDED
102
{ACAD_REACTORS
330
C
102
}
330
C
100
AcDbDictionary
281
     1
  0
DICTIONARY
  5
9DD71
102
{ACAD_REACTORS
330
C
102
}
330
C
100
AcDbDictionary
281
     1
  3
Imperial24
350
9DDEF
  0
DICTIONARY
  5
D
102
{ACAD_REACTORS
330
C
102
}
330
C
100
AcDbDictionary
281
     1
  0
RASTERVARIABLES
  5
88E9E
102
{ACAD_REACTORS
330
C
102
}
330
C
100
AcDbRasterVariables
 90
        0
 70
     1
 71
     1
 72
     0
  0
DICTIONARY
  5
73F
102
{ACAD_REACTORS
330
C
102
}
330
C
100
AcDbDictionary
281
     1
  3
Model
350
741
  3
Sheet1
350
9DDD2
  0
DICTIONARY
  5
9DC9D
102
{ACAD_REACTORS
330
C
102
}
330
C
100
AcDbDictionary
281
     1
  3
ByBlock
350
9DDE5
  3
ByLayer
350
9DC9E
  3
Global
350
9DCA0
  0
DICTIONARY
  5
9DCA3
102
{ACAD_REACTORS
330
C
102
}
330
C
100
AcDbDictionary
281
     1
  3
Standard
350
9DCA4
  0
DICTIONARY
  5
1B
102
{ACAD_REACTORS
330
C
102
}
330
C
100
AcDbDictionary
281
     1
  3
STANDARD
350
1C
  0
DICTIONARY
  5
740
102
{ACAD_REACTORS
330
C
102
}
330
C
100
AcDbDictionary
281
     1
  0
ACDBDICTIONARYWDFLT
  5
73D
102
{ACAD_REACTORS
330
C
102
}
330
C
100
AcDbDictionary
281
     1
  3
Normal
350
73E
100
AcDbDictionaryWithDefault
340
73E
  0
DICTIONARY
  5
88696
102
{ACAD_REACTORS
330
C
102
}
330
C
100
AcDbDictionary
281
     1
  3
A0
350
88697
  3
A1
350
88698
  3
A2
350
88699
  3
A3
350
8869A
  3
A4
350
8869B
  3
A5
350
8869C
  3
A6
350
8869D
  3
A7
350
8869E
  3
A8
350
8869F
  3
A9
350
886A0
  3
B0
350
886A1
  3
B1
350
886A2
  3
B2
350
886A3
  3
B3
350
886A4
  3
B4
350
886A5
  3
B5
350
886A6
  3
B6
350
886A7
  0
DICTIONARY
  5
9DD72
102
{ACAD_REACTORS
330
C
102
}
330
C
100
AcDbDictionary
281
     1
  3
Imperial24
350
9DDEE
  0
DICTIONARY
  5
9DCA1
102
{ACAD_REACTORS
330
C
102
}
330
C
100
AcDbDictionary
281
     1
  3
Standard
350
9DCA2
  0
DICTIONARY
  5
9DC84
102
{ACAD_REACTORS
330
C
102
}
330
C
100
AcDbDictionary
281
     1
  3
2dWireframe
350
9DC89
  3
Basic
350
9DC8C
  3
Brighten
350
9DC90
  3
ColorChange
350
9DC94
  3
Conceptual
350
9DC8E
  3
Dim
350
9DC8F
  3
EdgeColorOff
350
9DC97
  3
Facepattern
350
9DC93
  3
Flat
350
9DC85
  3
FlatWithEdges
350
9DC86
  3
Gouraud
350
9DC87
  3
GouraudWithEdges
350
9DC88
  3
Hidden
350
9DC8B
  3
JitterOff
350
9DC95
  3
Linepattern
350
9DC92
  3
OverhangOff
350
9DC96
  3
Realistic
350
9DC8D
  3
Shaded
350
9DC9C
  3
Shaded with edges
350
9DC9B
  3
Shades of Gray
350
9DC98
  3
Sketchy
350
9DC99
  3
Thicken
350
9DC91
  3
Wireframe
350
9DC8A
  3
X-Ray
350
9DC9A
  0
XRECORD
  5
9DD6C
102
{ACAD_REACTORS
330
C
102
}
330
C
100
AcDbXrecord
280
     1
340
0
 72
     0
 71
     0
 70
     0
 69
     0
 68
     0
 67
     3
 66
     0
 65
     0
 64
     1
 63
     5
 62
     5
 61
     0
 60
     0
 40
0.0
  0
XRECORD
  5
9E053
102
{ACAD_REACTORS
330
C
102
}
330
C
100
AcDbXrecord
280
     1
 90
        1
330
9DCA2
  0
DICTIONARY
  5
11AC
102
{ACAD_REACTORS
330
C
102
}
330
C
100
AcDbDictionary
281
     1
  3
CANNOSCALE
350
9E047
  3
CMLEADERSTYLE
350
9DD6F
  3
CTABLESTYLE
350
9DD6E
  3
CVIEWDETAILSTYLE
350
9DE49
  3
CVIEWSECTIONSTYLE
350
9DE4A
  3
DGNFRAME
350
9DE4F
  3
DIMASSOC
350
11AD
  3
HIDETEXT
350
9DE4E
  3
HPTRANSPARENCY
350
91EE9
  3
INDEXCTL
350
88912
  3
LAYEREVAL
350
9DE4C
  3
LAYERNOTIFY
350
9DE4D
  3
LIGHTINGUNITS
350
9DE4B
  3
LOFTANG1
350
9E042
  3
LOFTANG2
350
9E043
  3
MSLTSCALE
350
9DD70
  3
SORTENTS
350
AD08
  3
XCLIPFRAME
350
9E044
  0
DICTIONARY
  5
9E05D
102
{ACAD_REACTORS
330
C
102
}
330
C
100
AcDbDictionary
281
     1
  3
AcDsRecords
350
9E05F
  3
AcDsSchemas
350
9E05E
1001
ACAD
1070
     2
  0
DICTIONARY
  5
88E9C
102
{ACAD_REACTORS
330
C
102
}
330
C
100
AcDbDictionary
281
     1
  0
XRECORD
  5
9E054
102
{ACAD_REACTORS
330
C
102
}
330
C
100
AcDbXrecord
280
     1
  1
DWGPROPS COOKIE
  2

  3

  4

  6

  7

  8
NI0949
  9

300
=
301
=
302
=
303
=
304
=
305
=
306
=
307
=
308
=
309
=
 40
15.76158362268518
 41
2452479.723113426
 42
2458554.388715278
  1

 90
        0
  0
DICTIONARY
  5
1E615
102
{ACAD_REACTORS
330
1E591
102
}
330
1E591
100
AcDbDictionary
281
     1
  0
DICTIONARY
  5
9DDDC
102
{ACAD_REACTORS
330
1E591
102
}
330
1E591
100
AcDbDictionary
281
     1
1001
ACAD
1000
<All
  0
XRECORD
  5
88700
102
{ACAD_REACTORS
330
886FF
102
}
330
886FF
100
AcDbXrecord
280
     1
290
     1
  0
XRECORD
  5
88708
102
{ACAD_REACTORS
330
88707
102
}
330
88707
100
AcDbXrecord
280
     1
290
     1
  0
XRECORD
  5
8870E
102
{ACAD_REACTORS
330
8870D
102
}
330
8870D
100
AcDbXrecord
280
     1
290
     1
  0
XRECORD
  5
88710
102
{ACAD_REACTORS
330
8870F
102
}
330
8870F
100
AcDbXrecord
280
     1
290
     1
  0
XRECORD
  5
88714
102
{ACAD_REACTORS
330
88713
102
}
330
88713
100
AcDbXrecord
280
     1
290
     1
  0
XRECORD
  5
88720
102
{ACAD_REACTORS
330
8871F
102
}
330
8871F
100
AcDbXrecord
280
     1
290
     1
  0
XRECORD
  5
88722
102
{ACAD_REACTORS
330
88721
102
}
330
88721
100
AcDbXrecord
280
     1
290
     1
  0
XRECORD
  5
88724
102
{ACAD_REACTORS
330
88723
102
}
330
88723
100
AcDbXrecord
280
     1
290
     1
  0
XRECORD
  5
9E09A
102
{ACAD_REACTORS
330
9E099
102
}
330
9E099
100
AcDbXrecord
280
     1
102
SHADEPLOT
 70
     0
  0
XRECORD
  5
9E09B
102
{ACAD_REACTORS
330
9DDD7
102
}
330
9DDD7
100
AcDbXrecord
280
     1
102
SHADEPLOT
 70
     0
  0
XRECORD
  5
9DDD8
102
{ACAD_REACTORS
330
9DDD7
102
}
330
9DDD7
100
AcDbXrecord
280
     1
 90
        1
340
88697
  0
XRECORD
  5
9E056
102
{ACAD_REACTORS
330
9E055
102
}
330
9E055
100
AcDbXrecord
280
     1
1004
1800000001000000000000C0000000000000000000000000
  0
ACDBDETAILVIEWSTYLE
  5
9DDEF
102
{ACAD_XDICTIONARY
360
9E0A0
102
}
102
{ACAD_REACTORS
330
9DD71
102
}
330
9DD71
100
AcDbModelDocViewStyle
 70
     0
  3
Imperial24
290
     0
100
AcDbDetailViewStyle
 70
     0
 71
     0
 90
        3
 71
     1
340
F
 40
0.24
340
0
 40
0.24
300

 40
0.36
280
     3
 71
     2
340
14
 90
       25
 71
     3
340
F
 40
0.24
 90
        1
 40
0.75
 90
        1
300
%<\AcVar ViewType \f "%tc1">% %<\AcVar ViewDetailId>%\PSCALE %<\AcVar ViewScale \f "%sn">%
 71
     4
340
14
 90
       25
340
14
 90
       25
280
     0
  0
LAYOUT
  5
741
102
{ACAD_XDICTIONARY
360
9E060
102
}
102
{ACAD_REACTORS
330
73F
102
}
330
73F
100
AcDbPlotSettings
  1

  2
HP DesignJet 750C (D/A1) Color
  4
ANSI_A_(11.00_x_8.50_Inches)
  6

 40
6.349999999999999
 41
19.05
 42
6.349999999999999
 43
19.05
 44
279.4
 45
215.9
 46
0.0
 47
0.0
 48
0.0
 49
0.0
140
0.0
141
0.0
142
1.0
143
111.4740817203579
 70
 11952
 72
     0
 73
     0
 74
     0
  7
monochrome.ctb
 75
     0
147
0.0089706951119686
148
-133623.4608305521
149
109354.6745289352
100
AcDbLayout
  1
Model
 70
     1
 71
     0
 10
0.0
 20
0.0
 11
12.0
 21
9.0
 12
0.0
 22
0.0
 32
0.0
 14
5136.149307372471
 24
-4010.84711005381
 34
0.0
 15
6052.104163962693
 25
-3461.847111061263
 35
0.0
146
0.0
 13
0.0
 23
0.0
 33
0.0
 16
1.0
 26
0.0
 36
0.0
 17
0.0
 27
1.0
 37
0.0
 76
     0
330
18
  0
LAYOUT
  5
9DDD2
102
{ACAD_XDICTIONARY
360
9E097
102
}
102
{ACAD_REACTORS
330
73F
102
}
330
73F
100
AcDbPlotSettings
  1

  2
none_device
  4
ANSI_A_(11.00_x_8.50_Inches)
  6

 40
6.349999999999999
 41
19.05
 42
6.349999999999999
 43
19.05
 44
279.4
 45
215.9
 46
0.0
 47
0.0
 48
0.0
 49
0.0
140
0.0
141
0.0
142
1.0
143
1.0
 70
   688
 72
     0
 73
     0
 74
     5
  7

 75
    16
147
1.0
148
0.0
149
0.0
100
AcDbLayout
  1
Sheet1
 70
     1
 71
     1
 10
0.0
 20
0.0
 11
0.0
 21
0.0
 12
0.0
 22
0.0
 32
0.0
 14
1.049999999999999
 24
0.6999999999999998
 34
0.0
 15
9.449999999999999
 25
6.3
 35
0.0
146
0.0
 13
0.0
 23
0.0
 33
0.0
 16
1.0
 26
0.0
 36
0.0
 17
0.0
 27
1.0
 37
0.0
 76
     0
330
9DDD1
331
9DDD5
  0
MATERIAL
  5
9DDE5
102
{ACAD_XDICTIONARY
360
9E09C
102
}
102
{ACAD_REACTORS
330
9DC9D
102
}
330
9DC9D
100
AcDbMaterial
  1
ByBlock
 72
     0
 43
0.0208333333333333
 43
0.0
 43
0.0
 43
0.0
 43
0.0
 43
0.0208333333333333
 43
0.0
 43
0.0
 43
0.0
 43
0.0
 43
1.0
 43
0.0
 43
0.0
 43
0.0
 43
0.0
 43
1.0
 77
     0
 47
0.0208333333333333
 47
0.0
 47
0.0
 47
0.0
 47
0.0
 47
0.0208333333333333
 47
0.0
 47
0.0
 47
0.0
 47
0.0
 47
1.0
 47
0.0
 47
0.0
 47
0.0
 47
0.0
 47
1.0
171
     0
 49
0.0208333333333333
 49
0.0
 49
0.0
 49
0.0
 49
0.0
 49
0.0208333333333333
 49
0.0
 49
0.0
 49
0.0
 49
0.0
 49
1.0
 49
0.0
 49
0.0
 49
0.0
 49
0.0
 49
1.0
175
     0
142
0.0208333333333333
142
0.0
142
0.0
142
0.0
142
0.0
142
0.0208333333333333
142
0.0
142
0.0
142
0.0
142
0.0
142
1.0
142
0.0
142
0.0
142
0.0
142
0.0
142
1.0
179
     0
144
0.0208333333333333
144
0.0
144
0.0
144
0.0
144
0.0
144
0.0208333333333333
144
0.0
144
0.0
144
0.0
144
0.0
144
1.0
144
0.0
144
0.0
144
0.0
144
0.0
144
1.0
147
0.0208333333333333
147
0.0
147
0.0
147
0.0
147
0.0
147
0.0208333333333333
147
0.0
147
0.0
147
0.0
147
0.0
147
1.0
147
0.0
147
0.0
147
0.0
147
0.0
147
1.0
  0
MATERIAL
  5
9DC9E
102
{ACAD_XDICTIONARY
360
9E092
102
}
102
{ACAD_REACTORS
330
9DC9D
102
}
330
9DC9D
100
AcDbMaterial
  1
ByLayer
 73
     1
 78
     1
172
     1
176
     1
270
     1
274
     1
  0
MATERIAL
  5
9DCA0
102
{ACAD_XDICTIONARY
360
9E094
102
}
102
{ACAD_REACTORS
330
9DC9D
102
}
330
9DC9D
100
AcDbMaterial
  1
Global
 73
     1
 78
     1
172
     1
176
     1
270
     1
274
     1
  0
MLEADERSTYLE
  5
9DCA4
102
{ACAD_REACTORS
330
9DCA3
102
}
330
9DCA3
100
AcDbMLeaderStyle
170
     2
171
     1
172
     0
 90
        2
 40
0.0
 41
0.0
173
     1
 91
-1056964608
340
12
 92
       -2
290
     1
 42
0.09
291
     1
 43
0.36
  3
Standard
 44
0.18
300

342
F
174
     1
178
     6
175
     1
176
     0
 93
-1056964608
 45
0.18
292
     0
297
     0
 46
0.18
 94
-1056964608
 47
1.0
 49
1.0
140
1.0
293
     1
141
0.0
294
     1
177
     0
142
1.0
295
     0
296
     0
143
0.125
1001
ACAD_MLEADERVER
1070
     2
  0
MLINESTYLE
  5
1C
102
{ACAD_REACTORS
330
1B
102
}
330
1B
100
AcDbMlineStyle
  2
STANDARD
 70
     0
  3

 62
   256
 51
90.0
 52
90.0
 71
     2
 49
0.5
 62
   256
  6
BYLAYER
 49
-0.5
 62
   256
  6
BYLAYER
  0
ACDBPLACEHOLDER
  5
73E
102
{ACAD_REACTORS
330
73D
102
}
330
73D
  0
SCALE
  5
88697
102
{ACAD_REACTORS
330
88696
102
}
330
88696
100
AcDbScale
 70
     0
300
1:1
140
1.0
141
1.0
290
     1
  0
SCALE
  5
88698
102
{ACAD_REACTORS
330
88696
102
}
330
88696
100
AcDbScale
 70
     0
300
1/128" = 1'-0"
140
0.0078125
141
12.0
290
     0
  0
SCALE
  5
88699
102
{ACAD_REACTORS
330
88696
102
}
330
88696
100
AcDbScale
 70
     0
300
1/64" = 1'-0"
140
0.015625
141
12.0
290
     0
  0
SCALE
  5
8869A
102
{ACAD_REACTORS
330
88696
102
}
330
88696
100
AcDbScale
 70
     0
300
1/32" = 1'-0"
140
0.03125
141
12.0
290
     0
  0
SCALE
  5
8869B
102
{ACAD_REACTORS
330
88696
102
}
330
88696
100
AcDbScale
 70
     0
300
1/16" = 1'-0"
140
0.0625
141
12.0
290
     0
  0
SCALE
  5
8869C
102
{ACAD_REACTORS
330
88696
102
}
330
88696
100
AcDbScale
 70
     0
300
3/32" = 1'-0"
140
0.09375
141
12.0
290
     0
  0
SCALE
  5
8869D
102
{ACAD_REACTORS
330
88696
102
}
330
88696
100
AcDbScale
 70
     0
300
1/8" = 1'-0"
140
0.125
141
12.0
290
     0
  0
SCALE
  5
8869E
102
{ACAD_REACTORS
330
88696
102
}
330
88696
100
AcDbScale
 70
     0
300
3/16" = 1'-0"
140
0.1875
141
12.0
290
     0
  0
SCALE
  5
8869F
102
{ACAD_REACTORS
330
88696
102
}
330
88696
100
AcDbScale
 70
     0
300
1/4" = 1'-0"
140
0.25
141
12.0
290
     0
  0
SCALE
  5
886A0
102
{ACAD_REACTORS
330
88696
102
}
330
88696
100
AcDbScale
 70
     0
300
3/8" = 1'-0"
140
0.375
141
12.0
290
     0
  0
SCALE
  5
886A1
102
{ACAD_REACTORS
330
88696
102
}
330
88696
100
AcDbScale
 70
     0
300
1/2" = 1'-0"
140
0.5
141
12.0
290
     0
  0
SCALE
  5
886A2
102
{ACAD_REACTORS
330
88696
102
}
330
88696
100
AcDbScale
 70
     0
300
3/4" = 1'-0"
140
0.75
141
12.0
290
     0
  0
SCALE
  5
886A3
102
{ACAD_REACTORS
330
88696
102
}
330
88696
100
AcDbScale
 70
     0
300
1" = 1'-0"
140
1.0
141
12.0
290
     0
  0
SCALE
  5
886A4
102
{ACAD_REACTORS
330
88696
102
}
330
88696
100
AcDbScale
 70
     0
300
1-1/2" = 1'-0"
140
1.5
141
12.0
290
     0
  0
SCALE
  5
886A5
102
{ACAD_REACTORS
330
88696
102
}
330
88696
100
AcDbScale
 70
     0
300
3" = 1'-0"
140
3.0
141
12.0
290
     0
  0
SCALE
  5
886A6
102
{ACAD_REACTORS
330
88696
102
}
330
88696
100
AcDbScale
 70
     0
300
6" = 1'-0"
140
6.0
141
12.0
290
     0
  0
SCALE
  5
886A7
102
{ACAD_REACTORS
330
88696
102
}
330
88696
100
AcDbScale
 70
     0
300
1'-0" = 1'-0"
140
12.0
141
12.0
290
     0
  0
ACDBSECTIONVIEWSTYLE
  5
9DDEE
102
{ACAD_XDICTIONARY
360
9E09E
102
}
102
{ACAD_REACTORS
330
9DD72
102
}
330
9DD72
100
AcDbModelDocViewStyle
 70
     0
  3
Imperial24
290
     0
100
AcDbSectionViewStyle
 70
     0
 71
     0
 90
       78
 71
     1
340
F
 40
0.24
340
0
340
0
 40
0.24
300
I, O, Q, S, X, Z
 40
0.48
 90
        3
 40
0.18
 90
        1
 71
     2
340
14
 90
       25
340
14
 90
       50
 40
0.24
 40
0.0
 40
0.24
 71
     3
340
F
 40
0.24
 90
        1
 40
0.75
 90
        1
300
%<\AcVar ViewType \f "%tc1">% %<\AcVar ViewSectionStartId>%-%<\AcVar ViewSectionEndId>%\PSCALE %<\AcVar ViewScale \f "%sn">%
 71
     4
300
ANSI31
 40
1.0
 90
        0
290
     0
290
     0
 90
        6
 40
0.0
 40
1.570796326794896
 40
0.2617993877991494
 40
1.308996938995747
 40
-0.2617993877991494
 40
1.832595714594046
  0
TABLESTYLE
  5
9DCA2
102
{ACAD_XDICTIONARY
360
9E051
102
}
102
{ACAD_REACTORS
330
9DCA1
102
}
330
9DCA1
100
AcDbTableStyle
  3
Standard
 70
     0
 71
     0
 40
0.06
 41
0.06
280
     0
281
     0
  7
STANDARD
140
0.18
170
     2
 62
     0
 63
     7
283
     0
274
    -2
284
     1
 64
     0
275
    -2
285
     1
 65
     0
276
    -2
286
     1
 66
     0
277
    -2
287
     1
 67
     0
278
    -2
288
     1
 68
     0
279
    -2
289
     1
 69
     0
  7
STANDARD
140
0.25
170
     5
 62
     0
 63
     7
283
     0
274
    -2
284
     1
 64
     0
275
    -2
285
     1
 65
     0
276
    -2
286
     1
 66
     0
277
    -2
287
     1
 67
     0
278
    -2
288
     1
 68
     0
279
    -2
289
     1
 69
     0
  7
STANDARD
140
0.18
170
     5
 62
     0
 63
     7
283
     0
274
    -2
284
     1
 64
     0
275
    -2
285
     1
 65
     0
276
    -2
286
     1
 66
     0
277
    -2
287
     1
 67
     0
278
    -2
288
     1
 68
     0
279
    -2
289
     1
 69
     0
  0
VISUALSTYLE
  5
9DC89
102
{ACAD_XDICTIONARY
360
9E06A
102
}
102
{ACAD_REACTORS
330
9DC84
102
}
330
9DC84
100
AcDbVisualStyle
  2
2dWireframe
 70
     4
 71
     0
 72
     2
 73
     0
 90
        0
 40
-0.6
 41
-30.0
 62
     5
 63
     7
 74
     1
 91
        4
 64
     7
 65
   257
 75
     1
175
     1
 42
1.0
 92
        0
 66
   257
 43
1.0
 76
     1
 77
     6
 78
     2
 67
     7
 79
     5
170
     0
171
     0
290
     0
174
     0
 93
        1
 44
0.0
173
     0
291
     0
 45
0.0
1001
ACAD
1000
AcDbSavedByObjectVersion
1070
     0
  0
VISUALSTYLE
  5
9DC8C
102
{ACAD_XDICTIONARY
360
9E070
102
}
102
{ACAD_REACTORS
330
9DC84
102
}
330
9DC84
100
AcDbVisualStyle
  2
Basic
 70
     7
 71
     1
 72
     0
 73
     1
 90
        0
 40
-0.6
 41
-30.0
 62
     5
 63
     7
 74
     0
 91
        4
 64
     7
 65
   257
 75
     1
175
     1
 42
1.0
 92
        8
 66
     7
 43
1.0
 76
     1
 77
     6
 78
     2
 67
     7
 79
     5
170
     0
171
     0
290
     0
174
     0
 93
        1
 44
0.0
173
     0
291
     1
 45
0.0
1001
ACAD
1000
AcDbSavedByObjectVersion
1070
     0
  0
VISUALSTYLE
  5
9DC90
102
{ACAD_XDICTIONARY
360
9E078
102
}
102
{ACAD_REACTORS
330
9DC84
102
}
330
9DC84
100
AcDbVisualStyle
  2
Brighten
 70
    12
 71
     2
 72
     2
 73
     0
 90
        0
 40
-0.6
 41
-30.0
 62
     5
 63
     7
 74
     1
 91
        4
 64
     7
 65
   257
 75
     1
175
     1
 42
1.0
 92
        8
 66
     7
 43
1.0
 76
     1
 77
     6
 78
     2
 67
     7
 79
     5
170
     0
171
     0
290
     0
174
     0
 93
        1
 44
50.0
173
     0
291
     1
 45
0.0
1001
ACAD
1000
AcDbSavedByObjectVersion
1070
     0
  0
VISUALSTYLE
  5
9DC94
102
{ACAD_XDICTIONARY
360
9E080
102
}
102
{ACAD_REACTORS
330
9DC84
102
}
330
9DC84
100
AcDbVisualStyle
  2
ColorChange
 70
    16
 71
     2
 72
     2
 73
     3
 90
        0
 40
-0.6
 41
-30.0
 62
     5
 63
     8
 74
     1
 91
        4
 64
     7
 65
   257
 75
     1
175
     1
 42
1.0
 92
        8
 66
     8
 43
1.0
 76
     1
 77
     6
 78
     2
 67
     7
 79
     5
170
     0
171
     0
290
     0
174
     0
 93
        1
 44
0.0
173
     0
291
     1
 45
0.0
1001
ACAD
1000
AcDbSavedByObjectVersion
1070
     0
  0
VISUALSTYLE
  5
9DC8E
102
{ACAD_XDICTIONARY
360
9E074
102
}
102
{ACAD_REACTORS
330
9DC84
102
}
330
9DC84
100
AcDbVisualStyle
  2
Conceptual
 70
     9
 71
     3
 72
     2
 73
     0
 90
        0
 40
-0.6
 41
-30.0
 62
     5
 63
     7
 74
     2
 91
        2
 64
     7
 65
   257
 75
     1
175
     1
 42
179.0
 92
        8
 66
     7
 43
1.0
 76
     1
 77
     6
 78
     2
 67
     7
 79
     3
170
     0
171
     0
290
     0
174
     0
 93
        1
 44
0.0
173
     0
291
     0
 45
0.0
1001
ACAD
1000
AcDbSavedByObjectVersion
1070
     0
  0
VISUALSTYLE
  5
9DC8F
102
{ACAD_XDICTIONARY
360
9E076
102
}
102
{ACAD_REACTORS
330
9DC84
102
}
330
9DC84
100
AcDbVisualStyle
  2
Dim
 70
    11
 71
     2
 72
     2
 73
     0
 90
        0
 40
-0.6
 41
-30.0
 62
     5
 63
     7
 74
     1
 91
        4
 64
     7
 65
   257
 75
     1
175
     1
 42
1.0
 92
        8
 66
     7
 43
1.0
 76
     1
 77
     6
 78
     2
 67
     7
 79
     5
170
     0
171
     0
290
     0
174
     0
 93
        1
 44
-50.0
173
     0
291
     1
 45
0.0
1001
ACAD
1000
AcDbSavedByObjectVersion
1070
     0
  0
VISUALSTYLE
  5
9DC97
102
{ACAD_XDICTIONARY
360
9E086
102
}
102
{ACAD_REACTORS
330
9DC84
102
}
330
9DC84
100
AcDbVisualStyle
  2
EdgeColorOff
 70
    22
 71
     2
 72
     2
 73
     0
 90
        0
 40
-0.6
 41
-30.0
 62
     5
 63
     7
 74
     1
 91
        4
 64
     7
 65
   257
 75
     1
175
     1
 42
1.0
 92
        8
 66
     7
 43
1.0
 76
     1
 77
     6
 78
     2
 67
     7
 79
     5
170
     0
171
     0
290
     0
174
     0
 93
        1
 44
0.0
173
     0
291
     1
 45
0.0
1001
ACAD
1000
AcDbSavedByObjectVersion
1070
     0
  0
VISUALSTYLE
  5
9DC93
102
{ACAD_XDICTIONARY
360
9E07E
102
}
102
{ACAD_REACTORS
330
9DC84
102
}
330
9DC84
100
AcDbVisualStyle
  2
Facepattern
 70
    15
 71
     2
 72
     2
 73
     0
 90
        0
 40
-0.6
 41
-30.0
 62
     5
 63
     7
 74
     1
 91
        4
 64
     7
 65
   257
 75
     1
175
     1
 42
1.0
 92
        8
 66
     7
 43
1.0
 76
     1
 77
     6
 78
     2
 67
     7
 79
     5
170
     0
171
     0
290
     0
174
     0
 93
        1
 44
0.0
173
     0
291
     1
 45
0.0
1001
ACAD
1000
AcDbSavedByObjectVersion
1070
     0
  0
VISUALSTYLE
  5
9DC85
102
{ACAD_XDICTIONARY
360
9E062
102
}
102
{ACAD_REACTORS
330
9DC84
102
}
330
9DC84
100
AcDbVisualStyle
  2
Flat
 70
     0
 71
     2
 72
     1
 73
     1
 90
        2
 40
-0.6
 41
30.0
 62
     5
 63
     7
 74
     0
 91
        0
 64
     7
 65
   257
 75
     1
175
     1
 42
1.0
 92
        8
 66
     7
 43
1.0
 76
     1
 77
     6
 78
     2
 67
     7
 79
     5
170
     0
171
     0
290
     0
174
     0
 93
       13
 44
0.0
173
     0
291
     1
 45
0.0
1001
ACAD
1000
AcDbSavedByObjectVersion
1070
     0
  0
VISUALSTYLE
  5
9DC86
102
{ACAD_XDICTIONARY
360
9E064
102
}
102
{ACAD_REACTORS
330
9DC84
102
}
330
9DC84
100
AcDbVisualStyle
  2
FlatWithEdges
 70
     1
 71
     2
 72
     1
 73
     1
 90
        2
 40
-0.6
 41
30.0
 62
     5
 63
     7
 74
     1
 91
        0
 64
     7
 65
   257
 75
     1
175
     1
 42
1.0
 92
        0
 66
   257
 43
1.0
 76
     1
 77
     6
 78
     2
 67
     7
 79
     5
170
     0
171
     0
290
     0
174
     0
 93
       13
 44
0.0
173
     0
291
     1
 45
0.0
1001
ACAD
1000
AcDbSavedByObjectVersion
1070
     0
  0
VISUALSTYLE
  5
9DC87
102
{ACAD_XDICTIONARY
360
9E066
102
}
102
{ACAD_REACTORS
330
9DC84
102
}
330
9DC84
100
AcDbVisualStyle
  2
Gouraud
 70
     2
 71
     2
 72
     2
 73
     1
 90
        2
 40
-0.6
 41
30.0
 62
     5
 63
     7
 74
     0
 91
        0
 64
     7
 65
   257
 75
     1
175
     1
 42
1.0
 92
        0
 66
     7
 43
1.0
 76
     1
 77
     6
 78
     2
 67
     7
 79
     5
170
     0
171
     0
290
     0
174
     0
 93
       13
 44
0.0
173
     0
291
     1
 45
0.0
1001
ACAD
1000
AcDbSavedByObjectVersion
1070
     0
  0
VISUALSTYLE
  5
9DC88
102
{ACAD_XDICTIONARY
360
9E068
102
}
102
{ACAD_REACTORS
330
9DC84
102
}
330
9DC84
100
AcDbVisualStyle
  2
GouraudWithEdges
 70
     3
 71
     2
 72
     2
 73
     1
 90
        2
 40
-0.6
 41
30.0
 62
     5
 63
     7
 74
     1
 91
        0
 64
     7
 65
   257
 75
     1
175
     1
 42
1.0
 92
        0
 66
   257
 43
1.0
 76
     1
 77
     6
 78
     2
 67
     7
 79
     5
170
     0
171
     0
290
     0
174
     0
 93
       13
 44
0.0
173
     0
291
     1
 45
0.0
1001
ACAD
1000
AcDbSavedByObjectVersion
1070
     0
  0
VISUALSTYLE
  5
9DC8B
102
{ACAD_XDICTIONARY
360
9E06E
102
}
102
{ACAD_REACTORS
330
9DC84
102
}
330
9DC84
100
AcDbVisualStyle
  2
Hidden
 70
     6
 71
     1
 72
     2
 73
     2
 90
        0
 40
-0.6
 41
-30.0
 62
     5
 63
     7
 74
     2
 91
        2
 64
     7
 65
   257
 75
     2
175
     1
 42
40.0
 92
        0
 66
   257
 43
1.0
 76
     1
 77
     6
 78
     2
 67
     7
 79
     3
170
     0
171
     0
290
     0
174
     0
 93
        1
 44
0.0
173
     0
291
     0
 45
0.0
1001
ACAD
1000
AcDbSavedByObjectVersion
1070
     0
  0
VISUALSTYLE
  5
9DC95
102
{ACAD_XDICTIONARY
360
9E082
102
}
102
{ACAD_REACTORS
330
9DC84
102
}
330
9DC84
100
AcDbVisualStyle
  2
JitterOff
 70
    20
 71
     2
 72
     2
 73
     0
 90
        0
 40
-0.6
 41
-30.0
 62
     5
 63
     7
 74
     1
 91
        4
 64
     7
 65
   257
 75
     1
175
     1
 42
1.0
 92
       10
 66
     7
 43
1.0
 76
     1
 77
     6
 78
     2
 67
     7
 79
     5
170
     0
171
     0
290
     0
174
     0
 93
        1
 44
0.0
173
     0
291
     1
 45
0.0
1001
ACAD
1000
AcDbSavedByObjectVersion
1070
     0
  0
VISUALSTYLE
  5
9DC92
102
{ACAD_XDICTIONARY
360
9E07C
102
}
102
{ACAD_REACTORS
330
9DC84
102
}
330
9DC84
100
AcDbVisualStyle
  2
Linepattern
 70
    14
 71
     2
 72
     2
 73
     0
 90
        0
 40
-0.6
 41
-30.0
 62
     5
 63
     7
 74
     1
 91
        4
 64
     7
 65
   257
 75
     7
175
     7
 42
1.0
 92
        8
 66
     7
 43
1.0
 76
     1
 77
     6
 78
     2
 67
     7
 79
     5
170
     0
171
     0
290
     0
174
     0
 93
        1
 44
0.0
173
     0
291
     1
 45
0.0
1001
ACAD
1000
AcDbSavedByObjectVersion
1070
     0
  0
VISUALSTYLE
  5
9DC96
102
{ACAD_XDICTIONARY
360
9E084
102
}
102
{ACAD_REACTORS
330
9DC84
102
}
330
9DC84
100
AcDbVisualStyle
  2
OverhangOff
 70
    21
 71
     2
 72
     2
 73
     0
 90
        0
 40
-0.6
 41
-30.0
 62
     5
 63
     7
 74
     1
 91
        4
 64
     7
 65
   257
 75
     1
175
     1
 42
1.0
 92
        9
 66
     7
 43
1.0
 76
     1
 77
     6
 78
     2
 67
     7
 79
     5
170
     0
171
     0
290
     0
174
     0
 93
        1
 44
0.0
173
     0
291
     1
 45
0.0
1001
ACAD
1000
AcDbSavedByObjectVersion
1070
     0
  0
VISUALSTYLE
  5
9DC8D
102
{ACAD_XDICTIONARY
360
9E072
102
}
102
{ACAD_REACTORS
330
9DC84
102
}
330
9DC84
100
AcDbVisualStyle
  2
Realistic
 70
     8
 71
     2
 72
     2
 73
     0
 90
        2
 40
-0.6
 41
30.0
 62
     5
 63
     7
 74
     0
 91
        0
 64
     7
 65
   257
 75
     1
175
     1
 42
1.0
 92
        8
 66
   257
 43
1.0
 76
     1
 77
     6
 78
     2
 67
     7
 79
     3
170
     0
171
     0
290
     0
174
     0
 93
       13
 44
0.0
173
     0
291
     0
 45
0.0
1001
ACAD
1000
AcDbSavedByObjectVersion
1070
     0
  0
VISUALSTYLE
  5
9DC9C
102
{ACAD_XDICTIONARY
360
9E090
102
}
102
{ACAD_REACTORS
330
9DC84
102
}
330
9DC84
100
AcDbVisualStyle
  2
Shaded
 70
    27
 71
     2
 72
     2
 73
     1
 90
        2
 40
-0.6
 41
30.0
 62
     5
 63
     7
 74
     0
 91
        4
 64
     7
 65
   257
 75
     1
175
     1
 42
1.0
 92
        8
 66
   257
 43
1.0
 76
     1
 77
     6
 78
     2
 67
     8
 79
     3
170
     0
171
     0
290
     0
174
     0
 93
        5
 44
0.0
173
     0
291
     0
 45
0.0
1001
ACAD
1000
AcDbSavedByObjectVersion
1070
     0
  0
VISUALSTYLE
  5
9DC9B
102
{ACAD_XDICTIONARY
360
9E08E
102
}
102
{ACAD_REACTORS
330
9DC84
102
}
330
9DC84
100
AcDbVisualStyle
  2
Shaded with edges
 70
    26
 71
     2
 72
     2
 73
     1
 90
        2
 40
-0.6
 41
30.0
 62
     5
 63
     7
 74
     1
 91
        2
 64
     7
 65
   257
 75
     2
175
     1
 42
1.0
 92
        8
 66
   257
 43
1.0
 76
     1
 77
     6
 78
     2
 67
     7
 79
     3
170
     0
171
     0
290
     0
174
     0
 93
        5
 44
0.0
173
     0
291
     0
 45
0.0
1001
ACAD
1000
AcDbSavedByObjectVersion
1070
     0
  0
VISUALSTYLE
  5
9DC98
102
{ACAD_XDICTIONARY
360
9E088
102
}
102
{ACAD_REACTORS
330
9DC84
102
}
330
9DC84
100
AcDbVisualStyle
  2
Shades of Gray
 70
    23
 71
     2
 72
     2
 73
     3
 90
        0
 40
-0.6
 41
-30.0
 62
     5
 63
     7
 74
     2
 91
        2
 64
     7
 65
     7
 75
     1
175
     1
 42
40.0
 92
        8
 66
     7
 43
1.0
 76
     1
 77
     6
 78
     2
 67
     7
 79
     3
170
     0
171
     0
290
     0
174
     0
 93
        1
 44
0.0
173
     0
291
     0
 45
0.0
1001
ACAD
1000
AcDbSavedByObjectVersion
1070
     0
  0
VISUALSTYLE
  5
9DC99
102
{ACAD_XDICTIONARY
360
9E08A
102
}
102
{ACAD_REACTORS
330
9DC84
102
}
330
9DC84
100
AcDbVisualStyle
  2
Sketchy
 70
    24
 71
     1
 72
     2
 73
     2
 90
        0
 40
-0.6
 41
-30.0
 62
     5
 63
     7
 74
     2
 91
        2
 64
     7
 65
     7
 75
     1
175
     1
 42
40.0
 92
       11
 66
     7
 43
1.0
 76
     1
 77
     6
 78
     2
 67
     7
 79
     6
170
     0
171
     0
290
     0
174
     0
 93
        1
 44
0.0
173
     0
291
     0
 45
0.0
1001
ACAD
1000
AcDbSavedByObjectVersion
1070
     0
  0
VISUALSTYLE
  5
9DC91
102
{ACAD_XDICTIONARY
360
9E07A
102
}
102
{ACAD_REACTORS
330
9DC84
102
}
330
9DC84
100
AcDbVisualStyle
  2
Thicken
 70
    13
 71
     2
 72
     2
 73
     0
 90
        0
 40
-0.6
 41
-30.0
 62
     5
 63
     7
 74
     1
 91
        4
 64
     7
 65
   257
 75
     1
175
     1
 42
1.0
 92
       12
 66
     7
 43
1.0
 76
     1
 77
     6
 78
     2
 67
     7
 79
     5
170
     0
171
     0
290
     0
174
     0
 93
        1
 44
0.0
173
     0
291
     1
 45
0.0
1001
ACAD
1000
AcDbSavedByObjectVersion
1070
     0
  0
VISUALSTYLE
  5
9DC8A
102
{ACAD_XDICTIONARY
360
9E06C
102
}
102
{ACAD_REACTORS
330
9DC84
102
}
330
9DC84
100
AcDbVisualStyle
  2
Wireframe
 70
     5
 71
     0
 72
     2
 73
     0
 90
        0
 40
-0.6
 41
-30.0
 62
     5
 63
     7
 74
     1
 91
        4
 64
     7
 65
   257
 75
     1
175
     1
 42
1.0
 92
        0
 66
   257
 43
1.0
 76
     1
 77
     6
 78
     2
 67
     7
 79
     3
170
     0
171
     0
290
     0
174
     0
 93
        1
 44
0.0
173
     0
291
     0
 45
0.0
1001
ACAD
1000
AcDbSavedByObjectVersion
1070
     0
  0
VISUALSTYLE
  5
9DC9A
102
{ACAD_XDICTIONARY
360
9E08C
102
}
102
{ACAD_REACTORS
330
9DC84
102
}
330
9DC84
100
AcDbVisualStyle
  2
X-Ray
 70
    25
 71
     2
 72
     2
 73
     1
 90
        1
 40
0.5
 41
-30.0
 62
     5
 63
     7
 74
     1
 91
        0
 64
     7
 65
   257
 75
     1
175
     1
 42
1.0
 92
        8
 66
     7
 43
1.0
 76
     1
 77
     6
 78
     2
 67
     7
 79
     3
170
     0
171
     0
290
     0
174
     0
 93
       13
 44
0.0
173
     0
291
     0
 45
0.0
1001
ACAD
1000
AcDbSavedByObjectVersion
1070
     0
  0
DICTIONARYVAR
  5
9E047
102
{ACAD_REACTORS
330
11AC
102
}
330
11AC
100
DictionaryVariables
280
     0
  1
1:1
  0
DICTIONARYVAR
  5
9DD6F
102
{ACAD_REACTORS
330
11AC
102
}
330
11AC
100
DictionaryVariables
280
     0
  1
STANDARD
  0
DICTIONARYVAR
  5
9DD6E
102
{ACAD_REACTORS
330
11AC
102
}
330
11AC
100
DictionaryVariables
280
     0
  1
STANDARD
  0
DICTIONARYVAR
  5
9DE49
102
{ACAD_REACTORS
330
11AC
102
}
330
11AC
100
DictionaryVariables
280
     0
  1
Imperial24
  0
DICTIONARYVAR
  5
9DE4A
102
{ACAD_REACTORS
330
11AC
102
}
330
11AC
100
DictionaryVariables
280
     0
  1
Imperial24
  0
DICTIONARYVAR
  5
9DE4F
102
{ACAD_REACTORS
330
11AC
102
}
330
11AC
100
DictionaryVariables
280
     0
  1
2
  0
DICTIONARYVAR
  5
11AD
102
{ACAD_REACTORS
330
11AC
102
}
330
11AC
100
DictionaryVariables
280
     0
  1
1
  0
DICTIONARYVAR
  5
9DE4E
102
{ACAD_REACTORS
330
11AC
102
}
330
11AC
100
DictionaryVariables
280
     0
  1
1
  0
DICTIONARYVAR
  5
91EE9
102
{ACAD_REACTORS
330
11AC
102
}
330
11AC
100
DictionaryVariables
280
     0
  1
ByLayer
  0
DICTIONARYVAR
  5
88912
102
{ACAD_REACTORS
330
11AC
102
}
330
11AC
100
DictionaryVariables
280
     0
  1
0
  0
DICTIONARYVAR
  5
9DE4C
102
{ACAD_REACTORS
330
11AC
102
}
330
11AC
100
DictionaryVariables
280
     0
  1
0
  0
DICTIONARYVAR
  5
9DE4D
102
{ACAD_REACTORS
330
11AC
102
}
330
11AC
100
DictionaryVariables
280
     0
  1
0
  0
DICTIONARYVAR
  5
9DE4B
102
{ACAD_REACTORS
330
11AC
102
}
330
11AC
100
DictionaryVariables
280
     0
  1
2
  0
DICTIONARYVAR
  5
9E042
102
{ACAD_REACTORS
330
11AC
102
}
330
11AC
100
DictionaryVariables
280
     0
  1
1.570796
  0
DICTIONARYVAR
  5
9E043
102
{ACAD_REACTORS
330
11AC
102
}
330
11AC
100
DictionaryVariables
280
     0
  1
1.570796
  0
DICTIONARYVAR
  5
9DD70
102
{ACAD_REACTORS
330
11AC
102
}
330
11AC
100
DictionaryVariables
280
     0
  1
0
  0
DICTIONARYVAR
  5
AD08
102
{ACAD_REACTORS
330
11AC
102
}
330
11AC
100
DictionaryVariables
280
     0
  1
96
  0
DICTIONARYVAR
  5
9E044
102
{ACAD_REACTORS
330
11AC
102
}
330
11AC
100
DictionaryVariables
280
     0
  1
2
  0
DICTIONARY
  5
9E05F
102
{ACAD_REACTORS
330
9E05D
102
}
330
9E05D
100
AcDbDictionary
281
     1
  0
DICTIONARY
  5
9E05E
102
{ACAD_REACTORS
330
9E05D
102
}
330
9E05D
100
AcDbDictionary
281
     1
  3
2948126243952
350
9E057
  3
2948126243968
350
9E058
  3
2948126243984
350
9E059
  3
2948126244000
350
9E05A
  3
2948126244016
350
9E05B
  3
2948126244032
350
9E05C
  0
DICTIONARY
  5
9E0A0
330
9DDEF
100
AcDbDictionary
280
     1
281
     1
  3
ACAD_XREC_ROUNDTRIP
360
9E0A1
  0
DICTIONARY
  5
9E060
330
741
100
AcDbDictionary
280
     1
281
     1
  3
ACAD_XREC_ROUNDTRIP
360
9E061
  0
DICTIONARY
  5
9E097
330
9DDD2
100
AcDbDictionary
280
     1
281
     1
  3
ACAD_XREC_ROUNDTRIP
360
9E098
  0
DICTIONARY
  5
9E09C
330
9DDE5
100
AcDbDictionary
280
     1
281
     1
  3
ACAD_XREC_ROUNDTRIP
360
9E09D
  0
DICTIONARY
  5
9E092
330
9DC9E
100
AcDbDictionary
280
     1
281
     1
  3
ACAD_XREC_ROUNDTRIP
360
9E093
  0
DICTIONARY
  5
9E094
330
9DCA0
100
AcDbDictionary
280
     1
281
     1
  3
ACAD_XREC_ROUNDTRIP
360
9E095
  0
DICTIONARY
  5
9E09E
330
9DDEE
100
AcDbDictionary
280
     1
281
     1
  3
ACAD_XREC_ROUNDTRIP
360
9E09F
  0
DICTIONARY
  5
9E051
330
9DCA2
100
AcDbDictionary
280
     1
281
     1
  3
ACAD_ROUNDTRIP_2008_TABLESTYLE_CELLSTYLEMAP
360
9E052
  3
ACAD_XREC_ROUNDTRIP
360
9E096
  0
DICTIONARY
  5
9E06A
330
9DC89
100
AcDbDictionary
280
     1
281
     1
  3
ACAD_XREC_ROUNDTRIP
360
9E06B
  0
DICTIONARY
  5
9E070
330
9DC8C
100
AcDbDictionary
280
     1
281
     1
  3
ACAD_XREC_ROUNDTRIP
360
9E071
  0
DICTIONARY
  5
9E078
330
9DC90
100
AcDbDictionary
280
     1
281
     1
  3
ACAD_XREC_ROUNDTRIP
360
9E079
  0
DICTIONARY
  5
9E080
330
9DC94
100
AcDbDictionary
280
     1
281
     1
  3
ACAD_XREC_ROUNDTRIP
360
9E081
  0
DICTIONARY
  5
9E074
330
9DC8E
100
AcDbDictionary
280
     1
281
     1
  3
ACAD_XREC_ROUNDTRIP
360
9E075
  0
DICTIONARY
  5
9E076
330
9DC8F
100
AcDbDictionary
280
     1
281
     1
  3
ACAD_XREC_ROUNDTRIP
360
9E077
  0
DICTIONARY
  5
9E086
330
9DC97
100
AcDbDictionary
280
     1
281
     1
  3
ACAD_XREC_ROUNDTRIP
360
9E087
  0
DICTIONARY
  5
9E07E
330
9DC93
100
AcDbDictionary
280
     1
281
     1
  3
ACAD_XREC_ROUNDTRIP
360
9E07F
  0
DICTIONARY
  5
9E062
330
9DC85
100
AcDbDictionary
280
     1
281
     1
  3
ACAD_XREC_ROUNDTRIP
360
9E063
  0
DICTIONARY
  5
9E064
330
9DC86
100
AcDbDictionary
280
     1
281
     1
  3
ACAD_XREC_ROUNDTRIP
360
9E065
  0
DICTIONARY
  5
9E066
330
9DC87
100
AcDbDictionary
280
     1
281
     1
  3
ACAD_XREC_ROUNDTRIP
360
9E067
  0
DICTIONARY
  5
9E068
330
9DC88
100
AcDbDictionary
280
     1
281
     1
  3
ACAD_XREC_ROUNDTRIP
360
9E069
  0
DICTIONARY
  5
9E06E
330
9DC8B
100
AcDbDictionary
280
     1
281
     1
  3
ACAD_XREC_ROUNDTRIP
360
9E06F
  0
DICTIONARY
  5
9E082
330
9DC95
100
AcDbDictionary
280
     1
281
     1
  3
ACAD_XREC_ROUNDTRIP
360
9E083
  0
DICTIONARY
  5
9E07C
330
9DC92
100
AcDbDictionary
280
     1
281
     1
  3
ACAD_XREC_ROUNDTRIP
360
9E07D
  0
DICTIONARY
  5
9E084
330
9DC96
100
AcDbDictionary
280
     1
281
     1
  3
ACAD_XREC_ROUNDTRIP
360
9E085
  0
DICTIONARY
  5
9E072
330
9DC8D
100
AcDbDictionary
280
     1
281
     1
  3
ACAD_XREC_ROUNDTRIP
360
9E073
  0
DICTIONARY
  5
9E090
330
9DC9C
100
AcDbDictionary
280
     1
281
     1
  3
ACAD_XREC_ROUNDTRIP
360
9E091
  0
DICTIONARY
  5
9E08E
330
9DC9B
100
AcDbDictionary
280
     1
281
     1
  3
ACAD_XREC_ROUNDTRIP
360
9E08F
  0
DICTIONARY
  5
9E088
330
9DC98
100
AcDbDictionary
280
     1
281
     1
  3
ACAD_XREC_ROUNDTRIP
360
9E089
  0
DICTIONARY
  5
9E08A
330
9DC99
100
AcDbDictionary
280
     1
281
     1
  3
ACAD_XREC_ROUNDTRIP
360
9E08B
  0
DICTIONARY
  5
9E07A
330
9DC91
100
AcDbDictionary
280
     1
281
     1
  3
ACAD_XREC_ROUNDTRIP
360
9E07B
  0
DICTIONARY
  5
9E06C
330
9DC8A
100
AcDbDictionary
280
     1
281
     1
  3
ACAD_XREC_ROUNDTRIP
360
9E06D
  0
DICTIONARY
  5
9E08C
330
9DC9A
100
AcDbDictionary
280
     1
281
     1
  3
ACAD_XREC_ROUNDTRIP
360
9E08D
  0
XRECORD
  5
9E057
102
{ACAD_REACTORS
330
9E05E
102
}
330
9E05E
100
AcDbXrecord
280
     1
  1
AcDb_Thumbnail_Schema
102
{ATTRRECORD
341
9E059
  2
AcDbDs::TreatedAsObjectData
280
     1
291
     1
102
ATTRRECORD}
102
{ATTRRECORD
341
9E05A
  2
AcDbDs::Legacy
280
     1
291
     1
102
ATTRRECORD}
  2
AcDbDs::ID
280
    10
 91
        8
102
{ATTRRECORD
341
9E05B
  2
AcDs:Indexable
280
     1
291
     1
102
ATTRRECORD}
102
{ATTRRECORD
341
9E05C
  2
AcDbDs::HandleAttribute
280
     7
282
     1
102
ATTRRECORD}
  2
Thumbnail_Data
280
    15
 91
        0
  0
XRECORD
  5
9E058
102
{ACAD_REACTORS
330
9E05E
102
}
330
9E05E
100
AcDbXrecord
280
     1
  1
AcDb3DSolid_ASM_Data
102
{ATTRRECORD
341
9E059
  2
AcDbDs::TreatedAsObjectData
280
     1
291
     1
102
ATTRRECORD}
102
{ATTRRECORD
341
9E05A
  2
AcDbDs::Legacy
280
     1
291
     1
102
ATTRRECORD}
  2
AcDbDs::ID
280
    10
 91
        8
102
{ATTRRECORD
341
9E05B
  2
AcDs:Indexable
280
     1
291
     1
102
ATTRRECORD}
102
{ATTRRECORD
341
9E05C
  2
AcDbDs::HandleAttribute
280
     7
282
     1
102
ATTRRECORD}
  2
ASM_Data
280
    15
 91
        0
  0
XRECORD
  5
9E059
102
{ACAD_REACTORS
330
9E05E
102
}
330
9E05E
100
AcDbXrecord
280
     1
  1
AcDbDs::TreatedAsObjectDataSchema
  2
AcDbDs::TreatedAsObjectData
280
     1
 91
        0
  0
XRECORD
  5
9E05A
102
{ACAD_REACTORS
330
9E05E
102
}
330
9E05E
100
AcDbXrecord
280
     1
  1
AcDbDs::LegacySchema
  2
AcDbDs::Legacy
280
     1
 91
        0
  0
XRECORD
  5
9E05B
102
{ACAD_REACTORS
330
9E05E
102
}
330
9E05E
100
AcDbXrecord
280
     1
  1
AcDbDs::IndexedPropertySchema
  2
AcDs:Indexable
280
     1
 91
        0
  0
XRECORD
  5
9E05C
102
{ACAD_REACTORS
330
9E05E
102
}
330
9E05E
100
AcDbXrecord
280
     1
  1
AcDbDs::HandleAttributeSchema
  2
AcDbDs::HandleAttribute
280
     7
 91
        1
284
     1
  0
XRECORD
  5
9E0A1
102
{ACAD_REACTORS
330
9E0A0
102
}
330
9E0A0
100
AcDbXrecord
280
     1
102
DISPLAYNAME
  1
Imperial24
102
FLAGS
 90
        0
  0
XRECORD
  5
9E061
102
{ACAD_REACTORS
330
9E060
102
}
330
9E060
100
AcDbXrecord
280
     1
102
SHADEPLOT
 70
     0
102
SHADEPLOTRESLEVEL
 70
     2
102
SHADEPLOTCUSTOMDPI
 70
   300
  0
XRECORD
  5
9E098
102
{ACAD_REACTORS
330
9E097
102
}
330
9E097
100
AcDbXrecord
280
     1
102
SHADEPLOT
 70
     0
102
SHADEPLOTRESLEVEL
 70
     2
102
SHADEPLOTCUSTOMDPI
 70
   300
  0
XRECORD
  5
9E09D
102
{ACAD_REACTORS
330
9E09C
102
}
330
9E09C
100
AcDbXrecord
280
     1
102
MATERIAL
148
0.0
149
0.0
149
0.0
 93
        0
 94
      127
282
     0
 72
     0
 77
     0
171
     0
175
     0
179
     0
273
     0
  0
XRECORD
  5
9E093
102
{ACAD_REACTORS
330
9E092
102
}
330
9E092
100
AcDbXrecord
280
     1
102
MATERIAL
148
0.0
149
0.0
149
0.0
 93
        0
 94
      127
282
     0
 72
     1
 77
     1
171
     1
175
     1
179
     1
273
     0
  0
XRECORD
  5
9E095
102
{ACAD_REACTORS
330
9E094
102
}
330
9E094
100
AcDbXrecord
280
     1
102
MATERIAL
148
0.0
149
0.0
149
0.0
 93
        0
 94
      127
282
     0
 72
     1
 77
     1
171
     1
175
     1
179
     1
273
     0
  0
XRECORD
  5
9E09F
102
{ACAD_REACTORS
330
9E09E
102
}
330
9E09E
100
AcDbXrecord
280
     1
102
DISPLAYNAME
  1
Imperial24
102
FLAGS
 90
        0
  0
CELLSTYLEMAP
  5
9E052
102
{ACAD_REACTORS
330
9E051
102
}
330
9E051
100
AcDbCellStyleMap
 90
        3
300
CELLSTYLE
  1
TABLEFORMAT_BEGIN
 90
        5
170
     1
 91
        0
 92
    32768
 62
   257
 93
        1
300
CONTENTFORMAT
  1
CONTENTFORMAT_BEGIN
 90
        0
 91
        0
 92
        4
 93
        0
300

 40
0.0
140
1.0
 94
        5
 62
     0
340
F
144
0.25
309
CONTENTFORMAT_END
171
     1
301
MARGIN
  1
CELLMARGIN_BEGIN
 40
0.06
 40
0.06
 40
0.06
 40
0.06
 40
0.06
 40
0.06
309
CELLMARGIN_END
 94
        6
 95
        1
302
GRIDFORMAT
  1
GRIDFORMAT_BEGIN
 90
        0
 91
        1
 62
     0
 92
       -2
340
12
 93
        0
 40
0.045
309
GRIDFORMAT_END
 95
        2
302
GRIDFORMAT
  1
GRIDFORMAT_BEGIN
 90
        0
 91
        1
 62
     0
 92
       -2
340
12
 93
        0
 40
0.045
309
GRIDFORMAT_END
 95
        4
302
GRIDFORMAT
  1
GRIDFORMAT_BEGIN
 90
        0
 91
        1
 62
     0
 92
       -2
340
12
 93
        0
 40
0.045
309
GRIDFORMAT_END
 95
        8
302
GRIDFORMAT
  1
GRIDFORMAT_BEGIN
 90
        0
 91
        1
 62
     0
 92
       -2
340
12
 93
        0
 40
0.045
309
GRIDFORMAT_END
 95
       16
302
GRIDFORMAT
  1
GRIDFORMAT_BEGIN
 90
        0
 91
        1
 62
     0
 92
       -2
340
12
 93
        0
 40
0.045
309
GRIDFORMAT_END
 95
       32
302
GRIDFORMAT
  1
GRIDFORMAT_BEGIN
 90
        0
 91
        1
 62
     0
 92
       -2
340
12
 93
        0
 40
0.045
309
GRIDFORMAT_END
309
TABLEFORMAT_END
  1
CELLSTYLE_BEGIN
 90
        1
 91
        1
300
_TITLE
309
CELLSTYLE_END
300
CELLSTYLE
  1
TABLEFORMAT_BEGIN
 90
        5
170
     1
 91
        0
 92
        0
 62
   257
 93
        1
300
CONTENTFORMAT
  1
CONTENTFORMAT_BEGIN
 90
        0
 91
        0
 92
        4
 93
        0
300

 40
0.0
140
1.0
 94
        5
 62
     0
340
F
144
0.18
309
CONTENTFORMAT_END
171
     1
301
MARGIN
  1
CELLMARGIN_BEGIN
 40
0.06
 40
0.06
 40
0.06
 40
0.06
 40
0.06
 40
0.06
309
CELLMARGIN_END
 94
        6
 95
        1
302
GRIDFORMAT
  1
GRIDFORMAT_BEGIN
 90
        0
 91
        1
 62
     0
 92
       -2
340
12
 93
        0
 40
0.045
309
GRIDFORMAT_END
 95
        2
302
GRIDFORMAT
  1
GRIDFORMAT_BEGIN
 90
        0
 91
        1
 62
     0
 92
       -2
340
12
 93
        0
 40
0.045
309
GRIDFORMAT_END
 95
        4
302
GRIDFORMAT
  1
GRIDFORMAT_BEGIN
 90
        0
 91
        1
 62
     0
 92
       -2
340
12
 93
        0
 40
0.045
309
GRIDFORMAT_END
 95
        8
302
GRIDFORMAT
  1
GRIDFORMAT_BEGIN
 90
        0
 91
        1
 62
     0
 92
       -2
340
12
 93
        0
 40
0.045
309
GRIDFORMAT_END
 95
       16
302
GRIDFORMAT
  1
GRIDFORMAT_BEGIN
 90
        0
 91
        1
 62
     0
 92
       -2
340
12
 93
        0
 40
0.045
309
GRIDFORMAT_END
 95
       32
302
GRIDFORMAT
  1
GRIDFORMAT_BEGIN
 90
        0
 91
        1
 62
     0
 92
       -2
340
12
 93
        0
 40
0.045
309
GRIDFORMAT_END
309
TABLEFORMAT_END
  1
CELLSTYLE_BEGIN
 90
        2
 91
        1
300
_HEADER
309
CELLSTYLE_END
300
CELLSTYLE
  1
TABLEFORMAT_BEGIN
 90
        5
170
     1
 91
        0
 92
        0
 62
   257
 93
        1
300
CONTENTFORMAT
  1
CONTENTFORMAT_BEGIN
 90
        0
 91
        0
 92
        4
 93
        0
300

 40
0.0
140
1.0
 94
        2
 62
     0
340
F
144
0.18
309
CONTENTFORMAT_END
171
     1
301
MARGIN
  1
CELLMARGIN_BEGIN
 40
0.06
 40
0.06
 40
0.06
 40
0.06
 40
0.06
 40
0.06
309
CELLMARGIN_END
 94
        6
 95
        1
302
GRIDFORMAT
  1
GRIDFORMAT_BEGIN
 90
        0
 91
        1
 62
     0
 92
       -2
340
12
 93
        0
 40
0.045
309
GRIDFORMAT_END
 95
        2
302
GRIDFORMAT
  1
GRIDFORMAT_BEGIN
 90
        0
 91
        1
 62
     0
 92
       -2
340
12
 93
        0
 40
0.045
309
GRIDFORMAT_END
 95
        4
302
GRIDFORMAT
  1
GRIDFORMAT_BEGIN
 90
        0
 91
        1
 62
     0
 92
       -2
340
12
 93
        0
 40
0.045
309
GRIDFORMAT_END
 95
        8
302
GRIDFORMAT
  1
GRIDFORMAT_BEGIN
 90
        0
 91
        1
 62
     0
 92
       -2
340
12
 93
        0
 40
0.045
309
GRIDFORMAT_END
 95
       16
302
GRIDFORMAT
  1
GRIDFORMAT_BEGIN
 90
        0
 91
        1
 62
     0
 92
       -2
340
12
 93
        0
 40
0.045
309
GRIDFORMAT_END
 95
       32
302
GRIDFORMAT
  1
GRIDFORMAT_BEGIN
 90
        0
 91
        1
 62
     0
 92
       -2
340
12
 93
        0
 40
0.045
309
GRIDFORMAT_END
309
TABLEFORMAT_END
  1
CELLSTYLE_BEGIN
 90
        3
 91
        2
300
_DATA
309
CELLSTYLE_END
  0
XRECORD
  5
9E096
102
{ACAD_REACTORS
330
9E051
102
}
330
9E051
100
AcDbXrecord
280
     1
102
ACAD_ROUNDTRIP_PRE2007_TABLESTYLE
 90
        4
 91
        0
  1

 92
        4
 93
        0
  2

 94
        4
 95
        0
  3

  0
XRECORD
  5
9E06B
102
{ACAD_REACTORS
330
9E06A
102
}
330
9E06A
100
AcDbXrecord
280
     1
102
RTVSPost2010Prop28
280
     1
102
RTVSPost2010PropOp28
 70
     1
102
RTVSPost2010Prop29
280
     1
102
RTVSPost2010PropOp29
 70
     1
102
RTVSPost2010Prop30
280
     0
102
RTVSPost2010PropOp30
 70
     1
102
RTVSPost2010Prop31
280
     0
102
RTVSPost2010PropOp31
 70
     1
102
RTVSPost2010Prop32
280
     0
102
RTVSPost2010PropOp32
 70
     1
102
RTVSPost2010Prop33
280
     0
102
RTVSPost2010PropOp33
 70
     1
102
RTVSPost2010Prop34
280
     0
102
RTVSPost2010PropOp34
 70
     1
102
RTVSPost2010Prop35
280
     0
102
RTVSPost2010PropOp35
 70
     1
102
RTVSPost2010Prop36
280
     0
102
RTVSPost2010PropOp36
 70
     1
102
RTVSPost2010Prop37
 90
       50
102
RTVSPost2010PropOp37
 70
     1
102
RTVSPost2010Prop38
140
0.0
102
RTVSPost2010PropOp38
 70
     1
102
RTVSPost2010Prop39
140
1.0
102
RTVSPost2010PropOp39
 70
     1
102
RTVSPost2010Prop40
 90
        0
102
RTVSPost2010PropOp40
 70
     1
102
RTVSPost2010Prop41ColorIndex
 90
       18
102
RTVSPost2010Prop41ColorRGB
 90
        0
102
RTVSPost2010PropOp41
 70
     1
102
RTVSPost2010Prop42
 90
       50
102
RTVSPost2010PropOp42
 70
     1
102
RTVSPost2010Prop43
 90
        3
102
RTVSPost2010PropOp43
 70
     1
102
RTVSPost2010Prop44ColorIndex
 90
        5
102
RTVSPost2010Prop44ColorRGB
 90
      255
102
RTVSPost2010PropOp44
 70
     1
102
RTVSPost2010Prop45
280
     0
102
RTVSPost2010PropOp45
 70
     1
102
RTVSPost2010Prop46
 90
       50
102
RTVSPost2010PropOp46
 70
     1
102
RTVSPost2010Prop47
 90
       50
102
RTVSPost2010PropOp47
 70
     1
102
RTVSPost2010Prop48
 90
       50
102
RTVSPost2010PropOp48
 70
     1
102
RTVSPost2010Prop49
280
     0
102
RTVSPost2010PropOp49
 70
     1
102
RTVSPost2010Prop50
 90
       50
102
RTVSPost2010PropOp50
 70
     1
102
RTVSPost2010Prop51ColorIndex
 90
      256
102
RTVSPost2010Prop51ColorRGB
 90
-16777216
102
RTVSPost2010PropOp51
 70
     0
102
RTVSPost2010Prop52
140
1.0
102
RTVSPost2010PropOp52
 70
     0
102
RTVSPost2010Prop53
 90
        2
102
RTVSPost2010PropOp53
 70
     1
102
RTVSPost2010Prop54
  1
strokes_ogs.tif
102
RTVSPost2010PropOp54
 70
     1
102
RTVSPost2010Prop55
280
     0
102
RTVSPost2010PropOp55
 70
     1
102
RTVSPost2010Prop56
140
1.0
102
RTVSPost2010PropOp56
 70
     1
102
RTVSPost2010Prop57
140
1.0
102
RTVSPost2010PropOp57
 70
     1
102
RTVSPropertyOp0
 70
     1
102
RTVSPropertyOp1
 70
     1
102
RTVSPropertyOp2
 70
     1
102
RTVSPropertyOp3
 70
     1
102
RTVSPropertyOp4
 70
     1
102
RTVSPropertyOp5
 70
     1
102
RTVSPropertyOp6
 70
     1
102
RTVSPropertyOp7
 70
     1
102
RTVSPropertyOp8
 70
     1
102
RTVSPropertyOp9
 70
     1
102
RTVSPropertyOp10
 70
     1
102
RTVSPropertyOp11
 70
     1
102
RTVSPropertyOp12
 70
     1
102
RTVSPropertyOp13
 70
     1
102
RTVSPropertyOp14
 70
     1
102
RTVSPropertyOp15
 70
     1
102
RTVSPropertyOp16
 70
     1
102
RTVSPropertyOp17
 70
     1
102
RTVSPropertyOp18
 70
     1
102
RTVSPropertyOp19
 70
     1
102
RTVSPropertyOp20
 70
     1
102
RTVSPropertyOp21
 70
     1
102
RTVSPropertyOp22
 70
     1
102
RTVSPropertyOp23
 70
     1
102
RTVSPropertyOp24
 70
     1
102
RTVSPropertyOp25
 70
     1
102
RTVSPropertyOp26
 70
     1
102
RTVSPropertyOp27
 70
     1
102
RTVSPropertyOp28
 70
     1
102
RTVSPropertyOp29
 70
     1
102
RTVSPropertyOp30
 70
     1
102
RTVSPropertyOp31
 70
     1
102
RTVSPropertyOp32
 70
     1
102
RTVSPropertyOp33
 70
     1
102
RTVSPropertyOp34
 70
     1
102
RTVSPropertyOp35
 70
     1
102
RTVSPropertyOp36
 70
     1
102
RTVSPropertyOp37
 70
     1
102
RTVSPropertyOp38
 70
     1
102
RTVSPropertyOp39
 70
     1
102
RTVSPropertyOp40
 70
     1
102
RTVSPropertyOp41
 70
     1
102
RTVSPropertyOp42
 70
     1
102
RTVSPropertyOp43
 70
     1
102
RTVSPropertyOp44
 70
     1
102
RTVSPropertyOp45
 70
     1
102
RTVSPropertyOp46
 70
     1
102
RTVSPropertyOp47
 70
     1
102
RTVSPropertyOp48
 70
     1
102
RTVSPropertyOp49
 70
     1
102
RTVSPropertyOp50
 70
     1
102
RTVSPropertyOp51
 70
     0
102
RTVSPropertyOp52
 70
     0
102
RTVSPropertyOp53
 70
     1
102
RTVSPropertyOp54
 70
     1
102
RTVSPropertyOp55
 70
     1
102
RTVSPropertyOp56
 70
     1
102
RTVSPropertyOp57
 70
     1
102
RTVSPropertyOp58
 70
     1
102
RTVSPropertyOp59
 70
     1
102
RTVSPropertyOp60
 70
     1
102
RTVSPropertyOp61
 70
     1
102
RTVSPropertyOp62
 70
     1
  0
XRECORD
  5
9E071
102
{ACAD_REACTORS
330
9E070
102
}
330
9E070
100
AcDbXrecord
280
     1
102
RTVSPost2010Prop28
280
     0
102
RTVSPost2010PropOp28
 70
     1
102
RTVSPost2010Prop29
280
     1
102
RTVSPost2010PropOp29
 70
     1
102
RTVSPost2010Prop30
280
     1
102
RTVSPost2010PropOp30
 70
     1
102
RTVSPost2010Prop31
280
     0
102
RTVSPost2010PropOp31
 70
     1
102
RTVSPost2010Prop32
280
     0
102
RTVSPost2010PropOp32
 70
     1
102
RTVSPost2010Prop33
280
     0
102
RTVSPost2010PropOp33
 70
     1
102
RTVSPost2010Prop34
280
     0
102
RTVSPost2010PropOp34
 70
     1
102
RTVSPost2010Prop35
280
     0
102
RTVSPost2010PropOp35
 70
     1
102
RTVSPost2010Prop36
280
     0
102
RTVSPost2010PropOp36
 70
     1
102
RTVSPost2010Prop37
 90
       50
102
RTVSPost2010PropOp37
 70
     1
102
RTVSPost2010Prop38
140
0.0
102
RTVSPost2010PropOp38
 70
     1
102
RTVSPost2010Prop39
140
1.0
102
RTVSPost2010PropOp39
 70
     1
102
RTVSPost2010Prop40
 90
        0
102
RTVSPost2010PropOp40
 70
     1
102
RTVSPost2010Prop41ColorIndex
 90
       18
102
RTVSPost2010Prop41ColorRGB
 90
        0
102
RTVSPost2010PropOp41
 70
     1
102
RTVSPost2010Prop42
 90
       50
102
RTVSPost2010PropOp42
 70
     1
102
RTVSPost2010Prop43
 90
        3
102
RTVSPost2010PropOp43
 70
     1
102
RTVSPost2010Prop44ColorIndex
 90
        5
102
RTVSPost2010Prop44ColorRGB
 90
      255
102
RTVSPost2010PropOp44
 70
     1
102
RTVSPost2010Prop45
280
     0
102
RTVSPost2010PropOp45
 70
     1
102
RTVSPost2010Prop46
 90
       50
102
RTVSPost2010PropOp46
 70
     1
102
RTVSPost2010Prop47
 90
       50
102
RTVSPost2010PropOp47
 70
     1
102
RTVSPost2010Prop48
 90
       50
102
RTVSPost2010PropOp48
 70
     1
102
RTVSPost2010Prop49
280
     0
102
RTVSPost2010PropOp49
 70
     1
102
RTVSPost2010Prop50
 90
       50
102
RTVSPost2010PropOp50
 70
     1
102
RTVSPost2010Prop51ColorIndex
 90
      256
102
RTVSPost2010Prop51ColorRGB
 90
-16777216
102
RTVSPost2010PropOp51
 70
     0
102
RTVSPost2010Prop52
140
1.0
102
RTVSPost2010PropOp52
 70
     0
102
RTVSPost2010Prop53
 90
        2
102
RTVSPost2010PropOp53
 70
     1
102
RTVSPost2010Prop54
  1
strokes_ogs.tif
102
RTVSPost2010PropOp54
 70
     1
102
RTVSPost2010Prop55
280
     0
102
RTVSPost2010PropOp55
 70
     1
102
RTVSPost2010Prop56
140
1.0
102
RTVSPost2010PropOp56
 70
     1
102
RTVSPost2010Prop57
140
1.0
102
RTVSPost2010PropOp57
 70
     1
102
RTVSPropertyOp0
 70
     1
102
RTVSPropertyOp1
 70
     1
102
RTVSPropertyOp2
 70
     1
102
RTVSPropertyOp3
 70
     1
102
RTVSPropertyOp4
 70
     1
102
RTVSPropertyOp5
 70
     1
102
RTVSPropertyOp6
 70
     1
102
RTVSPropertyOp7
 70
     1
102
RTVSPropertyOp8
 70
     1
102
RTVSPropertyOp9
 70
     1
102
RTVSPropertyOp10
 70
     1
102
RTVSPropertyOp11
 70
     1
102
RTVSPropertyOp12
 70
     1
102
RTVSPropertyOp13
 70
     1
102
RTVSPropertyOp14
 70
     1
102
RTVSPropertyOp15
 70
     1
102
RTVSPropertyOp16
 70
     1
102
RTVSPropertyOp17
 70
     1
102
RTVSPropertyOp18
 70
     1
102
RTVSPropertyOp19
 70
     1
102
RTVSPropertyOp20
 70
     1
102
RTVSPropertyOp21
 70
     1
102
RTVSPropertyOp22
 70
     1
102
RTVSPropertyOp23
 70
     1
102
RTVSPropertyOp24
 70
     1
102
RTVSPropertyOp25
 70
     1
102
RTVSPropertyOp26
 70
     1
102
RTVSPropertyOp27
 70
     1
102
RTVSPropertyOp28
 70
     1
102
RTVSPropertyOp29
 70
     1
102
RTVSPropertyOp30
 70
     1
102
RTVSPropertyOp31
 70
     1
102
RTVSPropertyOp32
 70
     1
102
RTVSPropertyOp33
 70
     1
102
RTVSPropertyOp34
 70
     1
102
RTVSPropertyOp35
 70
     1
102
RTVSPropertyOp36
 70
     1
102
RTVSPropertyOp37
 70
     1
102
RTVSPropertyOp38
 70
     1
102
RTVSPropertyOp39
 70
     1
102
RTVSPropertyOp40
 70
     1
102
RTVSPropertyOp41
 70
     1
102
RTVSPropertyOp42
 70
     1
102
RTVSPropertyOp43
 70
     1
102
RTVSPropertyOp44
 70
     1
102
RTVSPropertyOp45
 70
     1
102
RTVSPropertyOp46
 70
     1
102
RTVSPropertyOp47
 70
     1
102
RTVSPropertyOp48
 70
     1
102
RTVSPropertyOp49
 70
     1
102
RTVSPropertyOp50
 70
     1
102
RTVSPropertyOp51
 70
     0
102
RTVSPropertyOp52
 70
     0
102
RTVSPropertyOp53
 70
     1
102
RTVSPropertyOp54
 70
     1
102
RTVSPropertyOp55
 70
     1
102
RTVSPropertyOp56
 70
     1
102
RTVSPropertyOp57
 70
     1
102
RTVSPropertyOp58
 70
     1
102
RTVSPropertyOp59
 70
     1
102
RTVSPropertyOp60
 70
     1
102
RTVSPropertyOp61
 70
     1
102
RTVSPropertyOp62
 70
     1
  0
XRECORD
  5
9E079
102
{ACAD_REACTORS
330
9E078
102
}
330
9E078
100
AcDbXrecord
280
     1
102
RTVSPost2010Prop28
280
     0
102
RTVSPost2010PropOp28
 70
     1
102
RTVSPost2010Prop29
280
     1
102
RTVSPost2010PropOp29
 70
     1
102
RTVSPost2010Prop30
280
     1
102
RTVSPost2010PropOp30
 70
     1
102
RTVSPost2010Prop31
280
     0
102
RTVSPost2010PropOp31
 70
     1
102
RTVSPost2010Prop32
280
     0
102
RTVSPost2010PropOp32
 70
     1
102
RTVSPost2010Prop33
280
     0
102
RTVSPost2010PropOp33
 70
     1
102
RTVSPost2010Prop34
280
     0
102
RTVSPost2010PropOp34
 70
     1
102
RTVSPost2010Prop35
280
     0
102
RTVSPost2010PropOp35
 70
     1
102
RTVSPost2010Prop36
280
     0
102
RTVSPost2010PropOp36
 70
     1
102
RTVSPost2010Prop37
 90
       50
102
RTVSPost2010PropOp37
 70
     1
102
RTVSPost2010Prop38
140
0.0
102
RTVSPost2010PropOp38
 70
     1
102
RTVSPost2010Prop39
140
1.0
102
RTVSPost2010PropOp39
 70
     1
102
RTVSPost2010Prop40
 90
        0
102
RTVSPost2010PropOp40
 70
     1
102
RTVSPost2010Prop41ColorIndex
 90
       18
102
RTVSPost2010Prop41ColorRGB
 90
        0
102
RTVSPost2010PropOp41
 70
     1
102
RTVSPost2010Prop42
 90
       50
102
RTVSPost2010PropOp42
 70
     1
102
RTVSPost2010Prop43
 90
        3
102
RTVSPost2010PropOp43
 70
     1
102
RTVSPost2010Prop44ColorIndex
 90
        5
102
RTVSPost2010Prop44ColorRGB
 90
      255
102
RTVSPost2010PropOp44
 70
     1
102
RTVSPost2010Prop45
280
     0
102
RTVSPost2010PropOp45
 70
     1
102
RTVSPost2010Prop46
 90
       50
102
RTVSPost2010PropOp46
 70
     1
102
RTVSPost2010Prop47
 90
       50
102
RTVSPost2010PropOp47
 70
     1
102
RTVSPost2010Prop48
 90
       50
102
RTVSPost2010PropOp48
 70
     1
102
RTVSPost2010Prop49
280
     0
102
RTVSPost2010PropOp49
 70
     1
102
RTVSPost2010Prop50
 90
       50
102
RTVSPost2010PropOp50
 70
     1
102
RTVSPost2010Prop51ColorIndex
 90
      256
102
RTVSPost2010Prop51ColorRGB
 90
-16777216
102
RTVSPost2010PropOp51
 70
     0
102
RTVSPost2010Prop52
140
1.0
102
RTVSPost2010PropOp52
 70
     0
102
RTVSPost2010Prop53
 90
        2
102
RTVSPost2010PropOp53
 70
     1
102
RTVSPost2010Prop54
  1
strokes_ogs.tif
102
RTVSPost2010PropOp54
 70
     1
102
RTVSPost2010Prop55
280
     0
102
RTVSPost2010PropOp55
 70
     1
102
RTVSPost2010Prop56
140
1.0
102
RTVSPost2010PropOp56
 70
     1
102
RTVSPost2010Prop57
140
1.0
102
RTVSPost2010PropOp57
 70
     1
102
RTVSPropertyOp0
 70
     1
102
RTVSPropertyOp1
 70
     1
102
RTVSPropertyOp2
 70
     1
102
RTVSPropertyOp3
 70
     1
102
RTVSPropertyOp4
 70
     1
102
RTVSPropertyOp5
 70
     1
102
RTVSPropertyOp6
 70
     1
102
RTVSPropertyOp7
 70
     1
102
RTVSPropertyOp8
 70
     1
102
RTVSPropertyOp9
 70
     1
102
RTVSPropertyOp10
 70
     1
102
RTVSPropertyOp11
 70
     1
102
RTVSPropertyOp12
 70
     1
102
RTVSPropertyOp13
 70
     1
102
RTVSPropertyOp14
 70
     1
102
RTVSPropertyOp15
 70
     1
102
RTVSPropertyOp16
 70
     1
102
RTVSPropertyOp17
 70
     1
102
RTVSPropertyOp18
 70
     1
102
RTVSPropertyOp19
 70
     1
102
RTVSPropertyOp20
 70
     1
102
RTVSPropertyOp21
 70
     1
102
RTVSPropertyOp22
 70
     1
102
RTVSPropertyOp23
 70
     1
102
RTVSPropertyOp24
 70
     1
102
RTVSPropertyOp25
 70
     1
102
RTVSPropertyOp26
 70
     1
102
RTVSPropertyOp27
 70
     1
102
RTVSPropertyOp28
 70
     1
102
RTVSPropertyOp29
 70
     1
102
RTVSPropertyOp30
 70
     1
102
RTVSPropertyOp31
 70
     1
102
RTVSPropertyOp32
 70
     1
102
RTVSPropertyOp33
 70
     1
102
RTVSPropertyOp34
 70
     1
102
RTVSPropertyOp35
 70
     1
102
RTVSPropertyOp36
 70
     1
102
RTVSPropertyOp37
 70
     1
102
RTVSPropertyOp38
 70
     1
102
RTVSPropertyOp39
 70
     1
102
RTVSPropertyOp40
 70
     1
102
RTVSPropertyOp41
 70
     1
102
RTVSPropertyOp42
 70
     1
102
RTVSPropertyOp43
 70
     1
102
RTVSPropertyOp44
 70
     1
102
RTVSPropertyOp45
 70
     1
102
RTVSPropertyOp46
 70
     1
102
RTVSPropertyOp47
 70
     1
102
RTVSPropertyOp48
 70
     1
102
RTVSPropertyOp49
 70
     1
102
RTVSPropertyOp50
 70
     1
102
RTVSPropertyOp51
 70
     0
102
RTVSPropertyOp52
 70
     0
102
RTVSPropertyOp53
 70
     1
102
RTVSPropertyOp54
 70
     1
102
RTVSPropertyOp55
 70
     1
102
RTVSPropertyOp56
 70
     1
102
RTVSPropertyOp57
 70
     1
102
RTVSPropertyOp58
 70
     1
102
RTVSPropertyOp59
 70
     1
102
RTVSPropertyOp60
 70
     1
102
RTVSPropertyOp61
 70
     1
102
RTVSPropertyOp62
 70
     1
  0
XRECORD
  5
9E081
102
{ACAD_REACTORS
330
9E080
102
}
330
9E080
100
AcDbXrecord
280
     1
102
RTVSPost2010Prop28
280
     0
102
RTVSPost2010PropOp28
 70
     1
102
RTVSPost2010Prop29
280
     1
102
RTVSPost2010PropOp29
 70
     1
102
RTVSPost2010Prop30
280
     1
102
RTVSPost2010PropOp30
 70
     1
102
RTVSPost2010Prop31
280
     0
102
RTVSPost2010PropOp31
 70
     1
102
RTVSPost2010Prop32
280
     0
102
RTVSPost2010PropOp32
 70
     1
102
RTVSPost2010Prop33
280
     0
102
RTVSPost2010PropOp33
 70
     1
102
RTVSPost2010Prop34
280
     0
102
RTVSPost2010PropOp34
 70
     1
102
RTVSPost2010Prop35
280
     0
102
RTVSPost2010PropOp35
 70
     1
102
RTVSPost2010Prop36
280
     0
102
RTVSPost2010PropOp36
 70
     1
102
RTVSPost2010Prop37
 90
       50
102
RTVSPost2010PropOp37
 70
     1
102
RTVSPost2010Prop38
140
0.0
102
RTVSPost2010PropOp38
 70
     1
102
RTVSPost2010Prop39
140
1.0
102
RTVSPost2010PropOp39
 70
     1
102
RTVSPost2010Prop40
 90
        0
102
RTVSPost2010PropOp40
 70
     1
102
RTVSPost2010Prop41ColorIndex
 90
       18
102
RTVSPost2010Prop41ColorRGB
 90
        0
102
RTVSPost2010PropOp41
 70
     1
102
RTVSPost2010Prop42
 90
       50
102
RTVSPost2010PropOp42
 70
     1
102
RTVSPost2010Prop43
 90
        3
102
RTVSPost2010PropOp43
 70
     1
102
RTVSPost2010Prop44ColorIndex
 90
        5
102
RTVSPost2010Prop44ColorRGB
 90
      255
102
RTVSPost2010PropOp44
 70
     1
102
RTVSPost2010Prop45
280
     0
102
RTVSPost2010PropOp45
 70
     1
102
RTVSPost2010Prop46
 90
       50
102
RTVSPost2010PropOp46
 70
     1
102
RTVSPost2010Prop47
 90
       50
102
RTVSPost2010PropOp47
 70
     1
102
RTVSPost2010Prop48
 90
       50
102
RTVSPost2010PropOp48
 70
     1
102
RTVSPost2010Prop49
280
     0
102
RTVSPost2010PropOp49
 70
     1
102
RTVSPost2010Prop50
 90
       50
102
RTVSPost2010PropOp50
 70
     1
102
RTVSPost2010Prop51ColorIndex
 90
      256
102
RTVSPost2010Prop51ColorRGB
 90
-16777216
102
RTVSPost2010PropOp51
 70
     0
102
RTVSPost2010Prop52
140
1.0
102
RTVSPost2010PropOp52
 70
     0
102
RTVSPost2010Prop53
 90
        2
102
RTVSPost2010PropOp53
 70
     1
102
RTVSPost2010Prop54
  1
strokes_ogs.tif
102
RTVSPost2010PropOp54
 70
     1
102
RTVSPost2010Prop55
280
     0
102
RTVSPost2010PropOp55
 70
     1
102
RTVSPost2010Prop56
140
1.0
102
RTVSPost2010PropOp56
 70
     1
102
RTVSPost2010Prop57
140
1.0
102
RTVSPost2010PropOp57
 70
     1
102
RTVSPropertyOp0
 70
     1
102
RTVSPropertyOp1
 70
     1
102
RTVSPropertyOp2
 70
     1
102
RTVSPropertyOp3
 70
     1
102
RTVSPropertyOp4
 70
     1
102
RTVSPropertyOp5
 70
     1
102
RTVSPropertyOp6
 70
     1
102
RTVSPropertyOp7
 70
     1
102
RTVSPropertyOp8
 70
     1
102
RTVSPropertyOp9
 70
     1
102
RTVSPropertyOp10
 70
     1
102
RTVSPropertyOp11
 70
     1
102
RTVSPropertyOp12
 70
     1
102
RTVSPropertyOp13
 70
     1
102
RTVSPropertyOp14
 70
     1
102
RTVSPropertyOp15
 70
     1
102
RTVSPropertyOp16
 70
     1
102
RTVSPropertyOp17
 70
     1
102
RTVSPropertyOp18
 70
     1
102
RTVSPropertyOp19
 70
     1
102
RTVSPropertyOp20
 70
     1
102
RTVSPropertyOp21
 70
     1
102
RTVSPropertyOp22
 70
     1
102
RTVSPropertyOp23
 70
     1
102
RTVSPropertyOp24
 70
     1
102
RTVSPropertyOp25
 70
     1
102
RTVSPropertyOp26
 70
     1
102
RTVSPropertyOp27
 70
     1
102
RTVSPropertyOp28
 70
     1
102
RTVSPropertyOp29
 70
     1
102
RTVSPropertyOp30
 70
     1
102
RTVSPropertyOp31
 70
     1
102
RTVSPropertyOp32
 70
     1
102
RTVSPropertyOp33
 70
     1
102
RTVSPropertyOp34
 70
     1
102
RTVSPropertyOp35
 70
     1
102
RTVSPropertyOp36
 70
     1
102
RTVSPropertyOp37
 70
     1
102
RTVSPropertyOp38
 70
     1
102
RTVSPropertyOp39
 70
     1
102
RTVSPropertyOp40
 70
     1
102
RTVSPropertyOp41
 70
     1
102
RTVSPropertyOp42
 70
     1
102
RTVSPropertyOp43
 70
     1
102
RTVSPropertyOp44
 70
     1
102
RTVSPropertyOp45
 70
     1
102
RTVSPropertyOp46
 70
     1
102
RTVSPropertyOp47
 70
     1
102
RTVSPropertyOp48
 70
     1
102
RTVSPropertyOp49
 70
     1
102
RTVSPropertyOp50
 70
     1
102
RTVSPropertyOp51
 70
     0
102
RTVSPropertyOp52
 70
     0
102
RTVSPropertyOp53
 70
     1
102
RTVSPropertyOp54
 70
     1
102
RTVSPropertyOp55
 70
     1
102
RTVSPropertyOp56
 70
     1
102
RTVSPropertyOp57
 70
     1
102
RTVSPropertyOp58
 70
     1
102
RTVSPropertyOp59
 70
     1
102
RTVSPropertyOp60
 70
     1
102
RTVSPropertyOp61
 70
     1
102
RTVSPropertyOp62
 70
     1
  0
XRECORD
  5
9E075
102
{ACAD_REACTORS
330
9E074
102
}
330
9E074
100
AcDbXrecord
280
     1
102
RTVSPost2010Prop28
280
     0
102
RTVSPost2010PropOp28
 70
     1
102
RTVSPost2010Prop29
280
     1
102
RTVSPost2010PropOp29
 70
     1
102
RTVSPost2010Prop30
280
     1
102
RTVSPost2010PropOp30
 70
     1
102
RTVSPost2010Prop31
280
     0
102
RTVSPost2010PropOp31
 70
     1
102
RTVSPost2010Prop32
280
     0
102
RTVSPost2010PropOp32
 70
     1
102
RTVSPost2010Prop33
280
     0
102
RTVSPost2010PropOp33
 70
     1
102
RTVSPost2010Prop34
280
     0
102
RTVSPost2010PropOp34
 70
     1
102
RTVSPost2010Prop35
280
     0
102
RTVSPost2010PropOp35
 70
     1
102
RTVSPost2010Prop36
280
     0
102
RTVSPost2010PropOp36
 70
     1
102
RTVSPost2010Prop37
 90
       50
102
RTVSPost2010PropOp37
 70
     1
102
RTVSPost2010Prop38
140
0.0
102
RTVSPost2010PropOp38
 70
     1
102
RTVSPost2010Prop39
140
1.0
102
RTVSPost2010PropOp39
 70
     1
102
RTVSPost2010Prop40
 90
        0
102
RTVSPost2010PropOp40
 70
     1
102
RTVSPost2010Prop41ColorIndex
 90
       18
102
RTVSPost2010Prop41ColorRGB
 90
        0
102
RTVSPost2010PropOp41
 70
     1
102
RTVSPost2010Prop42
 90
       50
102
RTVSPost2010PropOp42
 70
     1
102
RTVSPost2010Prop43
 90
        3
102
RTVSPost2010PropOp43
 70
     1
102
RTVSPost2010Prop44ColorIndex
 90
        5
102
RTVSPost2010Prop44ColorRGB
 90
      255
102
RTVSPost2010PropOp44
 70
     1
102
RTVSPost2010Prop45
280
     0
102
RTVSPost2010PropOp45
 70
     1
102
RTVSPost2010Prop46
 90
       50
102
RTVSPost2010PropOp46
 70
     1
102
RTVSPost2010Prop47
 90
       50
102
RTVSPost2010PropOp47
 70
     1
102
RTVSPost2010Prop48
 90
       50
102
RTVSPost2010PropOp48
 70
     1
102
RTVSPost2010Prop49
280
     0
102
RTVSPost2010PropOp49
 70
     1
102
RTVSPost2010Prop50
 90
       50
102
RTVSPost2010PropOp50
 70
     1
102
RTVSPost2010Prop51ColorIndex
 90
      256
102
RTVSPost2010Prop51ColorRGB
 90
-16777216
102
RTVSPost2010PropOp51
 70
     0
102
RTVSPost2010Prop52
140
1.0
102
RTVSPost2010PropOp52
 70
     0
102
RTVSPost2010Prop53
 90
        2
102
RTVSPost2010PropOp53
 70
     1
102
RTVSPost2010Prop54
  1
strokes_ogs.tif
102
RTVSPost2010PropOp54
 70
     1
102
RTVSPost2010Prop55
280
     0
102
RTVSPost2010PropOp55
 70
     1
102
RTVSPost2010Prop56
140
1.0
102
RTVSPost2010PropOp56
 70
     1
102
RTVSPost2010Prop57
140
1.0
102
RTVSPost2010PropOp57
 70
     1
102
RTVSPropertyOp0
 70
     1
102
RTVSPropertyOp1
 70
     1
102
RTVSPropertyOp2
 70
     1
102
RTVSPropertyOp3
 70
     1
102
RTVSPropertyOp4
 70
     1
102
RTVSPropertyOp5
 70
     1
102
RTVSPropertyOp6
 70
     1
102
RTVSPropertyOp7
 70
     1
102
RTVSPropertyOp8
 70
     1
102
RTVSPropertyOp9
 70
     1
102
RTVSPropertyOp10
 70
     1
102
RTVSPropertyOp11
 70
     1
102
RTVSPropertyOp12
 70
     1
102
RTVSPropertyOp13
 70
     1
102
RTVSPropertyOp14
 70
     1
102
RTVSPropertyOp15
 70
     1
102
RTVSPropertyOp16
 70
     1
102
RTVSPropertyOp17
 70
     1
102
RTVSPropertyOp18
 70
     1
102
RTVSPropertyOp19
 70
     1
102
RTVSPropertyOp20
 70
     1
102
RTVSPropertyOp21
 70
     1
102
RTVSPropertyOp22
 70
     1
102
RTVSPropertyOp23
 70
     1
102
RTVSPropertyOp24
 70
     1
102
RTVSPropertyOp25
 70
     1
102
RTVSPropertyOp26
 70
     1
102
RTVSPropertyOp27
 70
     1
102
RTVSPropertyOp28
 70
     1
102
RTVSPropertyOp29
 70
     1
102
RTVSPropertyOp30
 70
     1
102
RTVSPropertyOp31
 70
     1
102
RTVSPropertyOp32
 70
     1
102
RTVSPropertyOp33
 70
     1
102
RTVSPropertyOp34
 70
     1
102
RTVSPropertyOp35
 70
     1
102
RTVSPropertyOp36
 70
     1
102
RTVSPropertyOp37
 70
     1
102
RTVSPropertyOp38
 70
     1
102
RTVSPropertyOp39
 70
     1
102
RTVSPropertyOp40
 70
     1
102
RTVSPropertyOp41
 70
     1
102
RTVSPropertyOp42
 70
     1
102
RTVSPropertyOp43
 70
     1
102
RTVSPropertyOp44
 70
     1
102
RTVSPropertyOp45
 70
     1
102
RTVSPropertyOp46
 70
     1
102
RTVSPropertyOp47
 70
     1
102
RTVSPropertyOp48
 70
     1
102
RTVSPropertyOp49
 70
     1
102
RTVSPropertyOp50
 70
     1
102
RTVSPropertyOp51
 70
     0
102
RTVSPropertyOp52
 70
     0
102
RTVSPropertyOp53
 70
     1
102
RTVSPropertyOp54
 70
     1
102
RTVSPropertyOp55
 70
     1
102
RTVSPropertyOp56
 70
     1
102
RTVSPropertyOp57
 70
     1
102
RTVSPropertyOp58
 70
     1
102
RTVSPropertyOp59
 70
     1
102
RTVSPropertyOp60
 70
     1
102
RTVSPropertyOp61
 70
     1
102
RTVSPropertyOp62
 70
     1
  0
XRECORD
  5
9E077
102
{ACAD_REACTORS
330
9E076
102
}
330
9E076
100
AcDbXrecord
280
     1
102
RTVSPost2010Prop28
280
     0
102
RTVSPost2010PropOp28
 70
     1
102
RTVSPost2010Prop29
280
     1
102
RTVSPost2010PropOp29
 70
     1
102
RTVSPost2010Prop30
280
     1
102
RTVSPost2010PropOp30
 70
     1
102
RTVSPost2010Prop31
280
     0
102
RTVSPost2010PropOp31
 70
     1
102
RTVSPost2010Prop32
280
     0
102
RTVSPost2010PropOp32
 70
     1
102
RTVSPost2010Prop33
280
     0
102
RTVSPost2010PropOp33
 70
     1
102
RTVSPost2010Prop34
280
     0
102
RTVSPost2010PropOp34
 70
     1
102
RTVSPost2010Prop35
280
     0
102
RTVSPost2010PropOp35
 70
     1
102
RTVSPost2010Prop36
280
     0
102
RTVSPost2010PropOp36
 70
     1
102
RTVSPost2010Prop37
 90
       50
102
RTVSPost2010PropOp37
 70
     1
102
RTVSPost2010Prop38
140
0.0
102
RTVSPost2010PropOp38
 70
     1
102
RTVSPost2010Prop39
140
1.0
102
RTVSPost2010PropOp39
 70
     1
102
RTVSPost2010Prop40
 90
        0
102
RTVSPost2010PropOp40
 70
     1
102
RTVSPost2010Prop41ColorIndex
 90
       18
102
RTVSPost2010Prop41ColorRGB
 90
        0
102
RTVSPost2010PropOp41
 70
     1
102
RTVSPost2010Prop42
 90
       50
102
RTVSPost2010PropOp42
 70
     1
102
RTVSPost2010Prop43
 90
        3
102
RTVSPost2010PropOp43
 70
     1
102
RTVSPost2010Prop44ColorIndex
 90
        5
102
RTVSPost2010Prop44ColorRGB
 90
      255
102
RTVSPost2010PropOp44
 70
     1
102
RTVSPost2010Prop45
280
     0
102
RTVSPost2010PropOp45
 70
     1
102
RTVSPost2010Prop46
 90
       50
102
RTVSPost2010PropOp46
 70
     1
102
RTVSPost2010Prop47
 90
       50
102
RTVSPost2010PropOp47
 70
     1
102
RTVSPost2010Prop48
 90
       50
102
RTVSPost2010PropOp48
 70
     1
102
RTVSPost2010Prop49
280
     0
102
RTVSPost2010PropOp49
 70
     1
102
RTVSPost2010Prop50
 90
       50
102
RTVSPost2010PropOp50
 70
     1
102
RTVSPost2010Prop51ColorIndex
 90
      256
102
RTVSPost2010Prop51ColorRGB
 90
-16777216
102
RTVSPost2010PropOp51
 70
     0
102
RTVSPost2010Prop52
140
1.0
102
RTVSPost2010PropOp52
 70
     0
102
RTVSPost2010Prop53
 90
        2
102
RTVSPost2010PropOp53
 70
     1
102
RTVSPost2010Prop54
  1
strokes_ogs.tif
102
RTVSPost2010PropOp54
 70
     1
102
RTVSPost2010Prop55
280
     0
102
RTVSPost2010PropOp55
 70
     1
102
RTVSPost2010Prop56
140
1.0
102
RTVSPost2010PropOp56
 70
     1
102
RTVSPost2010Prop57
140
1.0
102
RTVSPost2010PropOp57
 70
     1
102
RTVSPropertyOp0
 70
     1
102
RTVSPropertyOp1
 70
     1
102
RTVSPropertyOp2
 70
     1
102
RTVSPropertyOp3
 70
     1
102
RTVSPropertyOp4
 70
     1
102
RTVSPropertyOp5
 70
     1
102
RTVSPropertyOp6
 70
     1
102
RTVSPropertyOp7
 70
     1
102
RTVSPropertyOp8
 70
     1
102
RTVSPropertyOp9
 70
     1
102
RTVSPropertyOp10
 70
     1
102
RTVSPropertyOp11
 70
     1
102
RTVSPropertyOp12
 70
     1
102
RTVSPropertyOp13
 70
     1
102
RTVSPropertyOp14
 70
     1
102
RTVSPropertyOp15
 70
     1
102
RTVSPropertyOp16
 70
     1
102
RTVSPropertyOp17
 70
     1
102
RTVSPropertyOp18
 70
     1
102
RTVSPropertyOp19
 70
     1
102
RTVSPropertyOp20
 70
     1
102
RTVSPropertyOp21
 70
     1
102
RTVSPropertyOp22
 70
     1
102
RTVSPropertyOp23
 70
     1
102
RTVSPropertyOp24
 70
     1
102
RTVSPropertyOp25
 70
     1
102
RTVSPropertyOp26
 70
     1
102
RTVSPropertyOp27
 70
     1
102
RTVSPropertyOp28
 70
     1
102
RTVSPropertyOp29
 70
     1
102
RTVSPropertyOp30
 70
     1
102
RTVSPropertyOp31
 70
     1
102
RTVSPropertyOp32
 70
     1
102
RTVSPropertyOp33
 70
     1
102
RTVSPropertyOp34
 70
     1
102
RTVSPropertyOp35
 70
     1
102
RTVSPropertyOp36
 70
     1
102
RTVSPropertyOp37
 70
     1
102
RTVSPropertyOp38
 70
     1
102
RTVSPropertyOp39
 70
     1
102
RTVSPropertyOp40
 70
     1
102
RTVSPropertyOp41
 70
     1
102
RTVSPropertyOp42
 70
     1
102
RTVSPropertyOp43
 70
     1
102
RTVSPropertyOp44
 70
     1
102
RTVSPropertyOp45
 70
     1
102
RTVSPropertyOp46
 70
     1
102
RTVSPropertyOp47
 70
     1
102
RTVSPropertyOp48
 70
     1
102
RTVSPropertyOp49
 70
     1
102
RTVSPropertyOp50
 70
     1
102
RTVSPropertyOp51
 70
     0
102
RTVSPropertyOp52
 70
     0
102
RTVSPropertyOp53
 70
     1
102
RTVSPropertyOp54
 70
     1
102
RTVSPropertyOp55
 70
     1
102
RTVSPropertyOp56
 70
     1
102
RTVSPropertyOp57
 70
     1
102
RTVSPropertyOp58
 70
     1
102
RTVSPropertyOp59
 70
     1
102
RTVSPropertyOp60
 70
     1
102
RTVSPropertyOp61
 70
     1
102
RTVSPropertyOp62
 70
     1
  0
XRECORD
  5
9E087
102
{ACAD_REACTORS
330
9E086
102
}
330
9E086
100
AcDbXrecord
280
     1
102
RTVSPost2010Prop28
280
     0
102
RTVSPost2010PropOp28
 70
     0
102
RTVSPost2010Prop29
280
     1
102
RTVSPost2010PropOp29
 70
     0
102
RTVSPost2010Prop30
280
     1
102
RTVSPost2010PropOp30
 70
     0
102
RTVSPost2010Prop31
280
     0
102
RTVSPost2010PropOp31
 70
     0
102
RTVSPost2010Prop32
280
     0
102
RTVSPost2010PropOp32
 70
     0
102
RTVSPost2010Prop33
280
     0
102
RTVSPost2010PropOp33
 70
     0
102
RTVSPost2010Prop34
280
     0
102
RTVSPost2010PropOp34
 70
     0
102
RTVSPost2010Prop35
280
     0
102
RTVSPost2010PropOp35
 70
     0
102
RTVSPost2010Prop36
280
     0
102
RTVSPost2010PropOp36
 70
     0
102
RTVSPost2010Prop37
 90
       50
102
RTVSPost2010PropOp37
 70
     0
102
RTVSPost2010Prop38
140
0.0
102
RTVSPost2010PropOp38
 70
     0
102
RTVSPost2010Prop39
140
1.0
102
RTVSPost2010PropOp39
 70
     0
102
RTVSPost2010Prop40
 90
        0
102
RTVSPost2010PropOp40
 70
     0
102
RTVSPost2010Prop41ColorIndex
 90
       18
102
RTVSPost2010Prop41ColorRGB
 90
        0
102
RTVSPost2010PropOp41
 70
     0
102
RTVSPost2010Prop42
 90
       50
102
RTVSPost2010PropOp42
 70
     0
102
RTVSPost2010Prop43
 90
        3
102
RTVSPost2010PropOp43
 70
     0
102
RTVSPost2010Prop44ColorIndex
 90
        5
102
RTVSPost2010Prop44ColorRGB
 90
      255
102
RTVSPost2010PropOp44
 70
     0
102
RTVSPost2010Prop45
280
     0
102
RTVSPost2010PropOp45
 70
     0
102
RTVSPost2010Prop46
 90
       50
102
RTVSPost2010PropOp46
 70
     0
102
RTVSPost2010Prop47
 90
       50
102
RTVSPost2010PropOp47
 70
     0
102
RTVSPost2010Prop48
 90
       50
102
RTVSPost2010PropOp48
 70
     0
102
RTVSPost2010Prop49
280
     0
102
RTVSPost2010PropOp49
 70
     0
102
RTVSPost2010Prop50
 90
       50
102
RTVSPost2010PropOp50
 70
     0
102
RTVSPost2010Prop51ColorIndex
 90
      256
102
RTVSPost2010Prop51ColorRGB
 90
-16777216
102
RTVSPost2010PropOp51
 70
     0
102
RTVSPost2010Prop52
140
1.0
102
RTVSPost2010PropOp52
 70
     0
102
RTVSPost2010Prop53
 90
        2
102
RTVSPost2010PropOp53
 70
     0
102
RTVSPost2010Prop54
  1
strokes_ogs.tif
102
RTVSPost2010PropOp54
 70
     0
102
RTVSPost2010Prop55
280
     0
102
RTVSPost2010PropOp55
 70
     0
102
RTVSPost2010Prop56
140
1.0
102
RTVSPost2010PropOp56
 70
     0
102
RTVSPost2010Prop57
140
1.0
102
RTVSPost2010PropOp57
 70
     0
102
RTVSPropertyOp0
 70
     0
102
RTVSPropertyOp1
 70
     0
102
RTVSPropertyOp2
 70
     0
102
RTVSPropertyOp3
 70
     0
102
RTVSPropertyOp4
 70
     0
102
RTVSPropertyOp5
 70
     0
102
RTVSPropertyOp6
 70
     0
102
RTVSPropertyOp7
 70
     0
102
RTVSPropertyOp8
 70
     0
102
RTVSPropertyOp9
 70
     0
102
RTVSPropertyOp10
 70
     0
102
RTVSPropertyOp11
 70
     0
102
RTVSPropertyOp12
 70
     0
102
RTVSPropertyOp13
 70
     0
102
RTVSPropertyOp14
 70
     2
102
RTVSPropertyOp15
 70
     0
102
RTVSPropertyOp16
 70
     0
102
RTVSPropertyOp17
 70
     0
102
RTVSPropertyOp18
 70
     0
102
RTVSPropertyOp19
 70
     0
102
RTVSPropertyOp20
 70
     0
102
RTVSPropertyOp21
 70
     0
102
RTVSPropertyOp22
 70
     0
102
RTVSPropertyOp23
 70
     0
102
RTVSPropertyOp24
 70
     0
102
RTVSPropertyOp25
 70
     0
102
RTVSPropertyOp26
 70
     0
102
RTVSPropertyOp27
 70
     0
102
RTVSPropertyOp28
 70
     0
102
RTVSPropertyOp29
 70
     0
102
RTVSPropertyOp30
 70
     0
102
RTVSPropertyOp31
 70
     0
102
RTVSPropertyOp32
 70
     0
102
RTVSPropertyOp33
 70
     0
102
RTVSPropertyOp34
 70
     0
102
RTVSPropertyOp35
 70
     0
102
RTVSPropertyOp36
 70
     0
102
RTVSPropertyOp37
 70
     0
102
RTVSPropertyOp38
 70
     0
102
RTVSPropertyOp39
 70
     0
102
RTVSPropertyOp40
 70
     0
102
RTVSPropertyOp41
 70
     0
102
RTVSPropertyOp42
 70
     0
102
RTVSPropertyOp43
 70
     0
102
RTVSPropertyOp44
 70
     0
102
RTVSPropertyOp45
 70
     0
102
RTVSPropertyOp46
 70
     0
102
RTVSPropertyOp47
 70
     0
102
RTVSPropertyOp48
 70
     0
102
RTVSPropertyOp49
 70
     0
102
RTVSPropertyOp50
 70
     0
102
RTVSPropertyOp51
 70
     0
102
RTVSPropertyOp52
 70
     0
102
RTVSPropertyOp53
 70
     0
102
RTVSPropertyOp54
 70
     0
102
RTVSPropertyOp55
 70
     0
102
RTVSPropertyOp56
 70
     0
102
RTVSPropertyOp57
 70
     0
102
RTVSPropertyOp58
 70
     1
102
RTVSPropertyOp59
 70
     1
102
RTVSPropertyOp60
 70
     1
102
RTVSPropertyOp61
 70
     1
102
RTVSPropertyOp62
 70
     1
  0
XRECORD
  5
9E07F
102
{ACAD_REACTORS
330
9E07E
102
}
330
9E07E
100
AcDbXrecord
280
     1
102
RTVSPost2010Prop28
280
     0
102
RTVSPost2010PropOp28
 70
     1
102
RTVSPost2010Prop29
280
     1
102
RTVSPost2010PropOp29
 70
     1
102
RTVSPost2010Prop30
280
     1
102
RTVSPost2010PropOp30
 70
     1
102
RTVSPost2010Prop31
280
     0
102
RTVSPost2010PropOp31
 70
     1
102
RTVSPost2010Prop32
280
     0
102
RTVSPost2010PropOp32
 70
     1
102
RTVSPost2010Prop33
280
     0
102
RTVSPost2010PropOp33
 70
     1
102
RTVSPost2010Prop34
280
     0
102
RTVSPost2010PropOp34
 70
     1
102
RTVSPost2010Prop35
280
     0
102
RTVSPost2010PropOp35
 70
     1
102
RTVSPost2010Prop36
280
     0
102
RTVSPost2010PropOp36
 70
     1
102
RTVSPost2010Prop37
 90
       50
102
RTVSPost2010PropOp37
 70
     1
102
RTVSPost2010Prop38
140
0.0
102
RTVSPost2010PropOp38
 70
     1
102
RTVSPost2010Prop39
140
1.0
102
RTVSPost2010PropOp39
 70
     1
102
RTVSPost2010Prop40
 90
        0
102
RTVSPost2010PropOp40
 70
     1
102
RTVSPost2010Prop41ColorIndex
 90
       18
102
RTVSPost2010Prop41ColorRGB
 90
        0
102
RTVSPost2010PropOp41
 70
     1
102
RTVSPost2010Prop42
 90
       50
102
RTVSPost2010PropOp42
 70
     1
102
RTVSPost2010Prop43
 90
        3
102
RTVSPost2010PropOp43
 70
     1
102
RTVSPost2010Prop44ColorIndex
 90
        5
102
RTVSPost2010Prop44ColorRGB
 90
      255
102
RTVSPost2010PropOp44
 70
     1
102
RTVSPost2010Prop45
280
     0
102
RTVSPost2010PropOp45
 70
     1
102
RTVSPost2010Prop46
 90
       50
102
RTVSPost2010PropOp46
 70
     1
102
RTVSPost2010Prop47
 90
       50
102
RTVSPost2010PropOp47
 70
     1
102
RTVSPost2010Prop48
 90
       50
102
RTVSPost2010PropOp48
 70
     1
102
RTVSPost2010Prop49
280
     0
102
RTVSPost2010PropOp49
 70
     1
102
RTVSPost2010Prop50
 90
       50
102
RTVSPost2010PropOp50
 70
     1
102
RTVSPost2010Prop51ColorIndex
 90
      256
102
RTVSPost2010Prop51ColorRGB
 90
-16777216
102
RTVSPost2010PropOp51
 70
     0
102
RTVSPost2010Prop52
140
1.0
102
RTVSPost2010PropOp52
 70
     0
102
RTVSPost2010Prop53
 90
        2
102
RTVSPost2010PropOp53
 70
     1
102
RTVSPost2010Prop54
  1
strokes_ogs.tif
102
RTVSPost2010PropOp54
 70
     1
102
RTVSPost2010Prop55
280
     0
102
RTVSPost2010PropOp55
 70
     1
102
RTVSPost2010Prop56
140
1.0
102
RTVSPost2010PropOp56
 70
     1
102
RTVSPost2010Prop57
140
1.0
102
RTVSPost2010PropOp57
 70
     1
102
RTVSPropertyOp0
 70
     1
102
RTVSPropertyOp1
 70
     1
102
RTVSPropertyOp2
 70
     1
102
RTVSPropertyOp3
 70
     1
102
RTVSPropertyOp4
 70
     1
102
RTVSPropertyOp5
 70
     1
102
RTVSPropertyOp6
 70
     1
102
RTVSPropertyOp7
 70
     1
102
RTVSPropertyOp8
 70
     1
102
RTVSPropertyOp9
 70
     1
102
RTVSPropertyOp10
 70
     1
102
RTVSPropertyOp11
 70
     1
102
RTVSPropertyOp12
 70
     1
102
RTVSPropertyOp13
 70
     1
102
RTVSPropertyOp14
 70
     1
102
RTVSPropertyOp15
 70
     1
102
RTVSPropertyOp16
 70
     1
102
RTVSPropertyOp17
 70
     1
102
RTVSPropertyOp18
 70
     1
102
RTVSPropertyOp19
 70
     1
102
RTVSPropertyOp20
 70
     1
102
RTVSPropertyOp21
 70
     1
102
RTVSPropertyOp22
 70
     1
102
RTVSPropertyOp23
 70
     1
102
RTVSPropertyOp24
 70
     1
102
RTVSPropertyOp25
 70
     1
102
RTVSPropertyOp26
 70
     1
102
RTVSPropertyOp27
 70
     1
102
RTVSPropertyOp28
 70
     1
102
RTVSPropertyOp29
 70
     1
102
RTVSPropertyOp30
 70
     1
102
RTVSPropertyOp31
 70
     1
102
RTVSPropertyOp32
 70
     1
102
RTVSPropertyOp33
 70
     1
102
RTVSPropertyOp34
 70
     1
102
RTVSPropertyOp35
 70
     1
102
RTVSPropertyOp36
 70
     1
102
RTVSPropertyOp37
 70
     1
102
RTVSPropertyOp38
 70
     1
102
RTVSPropertyOp39
 70
     1
102
RTVSPropertyOp40
 70
     1
102
RTVSPropertyOp41
 70
     1
102
RTVSPropertyOp42
 70
     1
102
RTVSPropertyOp43
 70
     1
102
RTVSPropertyOp44
 70
     1
102
RTVSPropertyOp45
 70
     1
102
RTVSPropertyOp46
 70
     1
102
RTVSPropertyOp47
 70
     1
102
RTVSPropertyOp48
 70
     1
102
RTVSPropertyOp49
 70
     1
102
RTVSPropertyOp50
 70
     1
102
RTVSPropertyOp51
 70
     0
102
RTVSPropertyOp52
 70
     0
102
RTVSPropertyOp53
 70
     1
102
RTVSPropertyOp54
 70
     1
102
RTVSPropertyOp55
 70
     1
102
RTVSPropertyOp56
 70
     1
102
RTVSPropertyOp57
 70
     1
102
RTVSPropertyOp58
 70
     1
102
RTVSPropertyOp59
 70
     1
102
RTVSPropertyOp60
 70
     1
102
RTVSPropertyOp61
 70
     1
102
RTVSPropertyOp62
 70
     1
  0
XRECORD
  5
9E063
102
{ACAD_REACTORS
330
9E062
102
}
330
9E062
100
AcDbXrecord
280
     1
102
RTVSPost2010Prop28
280
     0
102
RTVSPost2010PropOp28
 70
     1
102
RTVSPost2010Prop29
280
     1
102
RTVSPost2010PropOp29
 70
     1
102
RTVSPost2010Prop30
280
     1
102
RTVSPost2010PropOp30
 70
     1
102
RTVSPost2010Prop31
280
     0
102
RTVSPost2010PropOp31
 70
     1
102
RTVSPost2010Prop32
280
     0
102
RTVSPost2010PropOp32
 70
     1
102
RTVSPost2010Prop33
280
     0
102
RTVSPost2010PropOp33
 70
     1
102
RTVSPost2010Prop34
280
     0
102
RTVSPost2010PropOp34
 70
     1
102
RTVSPost2010Prop35
280
     0
102
RTVSPost2010PropOp35
 70
     1
102
RTVSPost2010Prop36
280
     0
102
RTVSPost2010PropOp36
 70
     1
102
RTVSPost2010Prop37
 90
       50
102
RTVSPost2010PropOp37
 70
     1
102
RTVSPost2010Prop38
140
0.0
102
RTVSPost2010PropOp38
 70
     1
102
RTVSPost2010Prop39
140
1.0
102
RTVSPost2010PropOp39
 70
     1
102
RTVSPost2010Prop40
 90
        0
102
RTVSPost2010PropOp40
 70
     1
102
RTVSPost2010Prop41ColorIndex
 90
       18
102
RTVSPost2010Prop41ColorRGB
 90
        0
102
RTVSPost2010PropOp41
 70
     1
102
RTVSPost2010Prop42
 90
       50
102
RTVSPost2010PropOp42
 70
     1
102
RTVSPost2010Prop43
 90
        3
102
RTVSPost2010PropOp43
 70
     1
102
RTVSPost2010Prop44ColorIndex
 90
        5
102
RTVSPost2010Prop44ColorRGB
 90
      255
102
RTVSPost2010PropOp44
 70
     1
102
RTVSPost2010Prop45
280
     0
102
RTVSPost2010PropOp45
 70
     1
102
RTVSPost2010Prop46
 90
       50
102
RTVSPost2010PropOp46
 70
     1
102
RTVSPost2010Prop47
 90
       50
102
RTVSPost2010PropOp47
 70
     1
102
RTVSPost2010Prop48
 90
       50
102
RTVSPost2010PropOp48
 70
     1
102
RTVSPost2010Prop49
280
     0
102
RTVSPost2010PropOp49
 70
     1
102
RTVSPost2010Prop50
 90
       50
102
RTVSPost2010PropOp50
 70
     1
102
RTVSPost2010Prop51ColorIndex
 90
      256
102
RTVSPost2010Prop51ColorRGB
 90
-16777216
102
RTVSPost2010PropOp51
 70
     0
102
RTVSPost2010Prop52
140
1.0
102
RTVSPost2010PropOp52
 70
     0
102
RTVSPost2010Prop53
 90
        2
102
RTVSPost2010PropOp53
 70
     1
102
RTVSPost2010Prop54
  1
strokes_ogs.tif
102
RTVSPost2010PropOp54
 70
     1
102
RTVSPost2010Prop55
280
     0
102
RTVSPost2010PropOp55
 70
     1
102
RTVSPost2010Prop56
140
1.0
102
RTVSPost2010PropOp56
 70
     1
102
RTVSPost2010Prop57
140
1.0
102
RTVSPost2010PropOp57
 70
     1
102
RTVSPropertyOp0
 70
     1
102
RTVSPropertyOp1
 70
     1
102
RTVSPropertyOp2
 70
     1
102
RTVSPropertyOp3
 70
     1
102
RTVSPropertyOp4
 70
     1
102
RTVSPropertyOp5
 70
     1
102
RTVSPropertyOp6
 70
     1
102
RTVSPropertyOp7
 70
     1
102
RTVSPropertyOp8
 70
     1
102
RTVSPropertyOp9
 70
     1
102
RTVSPropertyOp10
 70
     1
102
RTVSPropertyOp11
 70
     1
102
RTVSPropertyOp12
 70
     1
102
RTVSPropertyOp13
 70
     1
102
RTVSPropertyOp14
 70
     1
102
RTVSPropertyOp15
 70
     1
102
RTVSPropertyOp16
 70
     1
102
RTVSPropertyOp17
 70
     1
102
RTVSPropertyOp18
 70
     1
102
RTVSPropertyOp19
 70
     1
102
RTVSPropertyOp20
 70
     1
102
RTVSPropertyOp21
 70
     1
102
RTVSPropertyOp22
 70
     1
102
RTVSPropertyOp23
 70
     1
102
RTVSPropertyOp24
 70
     1
102
RTVSPropertyOp25
 70
     1
102
RTVSPropertyOp26
 70
     1
102
RTVSPropertyOp27
 70
     1
102
RTVSPropertyOp28
 70
     1
102
RTVSPropertyOp29
 70
     1
102
RTVSPropertyOp30
 70
     1
102
RTVSPropertyOp31
 70
     1
102
RTVSPropertyOp32
 70
     1
102
RTVSPropertyOp33
 70
     1
102
RTVSPropertyOp34
 70
     1
102
RTVSPropertyOp35
 70
     1
102
RTVSPropertyOp36
 70
     1
102
RTVSPropertyOp37
 70
     1
102
RTVSPropertyOp38
 70
     1
102
RTVSPropertyOp39
 70
     1
102
RTVSPropertyOp40
 70
     1
102
RTVSPropertyOp41
 70
     1
102
RTVSPropertyOp42
 70
     1
102
RTVSPropertyOp43
 70
     1
102
RTVSPropertyOp44
 70
     1
102
RTVSPropertyOp45
 70
     1
102
RTVSPropertyOp46
 70
     1
102
RTVSPropertyOp47
 70
     1
102
RTVSPropertyOp48
 70
     1
102
RTVSPropertyOp49
 70
     1
102
RTVSPropertyOp50
 70
     1
102
RTVSPropertyOp51
 70
     0
102
RTVSPropertyOp52
 70
     0
102
RTVSPropertyOp53
 70
     1
102
RTVSPropertyOp54
 70
     1
102
RTVSPropertyOp55
 70
     1
102
RTVSPropertyOp56
 70
     1
102
RTVSPropertyOp57
 70
     1
102
RTVSPropertyOp58
 70
     1
102
RTVSPropertyOp59
 70
     1
102
RTVSPropertyOp60
 70
     1
102
RTVSPropertyOp61
 70
     1
102
RTVSPropertyOp62
 70
     1
  0
XRECORD
  5
9E065
102
{ACAD_REACTORS
330
9E064
102
}
330
9E064
100
AcDbXrecord
280
     1
102
RTVSPost2010Prop28
280
     0
102
RTVSPost2010PropOp28
 70
     1
102
RTVSPost2010Prop29
280
     1
102
RTVSPost2010PropOp29
 70
     1
102
RTVSPost2010Prop30
280
     1
102
RTVSPost2010PropOp30
 70
     1
102
RTVSPost2010Prop31
280
     0
102
RTVSPost2010PropOp31
 70
     1
102
RTVSPost2010Prop32
280
     0
102
RTVSPost2010PropOp32
 70
     1
102
RTVSPost2010Prop33
280
     0
102
RTVSPost2010PropOp33
 70
     1
102
RTVSPost2010Prop34
280
     0
102
RTVSPost2010PropOp34
 70
     1
102
RTVSPost2010Prop35
280
     0
102
RTVSPost2010PropOp35
 70
     1
102
RTVSPost2010Prop36
280
     0
102
RTVSPost2010PropOp36
 70
     1
102
RTVSPost2010Prop37
 90
       50
102
RTVSPost2010PropOp37
 70
     1
102
RTVSPost2010Prop38
140
0.0
102
RTVSPost2010PropOp38
 70
     1
102
RTVSPost2010Prop39
140
1.0
102
RTVSPost2010PropOp39
 70
     1
102
RTVSPost2010Prop40
 90
        0
102
RTVSPost2010PropOp40
 70
     1
102
RTVSPost2010Prop41ColorIndex
 90
       18
102
RTVSPost2010Prop41ColorRGB
 90
        0
102
RTVSPost2010PropOp41
 70
     1
102
RTVSPost2010Prop42
 90
       50
102
RTVSPost2010PropOp42
 70
     1
102
RTVSPost2010Prop43
 90
        3
102
RTVSPost2010PropOp43
 70
     1
102
RTVSPost2010Prop44ColorIndex
 90
        5
102
RTVSPost2010Prop44ColorRGB
 90
      255
102
RTVSPost2010PropOp44
 70
     1
102
RTVSPost2010Prop45
280
     0
102
RTVSPost2010PropOp45
 70
     1
102
RTVSPost2010Prop46
 90
       50
102
RTVSPost2010PropOp46
 70
     1
102
RTVSPost2010Prop47
 90
       50
102
RTVSPost2010PropOp47
 70
     1
102
RTVSPost2010Prop48
 90
       50
102
RTVSPost2010PropOp48
 70
     1
102
RTVSPost2010Prop49
280
     0
102
RTVSPost2010PropOp49
 70
     1
102
RTVSPost2010Prop50
 90
       50
102
RTVSPost2010PropOp50
 70
     1
102
RTVSPost2010Prop51ColorIndex
 90
      256
102
RTVSPost2010Prop51ColorRGB
 90
-16777216
102
RTVSPost2010PropOp51
 70
     0
102
RTVSPost2010Prop52
140
1.0
102
RTVSPost2010PropOp52
 70
     0
102
RTVSPost2010Prop53
 90
        2
102
RTVSPost2010PropOp53
 70
     1
102
RTVSPost2010Prop54
  1
strokes_ogs.tif
102
RTVSPost2010PropOp54
 70
     1
102
RTVSPost2010Prop55
280
     0
102
RTVSPost2010PropOp55
 70
     1
102
RTVSPost2010Prop56
140
1.0
102
RTVSPost2010PropOp56
 70
     1
102
RTVSPost2010Prop57
140
1.0
102
RTVSPost2010PropOp57
 70
     1
102
RTVSPropertyOp0
 70
     1
102
RTVSPropertyOp1
 70
     1
102
RTVSPropertyOp2
 70
     1
102
RTVSPropertyOp3
 70
     1
102
RTVSPropertyOp4
 70
     1
102
RTVSPropertyOp5
 70
     1
102
RTVSPropertyOp6
 70
     1
102
RTVSPropertyOp7
 70
     1
102
RTVSPropertyOp8
 70
     1
102
RTVSPropertyOp9
 70
     1
102
RTVSPropertyOp10
 70
     1
102
RTVSPropertyOp11
 70
     1
102
RTVSPropertyOp12
 70
     1
102
RTVSPropertyOp13
 70
     1
102
RTVSPropertyOp14
 70
     1
102
RTVSPropertyOp15
 70
     1
102
RTVSPropertyOp16
 70
     1
102
RTVSPropertyOp17
 70
     1
102
RTVSPropertyOp18
 70
     1
102
RTVSPropertyOp19
 70
     1
102
RTVSPropertyOp20
 70
     1
102
RTVSPropertyOp21
 70
     1
102
RTVSPropertyOp22
 70
     1
102
RTVSPropertyOp23
 70
     1
102
RTVSPropertyOp24
 70
     1
102
RTVSPropertyOp25
 70
     1
102
RTVSPropertyOp26
 70
     1
102
RTVSPropertyOp27
 70
     1
102
RTVSPropertyOp28
 70
     1
102
RTVSPropertyOp29
 70
     1
102
RTVSPropertyOp30
 70
     1
102
RTVSPropertyOp31
 70
     1
102
RTVSPropertyOp32
 70
     1
102
RTVSPropertyOp33
 70
     1
102
RTVSPropertyOp34
 70
     1
102
RTVSPropertyOp35
 70
     1
102
RTVSPropertyOp36
 70
     1
102
RTVSPropertyOp37
 70
     1
102
RTVSPropertyOp38
 70
     1
102
RTVSPropertyOp39
 70
     1
102
RTVSPropertyOp40
 70
     1
102
RTVSPropertyOp41
 70
     1
102
RTVSPropertyOp42
 70
     1
102
RTVSPropertyOp43
 70
     1
102
RTVSPropertyOp44
 70
     1
102
RTVSPropertyOp45
 70
     1
102
RTVSPropertyOp46
 70
     1
102
RTVSPropertyOp47
 70
     1
102
RTVSPropertyOp48
 70
     1
102
RTVSPropertyOp49
 70
     1
102
RTVSPropertyOp50
 70
     1
102
RTVSPropertyOp51
 70
     0
102
RTVSPropertyOp52
 70
     0
102
RTVSPropertyOp53
 70
     1
102
RTVSPropertyOp54
 70
     1
102
RTVSPropertyOp55
 70
     1
102
RTVSPropertyOp56
 70
     1
102
RTVSPropertyOp57
 70
     1
102
RTVSPropertyOp58
 70
     1
102
RTVSPropertyOp59
 70
     1
102
RTVSPropertyOp60
 70
     1
102
RTVSPropertyOp61
 70
     1
102
RTVSPropertyOp62
 70
     1
  0
XRECORD
  5
9E067
102
{ACAD_REACTORS
330
9E066
102
}
330
9E066
100
AcDbXrecord
280
     1
102
RTVSPost2010Prop28
280
     0
102
RTVSPost2010PropOp28
 70
     1
102
RTVSPost2010Prop29
280
     1
102
RTVSPost2010PropOp29
 70
     1
102
RTVSPost2010Prop30
280
     1
102
RTVSPost2010PropOp30
 70
     1
102
RTVSPost2010Prop31
280
     0
102
RTVSPost2010PropOp31
 70
     1
102
RTVSPost2010Prop32
280
     0
102
RTVSPost2010PropOp32
 70
     1
102
RTVSPost2010Prop33
280
     0
102
RTVSPost2010PropOp33
 70
     1
102
RTVSPost2010Prop34
280
     0
102
RTVSPost2010PropOp34
 70
     1
102
RTVSPost2010Prop35
280
     0
102
RTVSPost2010PropOp35
 70
     1
102
RTVSPost2010Prop36
280
     0
102
RTVSPost2010PropOp36
 70
     1
102
RTVSPost2010Prop37
 90
       50
102
RTVSPost2010PropOp37
 70
     1
102
RTVSPost2010Prop38
140
0.0
102
RTVSPost2010PropOp38
 70
     1
102
RTVSPost2010Prop39
140
1.0
102
RTVSPost2010PropOp39
 70
     1
102
RTVSPost2010Prop40
 90
        0
102
RTVSPost2010PropOp40
 70
     1
102
RTVSPost2010Prop41ColorIndex
 90
       18
102
RTVSPost2010Prop41ColorRGB
 90
        0
102
RTVSPost2010PropOp41
 70
     1
102
RTVSPost2010Prop42
 90
       50
102
RTVSPost2010PropOp42
 70
     1
102
RTVSPost2010Prop43
 90
        3
102
RTVSPost2010PropOp43
 70
     1
102
RTVSPost2010Prop44ColorIndex
 90
        5
102
RTVSPost2010Prop44ColorRGB
 90
      255
102
RTVSPost2010PropOp44
 70
     1
102
RTVSPost2010Prop45
280
     0
102
RTVSPost2010PropOp45
 70
     1
102
RTVSPost2010Prop46
 90
       50
102
RTVSPost2010PropOp46
 70
     1
102
RTVSPost2010Prop47
 90
       50
102
RTVSPost2010PropOp47
 70
     1
102
RTVSPost2010Prop48
 90
       50
102
RTVSPost2010PropOp48
 70
     1
102
RTVSPost2010Prop49
280
     0
102
RTVSPost2010PropOp49
 70
     1
102
RTVSPost2010Prop50
 90
       50
102
RTVSPost2010PropOp50
 70
     1
102
RTVSPost2010Prop51ColorIndex
 90
      256
102
RTVSPost2010Prop51ColorRGB
 90
-16777216
102
RTVSPost2010PropOp51
 70
     0
102
RTVSPost2010Prop52
140
1.0
102
RTVSPost2010PropOp52
 70
     0
102
RTVSPost2010Prop53
 90
        2
102
RTVSPost2010PropOp53
 70
     1
102
RTVSPost2010Prop54
  1
strokes_ogs.tif
102
RTVSPost2010PropOp54
 70
     1
102
RTVSPost2010Prop55
280
     0
102
RTVSPost2010PropOp55
 70
     1
102
RTVSPost2010Prop56
140
1.0
102
RTVSPost2010PropOp56
 70
     1
102
RTVSPost2010Prop57
140
1.0
102
RTVSPost2010PropOp57
 70
     1
102
RTVSPropertyOp0
 70
     1
102
RTVSPropertyOp1
 70
     1
102
RTVSPropertyOp2
 70
     1
102
RTVSPropertyOp3
 70
     1
102
RTVSPropertyOp4
 70
     1
102
RTVSPropertyOp5
 70
     1
102
RTVSPropertyOp6
 70
     1
102
RTVSPropertyOp7
 70
     1
102
RTVSPropertyOp8
 70
     1
102
RTVSPropertyOp9
 70
     1
102
RTVSPropertyOp10
 70
     1
102
RTVSPropertyOp11
 70
     1
102
RTVSPropertyOp12
 70
     1
102
RTVSPropertyOp13
 70
     1
102
RTVSPropertyOp14
 70
     1
102
RTVSPropertyOp15
 70
     1
102
RTVSPropertyOp16
 70
     1
102
RTVSPropertyOp17
 70
     1
102
RTVSPropertyOp18
 70
     1
102
RTVSPropertyOp19
 70
     1
102
RTVSPropertyOp20
 70
     1
102
RTVSPropertyOp21
 70
     1
102
RTVSPropertyOp22
 70
     1
102
RTVSPropertyOp23
 70
     1
102
RTVSPropertyOp24
 70
     1
102
RTVSPropertyOp25
 70
     1
102
RTVSPropertyOp26
 70
     1
102
RTVSPropertyOp27
 70
     1
102
RTVSPropertyOp28
 70
     1
102
RTVSPropertyOp29
 70
     1
102
RTVSPropertyOp30
 70
     1
102
RTVSPropertyOp31
 70
     1
102
RTVSPropertyOp32
 70
     1
102
RTVSPropertyOp33
 70
     1
102
RTVSPropertyOp34
 70
     1
102
RTVSPropertyOp35
 70
     1
102
RTVSPropertyOp36
 70
     1
102
RTVSPropertyOp37
 70
     1
102
RTVSPropertyOp38
 70
     1
102
RTVSPropertyOp39
 70
     1
102
RTVSPropertyOp40
 70
     1
102
RTVSPropertyOp41
 70
     1
102
RTVSPropertyOp42
 70
     1
102
RTVSPropertyOp43
 70
     1
102
RTVSPropertyOp44
 70
     1
102
RTVSPropertyOp45
 70
     1
102
RTVSPropertyOp46
 70
     1
102
RTVSPropertyOp47
 70
     1
102
RTVSPropertyOp48
 70
     1
102
RTVSPropertyOp49
 70
     1
102
RTVSPropertyOp50
 70
     1
102
RTVSPropertyOp51
 70
     0
102
RTVSPropertyOp52
 70
     0
102
RTVSPropertyOp53
 70
     1
102
RTVSPropertyOp54
 70
     1
102
RTVSPropertyOp55
 70
     1
102
RTVSPropertyOp56
 70
     1
102
RTVSPropertyOp57
 70
     1
102
RTVSPropertyOp58
 70
     1
102
RTVSPropertyOp59
 70
     1
102
RTVSPropertyOp60
 70
     1
102
RTVSPropertyOp61
 70
     1
102
RTVSPropertyOp62
 70
     1
  0
XRECORD
  5
9E069
102
{ACAD_REACTORS
330
9E068
102
}
330
9E068
100
AcDbXrecord
280
     1
102
RTVSPost2010Prop28
280
     0
102
RTVSPost2010PropOp28
 70
     1
102
RTVSPost2010Prop29
280
     1
102
RTVSPost2010PropOp29
 70
     1
102
RTVSPost2010Prop30
280
     1
102
RTVSPost2010PropOp30
 70
     1
102
RTVSPost2010Prop31
280
     0
102
RTVSPost2010PropOp31
 70
     1
102
RTVSPost2010Prop32
280
     0
102
RTVSPost2010PropOp32
 70
     1
102
RTVSPost2010Prop33
280
     0
102
RTVSPost2010PropOp33
 70
     1
102
RTVSPost2010Prop34
280
     0
102
RTVSPost2010PropOp34
 70
     1
102
RTVSPost2010Prop35
280
     0
102
RTVSPost2010PropOp35
 70
     1
102
RTVSPost2010Prop36
280
     0
102
RTVSPost2010PropOp36
 70
     1
102
RTVSPost2010Prop37
 90
       50
102
RTVSPost2010PropOp37
 70
     1
102
RTVSPost2010Prop38
140
0.0
102
RTVSPost2010PropOp38
 70
     1
102
RTVSPost2010Prop39
140
1.0
102
RTVSPost2010PropOp39
 70
     1
102
RTVSPost2010Prop40
 90
        0
102
RTVSPost2010PropOp40
 70
     1
102
RTVSPost2010Prop41ColorIndex
 90
       18
102
RTVSPost2010Prop41ColorRGB
 90
        0
102
RTVSPost2010PropOp41
 70
     1
102
RTVSPost2010Prop42
 90
       50
102
RTVSPost2010PropOp42
 70
     1
102
RTVSPost2010Prop43
 90
        3
102
RTVSPost2010PropOp43
 70
     1
102
RTVSPost2010Prop44ColorIndex
 90
        5
102
RTVSPost2010Prop44ColorRGB
 90
      255
102
RTVSPost2010PropOp44
 70
     1
102
RTVSPost2010Prop45
280
     0
102
RTVSPost2010PropOp45
 70
     1
102
RTVSPost2010Prop46
 90
       50
102
RTVSPost2010PropOp46
 70
     1
102
RTVSPost2010Prop47
 90
       50
102
RTVSPost2010PropOp47
 70
     1
102
RTVSPost2010Prop48
 90
       50
102
RTVSPost2010PropOp48
 70
     1
102
RTVSPost2010Prop49
280
     0
102
RTVSPost2010PropOp49
 70
     1
102
RTVSPost2010Prop50
 90
       50
102
RTVSPost2010PropOp50
 70
     1
102
RTVSPost2010Prop51ColorIndex
 90
      256
102
RTVSPost2010Prop51ColorRGB
 90
-16777216
102
RTVSPost2010PropOp51
 70
     0
102
RTVSPost2010Prop52
140
1.0
102
RTVSPost2010PropOp52
 70
     0
102
RTVSPost2010Prop53
 90
        2
102
RTVSPost2010PropOp53
 70
     1
102
RTVSPost2010Prop54
  1
strokes_ogs.tif
102
RTVSPost2010PropOp54
 70
     1
102
RTVSPost2010Prop55
280
     0
102
RTVSPost2010PropOp55
 70
     1
102
RTVSPost2010Prop56
140
1.0
102
RTVSPost2010PropOp56
 70
     1
102
RTVSPost2010Prop57
140
1.0
102
RTVSPost2010PropOp57
 70
     1
102
RTVSPropertyOp0
 70
     1
102
RTVSPropertyOp1
 70
     1
102
RTVSPropertyOp2
 70
     1
102
RTVSPropertyOp3
 70
     1
102
RTVSPropertyOp4
 70
     1
102
RTVSPropertyOp5
 70
     1
102
RTVSPropertyOp6
 70
     1
102
RTVSPropertyOp7
 70
     1
102
RTVSPropertyOp8
 70
     1
102
RTVSPropertyOp9
 70
     1
102
RTVSPropertyOp10
 70
     1
102
RTVSPropertyOp11
 70
     1
102
RTVSPropertyOp12
 70
     1
102
RTVSPropertyOp13
 70
     1
102
RTVSPropertyOp14
 70
     1
102
RTVSPropertyOp15
 70
     1
102
RTVSPropertyOp16
 70
     1
102
RTVSPropertyOp17
 70
     1
102
RTVSPropertyOp18
 70
     1
102
RTVSPropertyOp19
 70
     1
102
RTVSPropertyOp20
 70
     1
102
RTVSPropertyOp21
 70
     1
102
RTVSPropertyOp22
 70
     1
102
RTVSPropertyOp23
 70
     1
102
RTVSPropertyOp24
 70
     1
102
RTVSPropertyOp25
 70
     1
102
RTVSPropertyOp26
 70
     1
102
RTVSPropertyOp27
 70
     1
102
RTVSPropertyOp28
 70
     1
102
RTVSPropertyOp29
 70
     1
102
RTVSPropertyOp30
 70
     1
102
RTVSPropertyOp31
 70
     1
102
RTVSPropertyOp32
 70
     1
102
RTVSPropertyOp33
 70
     1
102
RTVSPropertyOp34
 70
     1
102
RTVSPropertyOp35
 70
     1
102
RTVSPropertyOp36
 70
     1
102
RTVSPropertyOp37
 70
     1
102
RTVSPropertyOp38
 70
     1
102
RTVSPropertyOp39
 70
     1
102
RTVSPropertyOp40
 70
     1
102
RTVSPropertyOp41
 70
     1
102
RTVSPropertyOp42
 70
     1
102
RTVSPropertyOp43
 70
     1
102
RTVSPropertyOp44
 70
     1
102
RTVSPropertyOp45
 70
     1
102
RTVSPropertyOp46
 70
     1
102
RTVSPropertyOp47
 70
     1
102
RTVSPropertyOp48
 70
     1
102
RTVSPropertyOp49
 70
     1
102
RTVSPropertyOp50
 70
     1
102
RTVSPropertyOp51
 70
     0
102
RTVSPropertyOp52
 70
     0
102
RTVSPropertyOp53
 70
     1
102
RTVSPropertyOp54
 70
     1
102
RTVSPropertyOp55
 70
     1
102
RTVSPropertyOp56
 70
     1
102
RTVSPropertyOp57
 70
     1
102
RTVSPropertyOp58
 70
     1
102
RTVSPropertyOp59
 70
     1
102
RTVSPropertyOp60
 70
     1
102
RTVSPropertyOp61
 70
     1
102
RTVSPropertyOp62
 70
     1
  0
XRECORD
  5
9E06F
102
{ACAD_REACTORS
330
9E06E
102
}
330
9E06E
100
AcDbXrecord
280
     1
102
RTVSPost2010Prop28
280
     0
102
RTVSPost2010PropOp28
 70
     1
102
RTVSPost2010Prop29
280
     1
102
RTVSPost2010PropOp29
 70
     1
102
RTVSPost2010Prop30
280
     1
102
RTVSPost2010PropOp30
 70
     1
102
RTVSPost2010Prop31
280
     0
102
RTVSPost2010PropOp31
 70
     1
102
RTVSPost2010Prop32
280
     0
102
RTVSPost2010PropOp32
 70
     1
102
RTVSPost2010Prop33
280
     0
102
RTVSPost2010PropOp33
 70
     1
102
RTVSPost2010Prop34
280
     0
102
RTVSPost2010PropOp34
 70
     1
102
RTVSPost2010Prop35
280
     0
102
RTVSPost2010PropOp35
 70
     1
102
RTVSPost2010Prop36
280
     0
102
RTVSPost2010PropOp36
 70
     1
102
RTVSPost2010Prop37
 90
       50
102
RTVSPost2010PropOp37
 70
     1
102
RTVSPost2010Prop38
140
0.0
102
RTVSPost2010PropOp38
 70
     1
102
RTVSPost2010Prop39
140
1.0
102
RTVSPost2010PropOp39
 70
     1
102
RTVSPost2010Prop40
 90
        0
102
RTVSPost2010PropOp40
 70
     1
102
RTVSPost2010Prop41ColorIndex
 90
       18
102
RTVSPost2010Prop41ColorRGB
 90
        0
102
RTVSPost2010PropOp41
 70
     1
102
RTVSPost2010Prop42
 90
       50
102
RTVSPost2010PropOp42
 70
     1
102
RTVSPost2010Prop43
 90
        3
102
RTVSPost2010PropOp43
 70
     1
102
RTVSPost2010Prop44ColorIndex
 90
        5
102
RTVSPost2010Prop44ColorRGB
 90
      255
102
RTVSPost2010PropOp44
 70
     1
102
RTVSPost2010Prop45
280
     0
102
RTVSPost2010PropOp45
 70
     1
102
RTVSPost2010Prop46
 90
       50
102
RTVSPost2010PropOp46
 70
     1
102
RTVSPost2010Prop47
 90
       50
102
RTVSPost2010PropOp47
 70
     1
102
RTVSPost2010Prop48
 90
       50
102
RTVSPost2010PropOp48
 70
     1
102
RTVSPost2010Prop49
280
     0
102
RTVSPost2010PropOp49
 70
     1
102
RTVSPost2010Prop50
 90
       50
102
RTVSPost2010PropOp50
 70
     1
102
RTVSPost2010Prop51ColorIndex
 90
      256
102
RTVSPost2010Prop51ColorRGB
 90
-16777216
102
RTVSPost2010PropOp51
 70
     0
102
RTVSPost2010Prop52
140
1.0
102
RTVSPost2010PropOp52
 70
     0
102
RTVSPost2010Prop53
 90
        2
102
RTVSPost2010PropOp53
 70
     1
102
RTVSPost2010Prop54
  1
strokes_ogs.tif
102
RTVSPost2010PropOp54
 70
     1
102
RTVSPost2010Prop55
280
     0
102
RTVSPost2010PropOp55
 70
     1
102
RTVSPost2010Prop56
140
1.0
102
RTVSPost2010PropOp56
 70
     1
102
RTVSPost2010Prop57
140
1.0
102
RTVSPost2010PropOp57
 70
     1
102
RTVSPropertyOp0
 70
     1
102
RTVSPropertyOp1
 70
     1
102
RTVSPropertyOp2
 70
     1
102
RTVSPropertyOp3
 70
     1
102
RTVSPropertyOp4
 70
     1
102
RTVSPropertyOp5
 70
     1
102
RTVSPropertyOp6
 70
     1
102
RTVSPropertyOp7
 70
     1
102
RTVSPropertyOp8
 70
     1
102
RTVSPropertyOp9
 70
     1
102
RTVSPropertyOp10
 70
     1
102
RTVSPropertyOp11
 70
     1
102
RTVSPropertyOp12
 70
     1
102
RTVSPropertyOp13
 70
     1
102
RTVSPropertyOp14
 70
     1
102
RTVSPropertyOp15
 70
     1
102
RTVSPropertyOp16
 70
     1
102
RTVSPropertyOp17
 70
     1
102
RTVSPropertyOp18
 70
     1
102
RTVSPropertyOp19
 70
     1
102
RTVSPropertyOp20
 70
     1
102
RTVSPropertyOp21
 70
     1
102
RTVSPropertyOp22
 70
     1
102
RTVSPropertyOp23
 70
     1
102
RTVSPropertyOp24
 70
     1
102
RTVSPropertyOp25
 70
     1
102
RTVSPropertyOp26
 70
     1
102
RTVSPropertyOp27
 70
     1
102
RTVSPropertyOp28
 70
     1
102
RTVSPropertyOp29
 70
     1
102
RTVSPropertyOp30
 70
     1
102
RTVSPropertyOp31
 70
     1
102
RTVSPropertyOp32
 70
     1
102
RTVSPropertyOp33
 70
     1
102
RTVSPropertyOp34
 70
     1
102
RTVSPropertyOp35
 70
     1
102
RTVSPropertyOp36
 70
     1
102
RTVSPropertyOp37
 70
     1
102
RTVSPropertyOp38
 70
     1
102
RTVSPropertyOp39
 70
     1
102
RTVSPropertyOp40
 70
     1
102
RTVSPropertyOp41
 70
     1
102
RTVSPropertyOp42
 70
     1
102
RTVSPropertyOp43
 70
     1
102
RTVSPropertyOp44
 70
     1
102
RTVSPropertyOp45
 70
     1
102
RTVSPropertyOp46
 70
     1
102
RTVSPropertyOp47
 70
     1
102
RTVSPropertyOp48
 70
     1
102
RTVSPropertyOp49
 70
     1
102
RTVSPropertyOp50
 70
     1
102
RTVSPropertyOp51
 70
     0
102
RTVSPropertyOp52
 70
     0
102
RTVSPropertyOp53
 70
     1
102
RTVSPropertyOp54
 70
     1
102
RTVSPropertyOp55
 70
     1
102
RTVSPropertyOp56
 70
     1
102
RTVSPropertyOp57
 70
     1
102
RTVSPropertyOp58
 70
     1
102
RTVSPropertyOp59
 70
     1
102
RTVSPropertyOp60
 70
     1
102
RTVSPropertyOp61
 70
     1
102
RTVSPropertyOp62
 70
     1
  0
XRECORD
  5
9E083
102
{ACAD_REACTORS
330
9E082
102
}
330
9E082
100
AcDbXrecord
280
     1
102
RTVSPost2010Prop28
280
     0
102
RTVSPost2010PropOp28
 70
     0
102
RTVSPost2010Prop29
280
     1
102
RTVSPost2010PropOp29
 70
     0
102
RTVSPost2010Prop30
280
     1
102
RTVSPost2010PropOp30
 70
     0
102
RTVSPost2010Prop31
280
     0
102
RTVSPost2010PropOp31
 70
     0
102
RTVSPost2010Prop32
280
     0
102
RTVSPost2010PropOp32
 70
     0
102
RTVSPost2010Prop33
280
     0
102
RTVSPost2010PropOp33
 70
     0
102
RTVSPost2010Prop34
280
     0
102
RTVSPost2010PropOp34
 70
     0
102
RTVSPost2010Prop35
280
     0
102
RTVSPost2010PropOp35
 70
     0
102
RTVSPost2010Prop36
280
     0
102
RTVSPost2010PropOp36
 70
     0
102
RTVSPost2010Prop37
 90
       50
102
RTVSPost2010PropOp37
 70
     0
102
RTVSPost2010Prop38
140
0.0
102
RTVSPost2010PropOp38
 70
     0
102
RTVSPost2010Prop39
140
1.0
102
RTVSPost2010PropOp39
 70
     0
102
RTVSPost2010Prop40
 90
        0
102
RTVSPost2010PropOp40
 70
     0
102
RTVSPost2010Prop41ColorIndex
 90
       18
102
RTVSPost2010Prop41ColorRGB
 90
        0
102
RTVSPost2010PropOp41
 70
     0
102
RTVSPost2010Prop42
 90
       50
102
RTVSPost2010PropOp42
 70
     0
102
RTVSPost2010Prop43
 90
        3
102
RTVSPost2010PropOp43
 70
     0
102
RTVSPost2010Prop44ColorIndex
 90
        5
102
RTVSPost2010Prop44ColorRGB
 90
      255
102
RTVSPost2010PropOp44
 70
     0
102
RTVSPost2010Prop45
280
     0
102
RTVSPost2010PropOp45
 70
     0
102
RTVSPost2010Prop46
 90
       50
102
RTVSPost2010PropOp46
 70
     0
102
RTVSPost2010Prop47
 90
       50
102
RTVSPost2010PropOp47
 70
     0
102
RTVSPost2010Prop48
 90
       50
102
RTVSPost2010PropOp48
 70
     0
102
RTVSPost2010Prop49
280
     0
102
RTVSPost2010PropOp49
 70
     0
102
RTVSPost2010Prop50
 90
       50
102
RTVSPost2010PropOp50
 70
     0
102
RTVSPost2010Prop51ColorIndex
 90
      256
102
RTVSPost2010Prop51ColorRGB
 90
-16777216
102
RTVSPost2010PropOp51
 70
     0
102
RTVSPost2010Prop52
140
1.0
102
RTVSPost2010PropOp52
 70
     0
102
RTVSPost2010Prop53
 90
        2
102
RTVSPost2010PropOp53
 70
     0
102
RTVSPost2010Prop54
  1
strokes_ogs.tif
102
RTVSPost2010PropOp54
 70
     0
102
RTVSPost2010Prop55
280
     0
102
RTVSPost2010PropOp55
 70
     0
102
RTVSPost2010Prop56
140
1.0
102
RTVSPost2010PropOp56
 70
     0
102
RTVSPost2010Prop57
140
1.0
102
RTVSPost2010PropOp57
 70
     0
102
RTVSPropertyOp0
 70
     0
102
RTVSPropertyOp1
 70
     0
102
RTVSPropertyOp2
 70
     0
102
RTVSPropertyOp3
 70
     0
102
RTVSPropertyOp4
 70
     0
102
RTVSPropertyOp5
 70
     0
102
RTVSPropertyOp6
 70
     0
102
RTVSPropertyOp7
 70
     0
102
RTVSPropertyOp8
 70
     0
102
RTVSPropertyOp9
 70
     0
102
RTVSPropertyOp10
 70
     0
102
RTVSPropertyOp11
 70
     0
102
RTVSPropertyOp12
 70
     0
102
RTVSPropertyOp13
 70
     0
102
RTVSPropertyOp14
 70
     2
102
RTVSPropertyOp15
 70
     0
102
RTVSPropertyOp16
 70
     0
102
RTVSPropertyOp17
 70
     0
102
RTVSPropertyOp18
 70
     0
102
RTVSPropertyOp19
 70
     0
102
RTVSPropertyOp20
 70
     0
102
RTVSPropertyOp21
 70
     0
102
RTVSPropertyOp22
 70
     0
102
RTVSPropertyOp23
 70
     0
102
RTVSPropertyOp24
 70
     0
102
RTVSPropertyOp25
 70
     0
102
RTVSPropertyOp26
 70
     0
102
RTVSPropertyOp27
 70
     0
102
RTVSPropertyOp28
 70
     0
102
RTVSPropertyOp29
 70
     0
102
RTVSPropertyOp30
 70
     0
102
RTVSPropertyOp31
 70
     0
102
RTVSPropertyOp32
 70
     0
102
RTVSPropertyOp33
 70
     0
102
RTVSPropertyOp34
 70
     0
102
RTVSPropertyOp35
 70
     0
102
RTVSPropertyOp36
 70
     0
102
RTVSPropertyOp37
 70
     0
102
RTVSPropertyOp38
 70
     0
102
RTVSPropertyOp39
 70
     0
102
RTVSPropertyOp40
 70
     0
102
RTVSPropertyOp41
 70
     0
102
RTVSPropertyOp42
 70
     0
102
RTVSPropertyOp43
 70
     0
102
RTVSPropertyOp44
 70
     0
102
RTVSPropertyOp45
 70
     0
102
RTVSPropertyOp46
 70
     0
102
RTVSPropertyOp47
 70
     0
102
RTVSPropertyOp48
 70
     0
102
RTVSPropertyOp49
 70
     0
102
RTVSPropertyOp50
 70
     0
102
RTVSPropertyOp51
 70
     0
102
RTVSPropertyOp52
 70
     0
102
RTVSPropertyOp53
 70
     0
102
RTVSPropertyOp54
 70
     0
102
RTVSPropertyOp55
 70
     0
102
RTVSPropertyOp56
 70
     0
102
RTVSPropertyOp57
 70
     0
102
RTVSPropertyOp58
 70
     1
102
RTVSPropertyOp59
 70
     1
102
RTVSPropertyOp60
 70
     1
102
RTVSPropertyOp61
 70
     1
102
RTVSPropertyOp62
 70
     1
  0
XRECORD
  5
9E07D
102
{ACAD_REACTORS
330
9E07C
102
}
330
9E07C
100
AcDbXrecord
280
     1
102
RTVSPost2010Prop28
280
     0
102
RTVSPost2010PropOp28
 70
     1
102
RTVSPost2010Prop29
280
     1
102
RTVSPost2010PropOp29
 70
     1
102
RTVSPost2010Prop30
280
     1
102
RTVSPost2010PropOp30
 70
     1
102
RTVSPost2010Prop31
280
     0
102
RTVSPost2010PropOp31
 70
     1
102
RTVSPost2010Prop32
280
     0
102
RTVSPost2010PropOp32
 70
     1
102
RTVSPost2010Prop33
280
     0
102
RTVSPost2010PropOp33
 70
     1
102
RTVSPost2010Prop34
280
     0
102
RTVSPost2010PropOp34
 70
     1
102
RTVSPost2010Prop35
280
     0
102
RTVSPost2010PropOp35
 70
     1
102
RTVSPost2010Prop36
280
     0
102
RTVSPost2010PropOp36
 70
     1
102
RTVSPost2010Prop37
 90
       50
102
RTVSPost2010PropOp37
 70
     1
102
RTVSPost2010Prop38
140
0.0
102
RTVSPost2010PropOp38
 70
     1
102
RTVSPost2010Prop39
140
1.0
102
RTVSPost2010PropOp39
 70
     1
102
RTVSPost2010Prop40
 90
        0
102
RTVSPost2010PropOp40
 70
     1
102
RTVSPost2010Prop41ColorIndex
 90
       18
102
RTVSPost2010Prop41ColorRGB
 90
        0
102
RTVSPost2010PropOp41
 70
     1
102
RTVSPost2010Prop42
 90
       50
102
RTVSPost2010PropOp42
 70
     1
102
RTVSPost2010Prop43
 90
        3
102
RTVSPost2010PropOp43
 70
     1
102
RTVSPost2010Prop44ColorIndex
 90
        5
102
RTVSPost2010Prop44ColorRGB
 90
      255
102
RTVSPost2010PropOp44
 70
     1
102
RTVSPost2010Prop45
280
     0
102
RTVSPost2010PropOp45
 70
     1
102
RTVSPost2010Prop46
 90
       50
102
RTVSPost2010PropOp46
 70
     1
102
RTVSPost2010Prop47
 90
       50
102
RTVSPost2010PropOp47
 70
     1
102
RTVSPost2010Prop48
 90
       50
102
RTVSPost2010PropOp48
 70
     1
102
RTVSPost2010Prop49
280
     0
102
RTVSPost2010PropOp49
 70
     1
102
RTVSPost2010Prop50
 90
       50
102
RTVSPost2010PropOp50
 70
     1
102
RTVSPost2010Prop51ColorIndex
 90
      256
102
RTVSPost2010Prop51ColorRGB
 90
-16777216
102
RTVSPost2010PropOp51
 70
     0
102
RTVSPost2010Prop52
140
1.0
102
RTVSPost2010PropOp52
 70
     0
102
RTVSPost2010Prop53
 90
        2
102
RTVSPost2010PropOp53
 70
     1
102
RTVSPost2010Prop54
  1
strokes_ogs.tif
102
RTVSPost2010PropOp54
 70
     1
102
RTVSPost2010Prop55
280
     0
102
RTVSPost2010PropOp55
 70
     1
102
RTVSPost2010Prop56
140
1.0
102
RTVSPost2010PropOp56
 70
     1
102
RTVSPost2010Prop57
140
1.0
102
RTVSPost2010PropOp57
 70
     1
102
RTVSPropertyOp0
 70
     1
102
RTVSPropertyOp1
 70
     1
102
RTVSPropertyOp2
 70
     1
102
RTVSPropertyOp3
 70
     1
102
RTVSPropertyOp4
 70
     1
102
RTVSPropertyOp5
 70
     1
102
RTVSPropertyOp6
 70
     1
102
RTVSPropertyOp7
 70
     1
102
RTVSPropertyOp8
 70
     1
102
RTVSPropertyOp9
 70
     1
102
RTVSPropertyOp10
 70
     1
102
RTVSPropertyOp11
 70
     1
102
RTVSPropertyOp12
 70
     1
102
RTVSPropertyOp13
 70
     1
102
RTVSPropertyOp14
 70
     1
102
RTVSPropertyOp15
 70
     1
102
RTVSPropertyOp16
 70
     1
102
RTVSPropertyOp17
 70
     1
102
RTVSPropertyOp18
 70
     1
102
RTVSPropertyOp19
 70
     1
102
RTVSPropertyOp20
 70
     1
102
RTVSPropertyOp21
 70
     1
102
RTVSPropertyOp22
 70
     1
102
RTVSPropertyOp23
 70
     1
102
RTVSPropertyOp24
 70
     1
102
RTVSPropertyOp25
 70
     1
102
RTVSPropertyOp26
 70
     1
102
RTVSPropertyOp27
 70
     1
102
RTVSPropertyOp28
 70
     1
102
RTVSPropertyOp29
 70
     1
102
RTVSPropertyOp30
 70
     1
102
RTVSPropertyOp31
 70
     1
102
RTVSPropertyOp32
 70
     1
102
RTVSPropertyOp33
 70
     1
102
RTVSPropertyOp34
 70
     1
102
RTVSPropertyOp35
 70
     1
102
RTVSPropertyOp36
 70
     1
102
RTVSPropertyOp37
 70
     1
102
RTVSPropertyOp38
 70
     1
102
RTVSPropertyOp39
 70
     1
102
RTVSPropertyOp40
 70
     1
102
RTVSPropertyOp41
 70
     1
102
RTVSPropertyOp42
 70
     1
102
RTVSPropertyOp43
 70
     1
102
RTVSPropertyOp44
 70
     1
102
RTVSPropertyOp45
 70
     1
102
RTVSPropertyOp46
 70
     1
102
RTVSPropertyOp47
 70
     1
102
RTVSPropertyOp48
 70
     1
102
RTVSPropertyOp49
 70
     1
102
RTVSPropertyOp50
 70
     1
102
RTVSPropertyOp51
 70
     0
102
RTVSPropertyOp52
 70
     0
102
RTVSPropertyOp53
 70
     1
102
RTVSPropertyOp54
 70
     1
102
RTVSPropertyOp55
 70
     1
102
RTVSPropertyOp56
 70
     1
102
RTVSPropertyOp57
 70
     1
102
RTVSPropertyOp58
 70
     1
102
RTVSPropertyOp59
 70
     1
102
RTVSPropertyOp60
 70
     1
102
RTVSPropertyOp61
 70
     1
102
RTVSPropertyOp62
 70
     1
  0
XRECORD
  5
9E085
102
{ACAD_REACTORS
330
9E084
102
}
330
9E084
100
AcDbXrecord
280
     1
102
RTVSPost2010Prop28
280
     0
102
RTVSPost2010PropOp28
 70
     0
102
RTVSPost2010Prop29
280
     1
102
RTVSPost2010PropOp29
 70
     0
102
RTVSPost2010Prop30
280
     1
102
RTVSPost2010PropOp30
 70
     0
102
RTVSPost2010Prop31
280
     0
102
RTVSPost2010PropOp31
 70
     0
102
RTVSPost2010Prop32
280
     0
102
RTVSPost2010PropOp32
 70
     0
102
RTVSPost2010Prop33
280
     0
102
RTVSPost2010PropOp33
 70
     0
102
RTVSPost2010Prop34
280
     0
102
RTVSPost2010PropOp34
 70
     0
102
RTVSPost2010Prop35
280
     0
102
RTVSPost2010PropOp35
 70
     0
102
RTVSPost2010Prop36
280
     0
102
RTVSPost2010PropOp36
 70
     0
102
RTVSPost2010Prop37
 90
       50
102
RTVSPost2010PropOp37
 70
     0
102
RTVSPost2010Prop38
140
0.0
102
RTVSPost2010PropOp38
 70
     0
102
RTVSPost2010Prop39
140
1.0
102
RTVSPost2010PropOp39
 70
     0
102
RTVSPost2010Prop40
 90
        0
102
RTVSPost2010PropOp40
 70
     0
102
RTVSPost2010Prop41ColorIndex
 90
       18
102
RTVSPost2010Prop41ColorRGB
 90
        0
102
RTVSPost2010PropOp41
 70
     0
102
RTVSPost2010Prop42
 90
       50
102
RTVSPost2010PropOp42
 70
     0
102
RTVSPost2010Prop43
 90
        3
102
RTVSPost2010PropOp43
 70
     0
102
RTVSPost2010Prop44ColorIndex
 90
        5
102
RTVSPost2010Prop44ColorRGB
 90
      255
102
RTVSPost2010PropOp44
 70
     0
102
RTVSPost2010Prop45
280
     0
102
RTVSPost2010PropOp45
 70
     0
102
RTVSPost2010Prop46
 90
       50
102
RTVSPost2010PropOp46
 70
     0
102
RTVSPost2010Prop47
 90
       50
102
RTVSPost2010PropOp47
 70
     0
102
RTVSPost2010Prop48
 90
       50
102
RTVSPost2010PropOp48
 70
     0
102
RTVSPost2010Prop49
280
     0
102
RTVSPost2010PropOp49
 70
     0
102
RTVSPost2010Prop50
 90
       50
102
RTVSPost2010PropOp50
 70
     0
102
RTVSPost2010Prop51ColorIndex
 90
      256
102
RTVSPost2010Prop51ColorRGB
 90
-16777216
102
RTVSPost2010PropOp51
 70
     0
102
RTVSPost2010Prop52
140
1.0
102
RTVSPost2010PropOp52
 70
     0
102
RTVSPost2010Prop53
 90
        2
102
RTVSPost2010PropOp53
 70
     0
102
RTVSPost2010Prop54
  1
strokes_ogs.tif
102
RTVSPost2010PropOp54
 70
     0
102
RTVSPost2010Prop55
280
     0
102
RTVSPost2010PropOp55
 70
     0
102
RTVSPost2010Prop56
140
1.0
102
RTVSPost2010PropOp56
 70
     0
102
RTVSPost2010Prop57
140
1.0
102
RTVSPost2010PropOp57
 70
     0
102
RTVSPropertyOp0
 70
     0
102
RTVSPropertyOp1
 70
     0
102
RTVSPropertyOp2
 70
     0
102
RTVSPropertyOp3
 70
     0
102
RTVSPropertyOp4
 70
     0
102
RTVSPropertyOp5
 70
     0
102
RTVSPropertyOp6
 70
     0
102
RTVSPropertyOp7
 70
     0
102
RTVSPropertyOp8
 70
     0
102
RTVSPropertyOp9
 70
     0
102
RTVSPropertyOp10
 70
     0
102
RTVSPropertyOp11
 70
     0
102
RTVSPropertyOp12
 70
     0
102
RTVSPropertyOp13
 70
     0
102
RTVSPropertyOp14
 70
     2
102
RTVSPropertyOp15
 70
     0
102
RTVSPropertyOp16
 70
     0
102
RTVSPropertyOp17
 70
     0
102
RTVSPropertyOp18
 70
     0
102
RTVSPropertyOp19
 70
     0
102
RTVSPropertyOp20
 70
     0
102
RTVSPropertyOp21
 70
     0
102
RTVSPropertyOp22
 70
     0
102
RTVSPropertyOp23
 70
     0
102
RTVSPropertyOp24
 70
     0
102
RTVSPropertyOp25
 70
     0
102
RTVSPropertyOp26
 70
     0
102
RTVSPropertyOp27
 70
     0
102
RTVSPropertyOp28
 70
     0
102
RTVSPropertyOp29
 70
     0
102
RTVSPropertyOp30
 70
     0
102
RTVSPropertyOp31
 70
     0
102
RTVSPropertyOp32
 70
     0
102
RTVSPropertyOp33
 70
     0
102
RTVSPropertyOp34
 70
     0
102
RTVSPropertyOp35
 70
     0
102
RTVSPropertyOp36
 70
     0
102
RTVSPropertyOp37
 70
     0
102
RTVSPropertyOp38
 70
     0
102
RTVSPropertyOp39
 70
     0
102
RTVSPropertyOp40
 70
     0
102
RTVSPropertyOp41
 70
     0
102
RTVSPropertyOp42
 70
     0
102
RTVSPropertyOp43
 70
     0
102
RTVSPropertyOp44
 70
     0
102
RTVSPropertyOp45
 70
     0
102
RTVSPropertyOp46
 70
     0
102
RTVSPropertyOp47
 70
     0
102
RTVSPropertyOp48
 70
     0
102
RTVSPropertyOp49
 70
     0
102
RTVSPropertyOp50
 70
     0
102
RTVSPropertyOp51
 70
     0
102
RTVSPropertyOp52
 70
     0
102
RTVSPropertyOp53
 70
     0
102
RTVSPropertyOp54
 70
     0
102
RTVSPropertyOp55
 70
     0
102
RTVSPropertyOp56
 70
     0
102
RTVSPropertyOp57
 70
     0
102
RTVSPropertyOp58
 70
     1
102
RTVSPropertyOp59
 70
     1
102
RTVSPropertyOp60
 70
     1
102
RTVSPropertyOp61
 70
     1
102
RTVSPropertyOp62
 70
     1
  0
XRECORD
  5
9E073
102
{ACAD_REACTORS
330
9E072
102
}
330
9E072
100
AcDbXrecord
280
     1
102
RTVSPost2010Prop28
280
     0
102
RTVSPost2010PropOp28
 70
     1
102
RTVSPost2010Prop29
280
     1
102
RTVSPost2010PropOp29
 70
     1
102
RTVSPost2010Prop30
280
     1
102
RTVSPost2010PropOp30
 70
     1
102
RTVSPost2010Prop31
280
     0
102
RTVSPost2010PropOp31
 70
     1
102
RTVSPost2010Prop32
280
     0
102
RTVSPost2010PropOp32
 70
     1
102
RTVSPost2010Prop33
280
     0
102
RTVSPost2010PropOp33
 70
     1
102
RTVSPost2010Prop34
280
     0
102
RTVSPost2010PropOp34
 70
     1
102
RTVSPost2010Prop35
280
     0
102
RTVSPost2010PropOp35
 70
     1
102
RTVSPost2010Prop36
280
     0
102
RTVSPost2010PropOp36
 70
     1
102
RTVSPost2010Prop37
 90
       50
102
RTVSPost2010PropOp37
 70
     1
102
RTVSPost2010Prop38
140
0.0
102
RTVSPost2010PropOp38
 70
     1
102
RTVSPost2010Prop39
140
1.0
102
RTVSPost2010PropOp39
 70
     1
102
RTVSPost2010Prop40
 90
        0
102
RTVSPost2010PropOp40
 70
     1
102
RTVSPost2010Prop41ColorIndex
 90
       18
102
RTVSPost2010Prop41ColorRGB
 90
        0
102
RTVSPost2010PropOp41
 70
     1
102
RTVSPost2010Prop42
 90
       50
102
RTVSPost2010PropOp42
 70
     1
102
RTVSPost2010Prop43
 90
        3
102
RTVSPost2010PropOp43
 70
     1
102
RTVSPost2010Prop44ColorIndex
 90
        5
102
RTVSPost2010Prop44ColorRGB
 90
      255
102
RTVSPost2010PropOp44
 70
     1
102
RTVSPost2010Prop45
280
     0
102
RTVSPost2010PropOp45
 70
     1
102
RTVSPost2010Prop46
 90
       50
102
RTVSPost2010PropOp46
 70
     1
102
RTVSPost2010Prop47
 90
       50
102
RTVSPost2010PropOp47
 70
     1
102
RTVSPost2010Prop48
 90
       50
102
RTVSPost2010PropOp48
 70
     1
102
RTVSPost2010Prop49
280
     0
102
RTVSPost2010PropOp49
 70
     1
102
RTVSPost2010Prop50
 90
       50
102
RTVSPost2010PropOp50
 70
     1
102
RTVSPost2010Prop51ColorIndex
 90
      256
102
RTVSPost2010Prop51ColorRGB
 90
-16777216
102
RTVSPost2010PropOp51
 70
     0
102
RTVSPost2010Prop52
140
1.0
102
RTVSPost2010PropOp52
 70
     0
102
RTVSPost2010Prop53
 90
        2
102
RTVSPost2010PropOp53
 70
     1
102
RTVSPost2010Prop54
  1
strokes_ogs.tif
102
RTVSPost2010PropOp54
 70
     1
102
RTVSPost2010Prop55
280
     0
102
RTVSPost2010PropOp55
 70
     1
102
RTVSPost2010Prop56
140
1.0
102
RTVSPost2010PropOp56
 70
     1
102
RTVSPost2010Prop57
140
1.0
102
RTVSPost2010PropOp57
 70
     1
102
RTVSPropertyOp0
 70
     1
102
RTVSPropertyOp1
 70
     1
102
RTVSPropertyOp2
 70
     1
102
RTVSPropertyOp3
 70
     1
102
RTVSPropertyOp4
 70
     1
102
RTVSPropertyOp5
 70
     1
102
RTVSPropertyOp6
 70
     1
102
RTVSPropertyOp7
 70
     1
102
RTVSPropertyOp8
 70
     1
102
RTVSPropertyOp9
 70
     1
102
RTVSPropertyOp10
 70
     1
102
RTVSPropertyOp11
 70
     1
102
RTVSPropertyOp12
 70
     1
102
RTVSPropertyOp13
 70
     1
102
RTVSPropertyOp14
 70
     1
102
RTVSPropertyOp15
 70
     1
102
RTVSPropertyOp16
 70
     1
102
RTVSPropertyOp17
 70
     1
102
RTVSPropertyOp18
 70
     1
102
RTVSPropertyOp19
 70
     1
102
RTVSPropertyOp20
 70
     1
102
RTVSPropertyOp21
 70
     1
102
RTVSPropertyOp22
 70
     1
102
RTVSPropertyOp23
 70
     1
102
RTVSPropertyOp24
 70
     1
102
RTVSPropertyOp25
 70
     1
102
RTVSPropertyOp26
 70
     1
102
RTVSPropertyOp27
 70
     1
102
RTVSPropertyOp28
 70
     1
102
RTVSPropertyOp29
 70
     1
102
RTVSPropertyOp30
 70
     1
102
RTVSPropertyOp31
 70
     1
102
RTVSPropertyOp32
 70
     1
102
RTVSPropertyOp33
 70
     1
102
RTVSPropertyOp34
 70
     1
102
RTVSPropertyOp35
 70
     1
102
RTVSPropertyOp36
 70
     1
102
RTVSPropertyOp37
 70
     1
102
RTVSPropertyOp38
 70
     1
102
RTVSPropertyOp39
 70
     1
102
RTVSPropertyOp40
 70
     1
102
RTVSPropertyOp41
 70
     1
102
RTVSPropertyOp42
 70
     1
102
RTVSPropertyOp43
 70
     1
102
RTVSPropertyOp44
 70
     1
102
RTVSPropertyOp45
 70
     1
102
RTVSPropertyOp46
 70
     1
102
RTVSPropertyOp47
 70
     1
102
RTVSPropertyOp48
 70
     1
102
RTVSPropertyOp49
 70
     1
102
RTVSPropertyOp50
 70
     1
102
RTVSPropertyOp51
 70
     0
102
RTVSPropertyOp52
 70
     0
102
RTVSPropertyOp53
 70
     1
102
RTVSPropertyOp54
 70
     1
102
RTVSPropertyOp55
 70
     1
102
RTVSPropertyOp56
 70
     1
102
RTVSPropertyOp57
 70
     1
102
RTVSPropertyOp58
 70
     1
102
RTVSPropertyOp59
 70
     1
102
RTVSPropertyOp60
 70
     1
102
RTVSPropertyOp61
 70
     1
102
RTVSPropertyOp62
 70
     1
  0
XRECORD
  5
9E091
102
{ACAD_REACTORS
330
9E090
102
}
330
9E090
100
AcDbXrecord
280
     1
102
RTVSPost2010Prop28
280
     0
102
RTVSPost2010PropOp28
 70
     1
102
RTVSPost2010Prop29
280
     1
102
RTVSPost2010PropOp29
 70
     1
102
RTVSPost2010Prop30
280
     1
102
RTVSPost2010PropOp30
 70
     1
102
RTVSPost2010Prop31
280
     0
102
RTVSPost2010PropOp31
 70
     1
102
RTVSPost2010Prop32
280
     0
102
RTVSPost2010PropOp32
 70
     1
102
RTVSPost2010Prop33
280
     0
102
RTVSPost2010PropOp33
 70
     1
102
RTVSPost2010Prop34
280
     0
102
RTVSPost2010PropOp34
 70
     1
102
RTVSPost2010Prop35
280
     0
102
RTVSPost2010PropOp35
 70
     1
102
RTVSPost2010Prop36
280
     0
102
RTVSPost2010PropOp36
 70
     1
102
RTVSPost2010Prop37
 90
       50
102
RTVSPost2010PropOp37
 70
     1
102
RTVSPost2010Prop38
140
0.0
102
RTVSPost2010PropOp38
 70
     1
102
RTVSPost2010Prop39
140
1.0
102
RTVSPost2010PropOp39
 70
     1
102
RTVSPost2010Prop40
 90
        0
102
RTVSPost2010PropOp40
 70
     1
102
RTVSPost2010Prop41ColorIndex
 90
       18
102
RTVSPost2010Prop41ColorRGB
 90
        0
102
RTVSPost2010PropOp41
 70
     1
102
RTVSPost2010Prop42
 90
       50
102
RTVSPost2010PropOp42
 70
     1
102
RTVSPost2010Prop43
 90
        3
102
RTVSPost2010PropOp43
 70
     1
102
RTVSPost2010Prop44ColorIndex
 90
        5
102
RTVSPost2010Prop44ColorRGB
 90
      255
102
RTVSPost2010PropOp44
 70
     1
102
RTVSPost2010Prop45
280
     0
102
RTVSPost2010PropOp45
 70
     1
102
RTVSPost2010Prop46
 90
       50
102
RTVSPost2010PropOp46
 70
     1
102
RTVSPost2010Prop47
 90
       50
102
RTVSPost2010PropOp47
 70
     1
102
RTVSPost2010Prop48
 90
       50
102
RTVSPost2010PropOp48
 70
     1
102
RTVSPost2010Prop49
280
     0
102
RTVSPost2010PropOp49
 70
     1
102
RTVSPost2010Prop50
 90
       50
102
RTVSPost2010PropOp50
 70
     1
102
RTVSPost2010Prop51ColorIndex
 90
      256
102
RTVSPost2010Prop51ColorRGB
 90
-16777216
102
RTVSPost2010PropOp51
 70
     0
102
RTVSPost2010Prop52
140
1.0
102
RTVSPost2010PropOp52
 70
     0
102
RTVSPost2010Prop53
 90
        2
102
RTVSPost2010PropOp53
 70
     1
102
RTVSPost2010Prop54
  1
strokes_ogs.tif
102
RTVSPost2010PropOp54
 70
     1
102
RTVSPost2010Prop55
280
     0
102
RTVSPost2010PropOp55
 70
     1
102
RTVSPost2010Prop56
140
1.0
102
RTVSPost2010PropOp56
 70
     1
102
RTVSPost2010Prop57
140
1.0
102
RTVSPost2010PropOp57
 70
     1
102
RTVSPropertyOp0
 70
     1
102
RTVSPropertyOp1
 70
     1
102
RTVSPropertyOp2
 70
     1
102
RTVSPropertyOp3
 70
     1
102
RTVSPropertyOp4
 70
     1
102
RTVSPropertyOp5
 70
     1
102
RTVSPropertyOp6
 70
     1
102
RTVSPropertyOp7
 70
     1
102
RTVSPropertyOp8
 70
     1
102
RTVSPropertyOp9
 70
     1
102
RTVSPropertyOp10
 70
     1
102
RTVSPropertyOp11
 70
     1
102
RTVSPropertyOp12
 70
     1
102
RTVSPropertyOp13
 70
     1
102
RTVSPropertyOp14
 70
     1
102
RTVSPropertyOp15
 70
     1
102
RTVSPropertyOp16
 70
     1
102
RTVSPropertyOp17
 70
     1
102
RTVSPropertyOp18
 70
     1
102
RTVSPropertyOp19
 70
     1
102
RTVSPropertyOp20
 70
     1
102
RTVSPropertyOp21
 70
     1
102
RTVSPropertyOp22
 70
     1
102
RTVSPropertyOp23
 70
     1
102
RTVSPropertyOp24
 70
     1
102
RTVSPropertyOp25
 70
     1
102
RTVSPropertyOp26
 70
     1
102
RTVSPropertyOp27
 70
     1
102
RTVSPropertyOp28
 70
     1
102
RTVSPropertyOp29
 70
     1
102
RTVSPropertyOp30
 70
     1
102
RTVSPropertyOp31
 70
     1
102
RTVSPropertyOp32
 70
     1
102
RTVSPropertyOp33
 70
     1
102
RTVSPropertyOp34
 70
     1
102
RTVSPropertyOp35
 70
     1
102
RTVSPropertyOp36
 70
     1
102
RTVSPropertyOp37
 70
     1
102
RTVSPropertyOp38
 70
     1
102
RTVSPropertyOp39
 70
     1
102
RTVSPropertyOp40
 70
     1
102
RTVSPropertyOp41
 70
     1
102
RTVSPropertyOp42
 70
     1
102
RTVSPropertyOp43
 70
     1
102
RTVSPropertyOp44
 70
     1
102
RTVSPropertyOp45
 70
     1
102
RTVSPropertyOp46
 70
     1
102
RTVSPropertyOp47
 70
     1
102
RTVSPropertyOp48
 70
     1
102
RTVSPropertyOp49
 70
     1
102
RTVSPropertyOp50
 70
     1
102
RTVSPropertyOp51
 70
     0
102
RTVSPropertyOp52
 70
     0
102
RTVSPropertyOp53
 70
     1
102
RTVSPropertyOp54
 70
     1
102
RTVSPropertyOp55
 70
     1
102
RTVSPropertyOp56
 70
     1
102
RTVSPropertyOp57
 70
     1
102
RTVSPropertyOp58
 70
     1
102
RTVSPropertyOp59
 70
     1
102
RTVSPropertyOp60
 70
     1
102
RTVSPropertyOp61
 70
     1
102
RTVSPropertyOp62
 70
     1
  0
XRECORD
  5
9E08F
102
{ACAD_REACTORS
330
9E08E
102
}
330
9E08E
100
AcDbXrecord
280
     1
102
RTVSPost2010Prop28
280
     0
102
RTVSPost2010PropOp28
 70
     1
102
RTVSPost2010Prop29
280
     1
102
RTVSPost2010PropOp29
 70
     1
102
RTVSPost2010Prop30
280
     1
102
RTVSPost2010PropOp30
 70
     1
102
RTVSPost2010Prop31
280
     0
102
RTVSPost2010PropOp31
 70
     1
102
RTVSPost2010Prop32
280
     0
102
RTVSPost2010PropOp32
 70
     1
102
RTVSPost2010Prop33
280
     0
102
RTVSPost2010PropOp33
 70
     1
102
RTVSPost2010Prop34
280
     0
102
RTVSPost2010PropOp34
 70
     1
102
RTVSPost2010Prop35
280
     0
102
RTVSPost2010PropOp35
 70
     1
102
RTVSPost2010Prop36
280
     0
102
RTVSPost2010PropOp36
 70
     1
102
RTVSPost2010Prop37
 90
       50
102
RTVSPost2010PropOp37
 70
     1
102
RTVSPost2010Prop38
140
0.0
102
RTVSPost2010PropOp38
 70
     1
102
RTVSPost2010Prop39
140
1.0
102
RTVSPost2010PropOp39
 70
     1
102
RTVSPost2010Prop40
 90
        0
102
RTVSPost2010PropOp40
 70
     1
102
RTVSPost2010Prop41ColorIndex
 90
       18
102
RTVSPost2010Prop41ColorRGB
 90
        0
102
RTVSPost2010PropOp41
 70
     1
102
RTVSPost2010Prop42
 90
       50
102
RTVSPost2010PropOp42
 70
     1
102
RTVSPost2010Prop43
 90
        3
102
RTVSPost2010PropOp43
 70
     1
102
RTVSPost2010Prop44ColorIndex
 90
        5
102
RTVSPost2010Prop44ColorRGB
 90
      255
102
RTVSPost2010PropOp44
 70
     1
102
RTVSPost2010Prop45
280
     0
102
RTVSPost2010PropOp45
 70
     1
102
RTVSPost2010Prop46
 90
       50
102
RTVSPost2010PropOp46
 70
     1
102
RTVSPost2010Prop47
 90
       50
102
RTVSPost2010PropOp47
 70
     1
102
RTVSPost2010Prop48
 90
       50
102
RTVSPost2010PropOp48
 70
     1
102
RTVSPost2010Prop49
280
     0
102
RTVSPost2010PropOp49
 70
     1
102
RTVSPost2010Prop50
 90
       50
102
RTVSPost2010PropOp50
 70
     1
102
RTVSPost2010Prop51ColorIndex
 90
      256
102
RTVSPost2010Prop51ColorRGB
 90
-16777216
102
RTVSPost2010PropOp51
 70
     0
102
RTVSPost2010Prop52
140
1.0
102
RTVSPost2010PropOp52
 70
     0
102
RTVSPost2010Prop53
 90
        2
102
RTVSPost2010PropOp53
 70
     1
102
RTVSPost2010Prop54
  1
strokes_ogs.tif
102
RTVSPost2010PropOp54
 70
     1
102
RTVSPost2010Prop55
280
     0
102
RTVSPost2010PropOp55
 70
     1
102
RTVSPost2010Prop56
140
1.0
102
RTVSPost2010PropOp56
 70
     1
102
RTVSPost2010Prop57
140
1.0
102
RTVSPost2010PropOp57
 70
     1
102
RTVSPropertyOp0
 70
     1
102
RTVSPropertyOp1
 70
     1
102
RTVSPropertyOp2
 70
     1
102
RTVSPropertyOp3
 70
     1
102
RTVSPropertyOp4
 70
     1
102
RTVSPropertyOp5
 70
     1
102
RTVSPropertyOp6
 70
     1
102
RTVSPropertyOp7
 70
     1
102
RTVSPropertyOp8
 70
     1
102
RTVSPropertyOp9
 70
     1
102
RTVSPropertyOp10
 70
     1
102
RTVSPropertyOp11
 70
     1
102
RTVSPropertyOp12
 70
     1
102
RTVSPropertyOp13
 70
     1
102
RTVSPropertyOp14
 70
     1
102
RTVSPropertyOp15
 70
     1
102
RTVSPropertyOp16
 70
     1
102
RTVSPropertyOp17
 70
     1
102
RTVSPropertyOp18
 70
     1
102
RTVSPropertyOp19
 70
     1
102
RTVSPropertyOp20
 70
     1
102
RTVSPropertyOp21
 70
     1
102
RTVSPropertyOp22
 70
     1
102
RTVSPropertyOp23
 70
     1
102
RTVSPropertyOp24
 70
     1
102
RTVSPropertyOp25
 70
     1
102
RTVSPropertyOp26
 70
     1
102
RTVSPropertyOp27
 70
     1
102
RTVSPropertyOp28
 70
     1
102
RTVSPropertyOp29
 70
     1
102
RTVSPropertyOp30
 70
     1
102
RTVSPropertyOp31
 70
     1
102
RTVSPropertyOp32
 70
     1
102
RTVSPropertyOp33
 70
     1
102
RTVSPropertyOp34
 70
     1
102
RTVSPropertyOp35
 70
     1
102
RTVSPropertyOp36
 70
     1
102
RTVSPropertyOp37
 70
     1
102
RTVSPropertyOp38
 70
     1
102
RTVSPropertyOp39
 70
     1
102
RTVSPropertyOp40
 70
     1
102
RTVSPropertyOp41
 70
     1
102
RTVSPropertyOp42
 70
     1
102
RTVSPropertyOp43
 70
     1
102
RTVSPropertyOp44
 70
     1
102
RTVSPropertyOp45
 70
     1
102
RTVSPropertyOp46
 70
     1
102
RTVSPropertyOp47
 70
     1
102
RTVSPropertyOp48
 70
     1
102
RTVSPropertyOp49
 70
     1
102
RTVSPropertyOp50
 70
     1
102
RTVSPropertyOp51
 70
     0
102
RTVSPropertyOp52
 70
     0
102
RTVSPropertyOp53
 70
     1
102
RTVSPropertyOp54
 70
     1
102
RTVSPropertyOp55
 70
     1
102
RTVSPropertyOp56
 70
     1
102
RTVSPropertyOp57
 70
     1
102
RTVSPropertyOp58
 70
     1
102
RTVSPropertyOp59
 70
     1
102
RTVSPropertyOp60
 70
     1
102
RTVSPropertyOp61
 70
     1
102
RTVSPropertyOp62
 70
     1
  0
XRECORD
  5
9E089
102
{ACAD_REACTORS
330
9E088
102
}
330
9E088
100
AcDbXrecord
280
     1
102
RTVSPost2010Prop28
280
     0
102
RTVSPost2010PropOp28
 70
     1
102
RTVSPost2010Prop29
280
     1
102
RTVSPost2010PropOp29
 70
     1
102
RTVSPost2010Prop30
280
     1
102
RTVSPost2010PropOp30
 70
     1
102
RTVSPost2010Prop31
280
     0
102
RTVSPost2010PropOp31
 70
     1
102
RTVSPost2010Prop32
280
     0
102
RTVSPost2010PropOp32
 70
     1
102
RTVSPost2010Prop33
280
     0
102
RTVSPost2010PropOp33
 70
     1
102
RTVSPost2010Prop34
280
     0
102
RTVSPost2010PropOp34
 70
     1
102
RTVSPost2010Prop35
280
     0
102
RTVSPost2010PropOp35
 70
     1
102
RTVSPost2010Prop36
280
     0
102
RTVSPost2010PropOp36
 70
     1
102
RTVSPost2010Prop37
 90
       50
102
RTVSPost2010PropOp37
 70
     1
102
RTVSPost2010Prop38
140
0.0
102
RTVSPost2010PropOp38
 70
     1
102
RTVSPost2010Prop39
140
1.0
102
RTVSPost2010PropOp39
 70
     1
102
RTVSPost2010Prop40
 90
        0
102
RTVSPost2010PropOp40
 70
     1
102
RTVSPost2010Prop41ColorIndex
 90
       18
102
RTVSPost2010Prop41ColorRGB
 90
        0
102
RTVSPost2010PropOp41
 70
     1
102
RTVSPost2010Prop42
 90
       50
102
RTVSPost2010PropOp42
 70
     1
102
RTVSPost2010Prop43
 90
        3
102
RTVSPost2010PropOp43
 70
     1
102
RTVSPost2010Prop44ColorIndex
 90
        5
102
RTVSPost2010Prop44ColorRGB
 90
      255
102
RTVSPost2010PropOp44
 70
     1
102
RTVSPost2010Prop45
280
     0
102
RTVSPost2010PropOp45
 70
     1
102
RTVSPost2010Prop46
 90
       50
102
RTVSPost2010PropOp46
 70
     1
102
RTVSPost2010Prop47
 90
       50
102
RTVSPost2010PropOp47
 70
     1
102
RTVSPost2010Prop48
 90
       50
102
RTVSPost2010PropOp48
 70
     1
102
RTVSPost2010Prop49
280
     0
102
RTVSPost2010PropOp49
 70
     1
102
RTVSPost2010Prop50
 90
       50
102
RTVSPost2010PropOp50
 70
     1
102
RTVSPost2010Prop51ColorIndex
 90
      256
102
RTVSPost2010Prop51ColorRGB
 90
-16777216
102
RTVSPost2010PropOp51
 70
     0
102
RTVSPost2010Prop52
140
1.0
102
RTVSPost2010PropOp52
 70
     0
102
RTVSPost2010Prop53
 90
        2
102
RTVSPost2010PropOp53
 70
     1
102
RTVSPost2010Prop54
  1
strokes_ogs.tif
102
RTVSPost2010PropOp54
 70
     1
102
RTVSPost2010Prop55
280
     0
102
RTVSPost2010PropOp55
 70
     1
102
RTVSPost2010Prop56
140
1.0
102
RTVSPost2010PropOp56
 70
     1
102
RTVSPost2010Prop57
140
1.0
102
RTVSPost2010PropOp57
 70
     1
102
RTVSPropertyOp0
 70
     1
102
RTVSPropertyOp1
 70
     1
102
RTVSPropertyOp2
 70
     1
102
RTVSPropertyOp3
 70
     1
102
RTVSPropertyOp4
 70
     1
102
RTVSPropertyOp5
 70
     1
102
RTVSPropertyOp6
 70
     1
102
RTVSPropertyOp7
 70
     1
102
RTVSPropertyOp8
 70
     1
102
RTVSPropertyOp9
 70
     1
102
RTVSPropertyOp10
 70
     1
102
RTVSPropertyOp11
 70
     1
102
RTVSPropertyOp12
 70
     1
102
RTVSPropertyOp13
 70
     1
102
RTVSPropertyOp14
 70
     1
102
RTVSPropertyOp15
 70
     1
102
RTVSPropertyOp16
 70
     1
102
RTVSPropertyOp17
 70
     1
102
RTVSPropertyOp18
 70
     1
102
RTVSPropertyOp19
 70
     1
102
RTVSPropertyOp20
 70
     1
102
RTVSPropertyOp21
 70
     1
102
RTVSPropertyOp22
 70
     1
102
RTVSPropertyOp23
 70
     1
102
RTVSPropertyOp24
 70
     1
102
RTVSPropertyOp25
 70
     1
102
RTVSPropertyOp26
 70
     1
102
RTVSPropertyOp27
 70
     1
102
RTVSPropertyOp28
 70
     1
102
RTVSPropertyOp29
 70
     1
102
RTVSPropertyOp30
 70
     1
102
RTVSPropertyOp31
 70
     1
102
RTVSPropertyOp32
 70
     1
102
RTVSPropertyOp33
 70
     1
102
RTVSPropertyOp34
 70
     1
102
RTVSPropertyOp35
 70
     1
102
RTVSPropertyOp36
 70
     1
102
RTVSPropertyOp37
 70
     1
102
RTVSPropertyOp38
 70
     1
102
RTVSPropertyOp39
 70
     1
102
RTVSPropertyOp40
 70
     1
102
RTVSPropertyOp41
 70
     1
102
RTVSPropertyOp42
 70
     1
102
RTVSPropertyOp43
 70
     1
102
RTVSPropertyOp44
 70
     1
102
RTVSPropertyOp45
 70
     1
102
RTVSPropertyOp46
 70
     1
102
RTVSPropertyOp47
 70
     1
102
RTVSPropertyOp48
 70
     1
102
RTVSPropertyOp49
 70
     1
102
RTVSPropertyOp50
 70
     1
102
RTVSPropertyOp51
 70
     0
102
RTVSPropertyOp52
 70
     0
102
RTVSPropertyOp53
 70
     1
102
RTVSPropertyOp54
 70
     1
102
RTVSPropertyOp55
 70
     1
102
RTVSPropertyOp56
 70
     1
102
RTVSPropertyOp57
 70
     1
102
RTVSPropertyOp58
 70
     1
102
RTVSPropertyOp59
 70
     1
102
RTVSPropertyOp60
 70
     1
102
RTVSPropertyOp61
 70
     1
102
RTVSPropertyOp62
 70
     1
  0
XRECORD
  5
9E08B
102
{ACAD_REACTORS
330
9E08A
102
}
330
9E08A
100
AcDbXrecord
280
     1
102
RTVSPost2010Prop28
280
     0
102
RTVSPost2010PropOp28
 70
     1
102
RTVSPost2010Prop29
280
     1
102
RTVSPost2010PropOp29
 70
     1
102
RTVSPost2010Prop30
280
     1
102
RTVSPost2010PropOp30
 70
     1
102
RTVSPost2010Prop31
280
     0
102
RTVSPost2010PropOp31
 70
     1
102
RTVSPost2010Prop32
280
     0
102
RTVSPost2010PropOp32
 70
     1
102
RTVSPost2010Prop33
280
     0
102
RTVSPost2010PropOp33
 70
     1
102
RTVSPost2010Prop34
280
     0
102
RTVSPost2010PropOp34
 70
     1
102
RTVSPost2010Prop35
280
     0
102
RTVSPost2010PropOp35
 70
     1
102
RTVSPost2010Prop36
280
     0
102
RTVSPost2010PropOp36
 70
     1
102
RTVSPost2010Prop37
 90
       50
102
RTVSPost2010PropOp37
 70
     1
102
RTVSPost2010Prop38
140
0.0
102
RTVSPost2010PropOp38
 70
     1
102
RTVSPost2010Prop39
140
1.0
102
RTVSPost2010PropOp39
 70
     1
102
RTVSPost2010Prop40
 90
        0
102
RTVSPost2010PropOp40
 70
     1
102
RTVSPost2010Prop41ColorIndex
 90
       18
102
RTVSPost2010Prop41ColorRGB
 90
        0
102
RTVSPost2010PropOp41
 70
     1
102
RTVSPost2010Prop42
 90
       50
102
RTVSPost2010PropOp42
 70
     1
102
RTVSPost2010Prop43
 90
        3
102
RTVSPost2010PropOp43
 70
     1
102
RTVSPost2010Prop44ColorIndex
 90
        5
102
RTVSPost2010Prop44ColorRGB
 90
      255
102
RTVSPost2010PropOp44
 70
     1
102
RTVSPost2010Prop45
280
     0
102
RTVSPost2010PropOp45
 70
     1
102
RTVSPost2010Prop46
 90
       50
102
RTVSPost2010PropOp46
 70
     1
102
RTVSPost2010Prop47
 90
       50
102
RTVSPost2010PropOp47
 70
     1
102
RTVSPost2010Prop48
 90
       50
102
RTVSPost2010PropOp48
 70
     1
102
RTVSPost2010Prop49
280
     0
102
RTVSPost2010PropOp49
 70
     1
102
RTVSPost2010Prop50
 90
       50
102
RTVSPost2010PropOp50
 70
     1
102
RTVSPost2010Prop51ColorIndex
 90
      256
102
RTVSPost2010Prop51ColorRGB
 90
-16777216
102
RTVSPost2010PropOp51
 70
     0
102
RTVSPost2010Prop52
140
1.0
102
RTVSPost2010PropOp52
 70
     0
102
RTVSPost2010Prop53
 90
        2
102
RTVSPost2010PropOp53
 70
     1
102
RTVSPost2010Prop54
  1
strokes_ogs.tif
102
RTVSPost2010PropOp54
 70
     1
102
RTVSPost2010Prop55
280
     0
102
RTVSPost2010PropOp55
 70
     1
102
RTVSPost2010Prop56
140
1.0
102
RTVSPost2010PropOp56
 70
     1
102
RTVSPost2010Prop57
140
1.0
102
RTVSPost2010PropOp57
 70
     1
102
RTVSPropertyOp0
 70
     1
102
RTVSPropertyOp1
 70
     1
102
RTVSPropertyOp2
 70
     1
102
RTVSPropertyOp3
 70
     1
102
RTVSPropertyOp4
 70
     1
102
RTVSPropertyOp5
 70
     1
102
RTVSPropertyOp6
 70
     1
102
RTVSPropertyOp7
 70
     1
102
RTVSPropertyOp8
 70
     1
102
RTVSPropertyOp9
 70
     1
102
RTVSPropertyOp10
 70
     1
102
RTVSPropertyOp11
 70
     1
102
RTVSPropertyOp12
 70
     1
102
RTVSPropertyOp13
 70
     1
102
RTVSPropertyOp14
 70
     1
102
RTVSPropertyOp15
 70
     1
102
RTVSPropertyOp16
 70
     1
102
RTVSPropertyOp17
 70
     1
102
RTVSPropertyOp18
 70
     1
102
RTVSPropertyOp19
 70
     1
102
RTVSPropertyOp20
 70
     1
102
RTVSPropertyOp21
 70
     1
102
RTVSPropertyOp22
 70
     1
102
RTVSPropertyOp23
 70
     1
102
RTVSPropertyOp24
 70
     1
102
RTVSPropertyOp25
 70
     1
102
RTVSPropertyOp26
 70
     1
102
RTVSPropertyOp27
 70
     1
102
RTVSPropertyOp28
 70
     1
102
RTVSPropertyOp29
 70
     1
102
RTVSPropertyOp30
 70
     1
102
RTVSPropertyOp31
 70
     1
102
RTVSPropertyOp32
 70
     1
102
RTVSPropertyOp33
 70
     1
102
RTVSPropertyOp34
 70
     1
102
RTVSPropertyOp35
 70
     1
102
RTVSPropertyOp36
 70
     1
102
RTVSPropertyOp37
 70
     1
102
RTVSPropertyOp38
 70
     1
102
RTVSPropertyOp39
 70
     1
102
RTVSPropertyOp40
 70
     1
102
RTVSPropertyOp41
 70
     1
102
RTVSPropertyOp42
 70
     1
102
RTVSPropertyOp43
 70
     1
102
RTVSPropertyOp44
 70
     1
102
RTVSPropertyOp45
 70
     1
102
RTVSPropertyOp46
 70
     1
102
RTVSPropertyOp47
 70
     1
102
RTVSPropertyOp48
 70
     1
102
RTVSPropertyOp49
 70
     1
102
RTVSPropertyOp50
 70
     1
102
RTVSPropertyOp51
 70
     0
102
RTVSPropertyOp52
 70
     0
102
RTVSPropertyOp53
 70
     1
102
RTVSPropertyOp54
 70
     1
102
RTVSPropertyOp55
 70
     1
102
RTVSPropertyOp56
 70
     1
102
RTVSPropertyOp57
 70
     1
102
RTVSPropertyOp58
 70
     1
102
RTVSPropertyOp59
 70
     1
102
RTVSPropertyOp60
 70
     1
102
RTVSPropertyOp61
 70
     1
102
RTVSPropertyOp62
 70
     1
  0
XRECORD
  5
9E07B
102
{ACAD_REACTORS
330
9E07A
102
}
330
9E07A
100
AcDbXrecord
280
     1
102
RTVSPost2010Prop28
280
     0
102
RTVSPost2010PropOp28
 70
     1
102
RTVSPost2010Prop29
280
     1
102
RTVSPost2010PropOp29
 70
     1
102
RTVSPost2010Prop30
280
     1
102
RTVSPost2010PropOp30
 70
     1
102
RTVSPost2010Prop31
280
     0
102
RTVSPost2010PropOp31
 70
     1
102
RTVSPost2010Prop32
280
     0
102
RTVSPost2010PropOp32
 70
     1
102
RTVSPost2010Prop33
280
     0
102
RTVSPost2010PropOp33
 70
     1
102
RTVSPost2010Prop34
280
     0
102
RTVSPost2010PropOp34
 70
     1
102
RTVSPost2010Prop35
280
     0
102
RTVSPost2010PropOp35
 70
     1
102
RTVSPost2010Prop36
280
     0
102
RTVSPost2010PropOp36
 70
     1
102
RTVSPost2010Prop37
 90
       50
102
RTVSPost2010PropOp37
 70
     1
102
RTVSPost2010Prop38
140
0.0
102
RTVSPost2010PropOp38
 70
     1
102
RTVSPost2010Prop39
140
1.0
102
RTVSPost2010PropOp39
 70
     1
102
RTVSPost2010Prop40
 90
        0
102
RTVSPost2010PropOp40
 70
     1
102
RTVSPost2010Prop41ColorIndex
 90
       18
102
RTVSPost2010Prop41ColorRGB
 90
        0
102
RTVSPost2010PropOp41
 70
     1
102
RTVSPost2010Prop42
 90
       50
102
RTVSPost2010PropOp42
 70
     1
102
RTVSPost2010Prop43
 90
        3
102
RTVSPost2010PropOp43
 70
     1
102
RTVSPost2010Prop44ColorIndex
 90
        5
102
RTVSPost2010Prop44ColorRGB
 90
      255
102
RTVSPost2010PropOp44
 70
     1
102
RTVSPost2010Prop45
280
     0
102
RTVSPost2010PropOp45
 70
     1
102
RTVSPost2010Prop46
 90
       50
102
RTVSPost2010PropOp46
 70
     1
102
RTVSPost2010Prop47
 90
       50
102
RTVSPost2010PropOp47
 70
     1
102
RTVSPost2010Prop48
 90
       50
102
RTVSPost2010PropOp48
 70
     1
102
RTVSPost2010Prop49
280
     0
102
RTVSPost2010PropOp49
 70
     1
102
RTVSPost2010Prop50
 90
       50
102
RTVSPost2010PropOp50
 70
     1
102
RTVSPost2010Prop51ColorIndex
 90
      256
102
RTVSPost2010Prop51ColorRGB
 90
-16777216
102
RTVSPost2010PropOp51
 70
     0
102
RTVSPost2010Prop52
140
1.0
102
RTVSPost2010PropOp52
 70
     0
102
RTVSPost2010Prop53
 90
        2
102
RTVSPost2010PropOp53
 70
     1
102
RTVSPost2010Prop54
  1
strokes_ogs.tif
102
RTVSPost2010PropOp54
 70
     1
102
RTVSPost2010Prop55
280
     0
102
RTVSPost2010PropOp55
 70
     1
102
RTVSPost2010Prop56
140
1.0
102
RTVSPost2010PropOp56
 70
     1
102
RTVSPost2010Prop57
140
1.0
102
RTVSPost2010PropOp57
 70
     1
102
RTVSPropertyOp0
 70
     1
102
RTVSPropertyOp1
 70
     1
102
RTVSPropertyOp2
 70
     1
102
RTVSPropertyOp3
 70
     1
102
RTVSPropertyOp4
 70
     1
102
RTVSPropertyOp5
 70
     1
102
RTVSPropertyOp6
 70
     1
102
RTVSPropertyOp7
 70
     1
102
RTVSPropertyOp8
 70
     1
102
RTVSPropertyOp9
 70
     1
102
RTVSPropertyOp10
 70
     1
102
RTVSPropertyOp11
 70
     1
102
RTVSPropertyOp12
 70
     1
102
RTVSPropertyOp13
 70
     1
102
RTVSPropertyOp14
 70
     1
102
RTVSPropertyOp15
 70
     1
102
RTVSPropertyOp16
 70
     1
102
RTVSPropertyOp17
 70
     1
102
RTVSPropertyOp18
 70
     1
102
RTVSPropertyOp19
 70
     1
102
RTVSPropertyOp20
 70
     1
102
RTVSPropertyOp21
 70
     1
102
RTVSPropertyOp22
 70
     1
102
RTVSPropertyOp23
 70
     1
102
RTVSPropertyOp24
 70
     1
102
RTVSPropertyOp25
 70
     1
102
RTVSPropertyOp26
 70
     1
102
RTVSPropertyOp27
 70
     1
102
RTVSPropertyOp28
 70
     1
102
RTVSPropertyOp29
 70
     1
102
RTVSPropertyOp30
 70
     1
102
RTVSPropertyOp31
 70
     1
102
RTVSPropertyOp32
 70
     1
102
RTVSPropertyOp33
 70
     1
102
RTVSPropertyOp34
 70
     1
102
RTVSPropertyOp35
 70
     1
102
RTVSPropertyOp36
 70
     1
102
RTVSPropertyOp37
 70
     1
102
RTVSPropertyOp38
 70
     1
102
RTVSPropertyOp39
 70
     1
102
RTVSPropertyOp40
 70
     1
102
RTVSPropertyOp41
 70
     1
102
RTVSPropertyOp42
 70
     1
102
RTVSPropertyOp43
 70
     1
102
RTVSPropertyOp44
 70
     1
102
RTVSPropertyOp45
 70
     1
102
RTVSPropertyOp46
 70
     1
102
RTVSPropertyOp47
 70
     1
102
RTVSPropertyOp48
 70
     1
102
RTVSPropertyOp49
 70
     1
102
RTVSPropertyOp50
 70
     1
102
RTVSPropertyOp51
 70
     0
102
RTVSPropertyOp52
 70
     0
102
RTVSPropertyOp53
 70
     1
102
RTVSPropertyOp54
 70
     1
102
RTVSPropertyOp55
 70
     1
102
RTVSPropertyOp56
 70
     1
102
RTVSPropertyOp57
 70
     1
102
RTVSPropertyOp58
 70
     1
102
RTVSPropertyOp59
 70
     1
102
RTVSPropertyOp60
 70
     1
102
RTVSPropertyOp61
 70
     1
102
RTVSPropertyOp62
 70
     1
  0
XRECORD
  5
9E06D
102
{ACAD_REACTORS
330
9E06C
102
}
330
9E06C
100
AcDbXrecord
280
     1
102
RTVSPost2010Prop28
280
     0
102
RTVSPost2010PropOp28
 70
     1
102
RTVSPost2010Prop29
280
     1
102
RTVSPost2010PropOp29
 70
     1
102
RTVSPost2010Prop30
280
     1
102
RTVSPost2010PropOp30
 70
     1
102
RTVSPost2010Prop31
280
     0
102
RTVSPost2010PropOp31
 70
     1
102
RTVSPost2010Prop32
280
     0
102
RTVSPost2010PropOp32
 70
     1
102
RTVSPost2010Prop33
280
     0
102
RTVSPost2010PropOp33
 70
     1
102
RTVSPost2010Prop34
280
     0
102
RTVSPost2010PropOp34
 70
     1
102
RTVSPost2010Prop35
280
     0
102
RTVSPost2010PropOp35
 70
     1
102
RTVSPost2010Prop36
280
     0
102
RTVSPost2010PropOp36
 70
     1
102
RTVSPost2010Prop37
 90
       50
102
RTVSPost2010PropOp37
 70
     1
102
RTVSPost2010Prop38
140
0.0
102
RTVSPost2010PropOp38
 70
     1
102
RTVSPost2010Prop39
140
1.0
102
RTVSPost2010PropOp39
 70
     1
102
RTVSPost2010Prop40
 90
        0
102
RTVSPost2010PropOp40
 70
     1
102
RTVSPost2010Prop41ColorIndex
 90
       18
102
RTVSPost2010Prop41ColorRGB
 90
        0
102
RTVSPost2010PropOp41
 70
     1
102
RTVSPost2010Prop42
 90
       50
102
RTVSPost2010PropOp42
 70
     1
102
RTVSPost2010Prop43
 90
        3
102
RTVSPost2010PropOp43
 70
     1
102
RTVSPost2010Prop44ColorIndex
 90
        5
102
RTVSPost2010Prop44ColorRGB
 90
      255
102
RTVSPost2010PropOp44
 70
     1
102
RTVSPost2010Prop45
280
     0
102
RTVSPost2010PropOp45
 70
     1
102
RTVSPost2010Prop46
 90
       50
102
RTVSPost2010PropOp46
 70
     1
102
RTVSPost2010Prop47
 90
       50
102
RTVSPost2010PropOp47
 70
     1
102
RTVSPost2010Prop48
 90
       50
102
RTVSPost2010PropOp48
 70
     1
102
RTVSPost2010Prop49
280
     0
102
RTVSPost2010PropOp49
 70
     1
102
RTVSPost2010Prop50
 90
       50
102
RTVSPost2010PropOp50
 70
     1
102
RTVSPost2010Prop51ColorIndex
 90
      256
102
RTVSPost2010Prop51ColorRGB
 90
-16777216
102
RTVSPost2010PropOp51
 70
     0
102
RTVSPost2010Prop52
140
1.0
102
RTVSPost2010PropOp52
 70
     0
102
RTVSPost2010Prop53
 90
        2
102
RTVSPost2010PropOp53
 70
     1
102
RTVSPost2010Prop54
  1
strokes_ogs.tif
102
RTVSPost2010PropOp54
 70
     1
102
RTVSPost2010Prop55
280
     0
102
RTVSPost2010PropOp55
 70
     1
102
RTVSPost2010Prop56
140
1.0
102
RTVSPost2010PropOp56
 70
     1
102
RTVSPost2010Prop57
140
1.0
102
RTVSPost2010PropOp57
 70
     1
102
RTVSPropertyOp0
 70
     1
102
RTVSPropertyOp1
 70
     1
102
RTVSPropertyOp2
 70
     1
102
RTVSPropertyOp3
 70
     1
102
RTVSPropertyOp4
 70
     1
102
RTVSPropertyOp5
 70
     1
102
RTVSPropertyOp6
 70
     1
102
RTVSPropertyOp7
 70
     1
102
RTVSPropertyOp8
 70
     1
102
RTVSPropertyOp9
 70
     1
102
RTVSPropertyOp10
 70
     1
102
RTVSPropertyOp11
 70
     1
102
RTVSPropertyOp12
 70
     1
102
RTVSPropertyOp13
 70
     1
102
RTVSPropertyOp14
 70
     1
102
RTVSPropertyOp15
 70
     1
102
RTVSPropertyOp16
 70
     1
102
RTVSPropertyOp17
 70
     1
102
RTVSPropertyOp18
 70
     1
102
RTVSPropertyOp19
 70
     1
102
RTVSPropertyOp20
 70
     1
102
RTVSPropertyOp21
 70
     1
102
RTVSPropertyOp22
 70
     1
102
RTVSPropertyOp23
 70
     1
102
RTVSPropertyOp24
 70
     1
102
RTVSPropertyOp25
 70
     1
102
RTVSPropertyOp26
 70
     1
102
RTVSPropertyOp27
 70
     1
102
RTVSPropertyOp28
 70
     1
102
RTVSPropertyOp29
 70
     1
102
RTVSPropertyOp30
 70
     1
102
RTVSPropertyOp31
 70
     1
102
RTVSPropertyOp32
 70
     1
102
RTVSPropertyOp33
 70
     1
102
RTVSPropertyOp34
 70
     1
102
RTVSPropertyOp35
 70
     1
102
RTVSPropertyOp36
 70
     1
102
RTVSPropertyOp37
 70
     1
102
RTVSPropertyOp38
 70
     1
102
RTVSPropertyOp39
 70
     1
102
RTVSPropertyOp40
 70
     1
102
RTVSPropertyOp41
 70
     1
102
RTVSPropertyOp42
 70
     1
102
RTVSPropertyOp43
 70
     1
102
RTVSPropertyOp44
 70
     1
102
RTVSPropertyOp45
 70
     1
102
RTVSPropertyOp46
 70
     1
102
RTVSPropertyOp47
 70
     1
102
RTVSPropertyOp48
 70
     1
102
RTVSPropertyOp49
 70
     1
102
RTVSPropertyOp50
 70
     1
102
RTVSPropertyOp51
 70
     0
102
RTVSPropertyOp52
 70
     0
102
RTVSPropertyOp53
 70
     1
102
RTVSPropertyOp54
 70
     1
102
RTVSPropertyOp55
 70
     1
102
RTVSPropertyOp56
 70
     1
102
RTVSPropertyOp57
 70
     1
102
RTVSPropertyOp58
 70
     1
102
RTVSPropertyOp59
 70
     1
102
RTVSPropertyOp60
 70
     1
102
RTVSPropertyOp61
 70
     1
102
RTVSPropertyOp62
 70
     1
  0
XRECORD
  5
9E08D
102
{ACAD_REACTORS
330
9E08C
102
}
330
9E08C
100
AcDbXrecord
280
     1
102
RTVSPost2010Prop28
280
     0
102
RTVSPost2010PropOp28
 70
     1
102
RTVSPost2010Prop29
280
     1
102
RTVSPost2010PropOp29
 70
     1
102
RTVSPost2010Prop30
280
     1
102
RTVSPost2010PropOp30
 70
     1
102
RTVSPost2010Prop31
280
     0
102
RTVSPost2010PropOp31
 70
     1
102
RTVSPost2010Prop32
280
     0
102
RTVSPost2010PropOp32
 70
     1
102
RTVSPost2010Prop33
280
     0
102
RTVSPost2010PropOp33
 70
     1
102
RTVSPost2010Prop34
280
     0
102
RTVSPost2010PropOp34
 70
     1
102
RTVSPost2010Prop35
280
     0
102
RTVSPost2010PropOp35
 70
     1
102
RTVSPost2010Prop36
280
     0
102
RTVSPost2010PropOp36
 70
     1
102
RTVSPost2010Prop37
 90
       50
102
RTVSPost2010PropOp37
 70
     1
102
RTVSPost2010Prop38
140
0.0
102
RTVSPost2010PropOp38
 70
     1
102
RTVSPost2010Prop39
140
1.0
102
RTVSPost2010PropOp39
 70
     1
102
RTVSPost2010Prop40
 90
        0
102
RTVSPost2010PropOp40
 70
     1
102
RTVSPost2010Prop41ColorIndex
 90
       18
102
RTVSPost2010Prop41ColorRGB
 90
        0
102
RTVSPost2010PropOp41
 70
     1
102
RTVSPost2010Prop42
 90
       50
102
RTVSPost2010PropOp42
 70
     1
102
RTVSPost2010Prop43
 90
        3
102
RTVSPost2010PropOp43
 70
     1
102
RTVSPost2010Prop44ColorIndex
 90
        5
102
RTVSPost2010Prop44ColorRGB
 90
      255
102
RTVSPost2010PropOp44
 70
     1
102
RTVSPost2010Prop45
280
     0
102
RTVSPost2010PropOp45
 70
     1
102
RTVSPost2010Prop46
 90
       50
102
RTVSPost2010PropOp46
 70
     1
102
RTVSPost2010Prop47
 90
       50
102
RTVSPost2010PropOp47
 70
     1
102
RTVSPost2010Prop48
 90
       50
102
RTVSPost2010PropOp48
 70
     1
102
RTVSPost2010Prop49
280
     0
102
RTVSPost2010PropOp49
 70
     1
102
RTVSPost2010Prop50
 90
       50
102
RTVSPost2010PropOp50
 70
     1
102
RTVSPost2010Prop51ColorIndex
 90
      256
102
RTVSPost2010Prop51ColorRGB
 90
-16777216
102
RTVSPost2010PropOp51
 70
     0
102
RTVSPost2010Prop52
140
1.0
102
RTVSPost2010PropOp52
 70
     0
102
RTVSPost2010Prop53
 90
        2
102
RTVSPost2010PropOp53
 70
     1
102
RTVSPost2010Prop54
  1
strokes_ogs.tif
102
RTVSPost2010PropOp54
 70
     1
102
RTVSPost2010Prop55
280
     0
102
RTVSPost2010PropOp55
 70
     1
102
RTVSPost2010Prop56
140
1.0
102
RTVSPost2010PropOp56
 70
     1
102
RTVSPost2010Prop57
140
1.0
102
RTVSPost2010PropOp57
 70
     1
102
RTVSPropertyOp0
 70
     1
102
RTVSPropertyOp1
 70
     1
102
RTVSPropertyOp2
 70
     1
102
RTVSPropertyOp3
 70
     1
102
RTVSPropertyOp4
 70
     1
102
RTVSPropertyOp5
 70
     1
102
RTVSPropertyOp6
 70
     1
102
RTVSPropertyOp7
 70
     1
102
RTVSPropertyOp8
 70
     1
102
RTVSPropertyOp9
 70
     1
102
RTVSPropertyOp10
 70
     1
102
RTVSPropertyOp11
 70
     1
102
RTVSPropertyOp12
 70
     1
102
RTVSPropertyOp13
 70
     1
102
RTVSPropertyOp14
 70
     1
102
RTVSPropertyOp15
 70
     1
102
RTVSPropertyOp16
 70
     1
102
RTVSPropertyOp17
 70
     1
102
RTVSPropertyOp18
 70
     1
102
RTVSPropertyOp19
 70
     1
102
RTVSPropertyOp20
 70
     1
102
RTVSPropertyOp21
 70
     1
102
RTVSPropertyOp22
 70
     1
102
RTVSPropertyOp23
 70
     1
102
RTVSPropertyOp24
 70
     1
102
RTVSPropertyOp25
 70
     1
102
RTVSPropertyOp26
 70
     1
102
RTVSPropertyOp27
 70
     1
102
RTVSPropertyOp28
 70
     1
102
RTVSPropertyOp29
 70
     1
102
RTVSPropertyOp30
 70
     1
102
RTVSPropertyOp31
 70
     1
102
RTVSPropertyOp32
 70
     1
102
RTVSPropertyOp33
 70
     1
102
RTVSPropertyOp34
 70
     1
102
RTVSPropertyOp35
 70
     1
102
RTVSPropertyOp36
 70
     1
102
RTVSPropertyOp37
 70
     1
102
RTVSPropertyOp38
 70
     1
102
RTVSPropertyOp39
 70
     1
102
RTVSPropertyOp40
 70
     1
102
RTVSPropertyOp41
 70
     1
102
RTVSPropertyOp42
 70
     1
102
RTVSPropertyOp43
 70
     1
102
RTVSPropertyOp44
 70
     1
102
RTVSPropertyOp45
 70
     1
102
RTVSPropertyOp46
 70
     1
102
RTVSPropertyOp47
 70
     1
102
RTVSPropertyOp48
 70
     1
102
RTVSPropertyOp49
 70
     1
102
RTVSPropertyOp50
 70
     1
102
RTVSPropertyOp51
 70
     0
102
RTVSPropertyOp52
 70
     0
102
RTVSPropertyOp53
 70
     1
102
RTVSPropertyOp54
 70
     1
102
RTVSPropertyOp55
 70
     1
102
RTVSPropertyOp56
 70
     1
102
RTVSPropertyOp57
 70
     1
102
RTVSPropertyOp58
 70
     1
102
RTVSPropertyOp59
 70
     1
102
RTVSPropertyOp60
 70
     1
102
RTVSPropertyOp61
 70
     1
102
RTVSPropertyOp62
 70
     1
  0
ENDSEC
  0
EOF
