  0
SECTION
  2
HEADER
  9
$ACADVER
  1
AC1015
  9
$ACADMAINTVER
 70
    10
  9
$DWGCODEPAGE
  3
ANSI_932
  9
$INSBASE
 10
0.0
 20
0.0
 30
0.0
  9
$EXTMIN
 10
734.1868372145613
 20
2063.75656533431
 30
0.0
  9
$EXTMAX
 10
1326.154756945063
 20
2429.483741834292
 30
0.0
  9
$LIMMIN
 10
0.0
 20
0.0
  9
$LIMMAX
 10
420.0
 20
297.0
  9
$ORTHOMODE
 70
     0
  9
$REGENMODE
 70
     1
  9
$FILLMODE
 70
     1
  9
$QTEXTMODE
 70
     0
  9
$MIRRTEXT
 70
     0
  9
$LTSCALE
 40
1.0
  9
$ATTMODE
 70
     1
  9
$TEXTSIZE
 40
2.5
  9
$TRACEWID
 40
1.0
  9
$TEXTSTYLE
  7
STANDARD
  9
$CLAYER
  8
寸法
  9
$CELTYPE
  6
BYLAYER
  9
$CECOLOR
 62
   256
  9
$CELTSCALE
 40
0.1
  9
$DISPSILH
 70
     0
  9
$DIMSCALE
 40
1.0
  9
$DIMASZ
 40
2.5
  9
$DIMEXO
 40
2.0
  9
$DIMDLI
 40
0.38
  9
$DIMRND
 40
0.0
  9
$DIMDLE
 40
0.0
  9
$DIMEXE
 40
1.0
  9
$DIMTP
 40
0.0
  9
$DIMTM
 40
0.0
  9
$DIMTXT
 40
5.0
  9
$DIMCEN
 40
0.0
  9
$DIMTSZ
 40
0.0
  9
$DIMTOL
 70
     0
  9
$DIMLIM
 70
     0
  9
$DIMTIH
 70
     0
  9
$DIMTOH
 70
     0
  9
$DIMSE1
 70
     0
  9
$DIMSE2
 70
     0
  9
$DIMTAD
 70
     3
  9
$DIMZIN
 70
     8
  9
$DIMBLK
  1
OPEN30
  9
$DIMASO
 70
     1
  9
$DIMSHO
 70
     1
  9
$DIMPOST
  1

  9
$DIMAPOST
  1

  9
$DIMALT
 70
     0
  9
$DIMALTD
 70
     2
  9
$DIMALTF
 40
25.4
  9
$DIMLFAC
 40
1.0
  9
$DIMTOFL
 70
     1
  9
$DIMTVP
 40
0.0
  9
$DIMTIX
 70
     0
  9
$DIMSOXD
 70
     0
  9
$DIMSAH
 70
     0
  9
$DIMBLK1
  1

  9
$DIMBLK2
  1

  9
$DIMSTYLE
  2
まこ
  9
$DIMCLRD
 70
     4
  9
$DIMCLRE
 70
     4
  9
$DIMCLRT
 70
    40
  9
$DIMTFAC
 40
1.0
  9
$DIMGAP
 40
0.5
  9
$DIMJUST
 70
     0
  9
$DIMSD1
 70
     0
  9
$DIMSD2
 70
     0
  9
$DIMTOLJ
 70
     1
  9
$DIMTZIN
 70
     0
  9
$DIMALTZ
 70
     0
  9
$DIMALTTZ
 70
     0
  9
$DIMUPT
 70
     0
  9
$DIMDEC
 70
     8
  9
$DIMTDEC
 70
     8
  9
$DIMALTU
 70
     2
  9
$DIMALTTD
 70
     2
  9
$DIMTXSTY
  7
まこ
  9
$DIMAUNIT
 70
     0
  9
$DIMADEC
 70
     8
  9
$DIMALTRND
 40
0.0
  9
$DIMAZIN
 70
     0
  9
$DIMDSEP
 70
    46
  9
$DIMATFIT
 70
     3
  9
$DIMFRAC
 70
     0
  9
$DIMLDRBLK
  1
OPEN30
  9
$DIMLUNIT
 70
     2
  9
$DIMLWD
 70
    13
  9
$DIMLWE
 70
    13
  9
$DIMTMOVE
 70
     0
  9
$LUNITS
 70
     2
  9
$LUPREC
 70
     4
  9
$SKETCHINC
 40
1.0
  9
$FILLETRAD
 40
0.3
  9
$AUNITS
 70
     0
  9
$AUPREC
 70
     0
  9
$MENU
  1
.
  9
$ELEVATION
 40
0.0
  9
$PELEVATION
 40
0.0
  9
$THICKNESS
 40
0.0
  9
$LIMCHECK
 70
     0
  9
$CHAMFERA
 40
1.0
  9
$CHAMFERB
 40
1.0
  9
$CHAMFERC
 40
20.0
  9
$CHAMFERD
 40
0.0
  9
$SKPOLY
 70
     0
  9
$TDCREATE
 40
2452312.443623217
  9
$TDUCREATE
 40
2452312.068623217
  9
$TDUPDATE
 40
2455785.441155960
  9
$TDUUPDATE
 40
2455785.066155960
  9
$TDINDWG
 40
13.6996353472
  9
$TDUSRTIMER
 40
13.6996342593
  9
$USRTIMER
 70
     1
  9
$ANGBASE
 50
0.0
  9
$ANGDIR
 70
     0
  9
$PDMODE
 70
     0
  9
$PDSIZE
 40
0.0
  9
$PLINEWID
 40
0.0
  9
$SPLFRAME
 70
     0
  9
$SPLINETYPE
 70
     6
  9
$SPLINESEGS
 70
     8
  9
$HANDSEED
  5
2D457
  9
$SURFTAB1
 70
     6
  9
$SURFTAB2
 70
     6
  9
$SURFTYPE
 70
     6
  9
$SURFU
 70
     6
  9
$SURFV
 70
     6
  9
$UCSBASE
  2

  9
$UCSNAME
  2

  9
$UCSORG
 10
0.0
 20
0.0
 30
0.0
  9
$UCSXDIR
 10
1.0
 20
0.0
 30
0.0
  9
$UCSYDIR
 10
0.0
 20
1.0
 30
0.0
  9
$UCSORTHOREF
  2

  9
$UCSORTHOVIEW
 70
     0
  9
$UCSORGTOP
 10
0.0
 20
0.0
 30
0.0
  9
$UCSORGBOTTOM
 10
0.0
 20
0.0
 30
0.0
  9
$UCSORGLEFT
 10
0.0
 20
0.0
 30
0.0
  9
$UCSORGRIGHT
 10
0.0
 20
0.0
 30
0.0
  9
$UCSORGFRONT
 10
0.0
 20
0.0
 30
0.0
  9
$UCSORGBACK
 10
0.0
 20
0.0
 30
0.0
  9
$PUCSBASE
  2

  9
$PUCSNAME
  2

  9
$PUCSORG
 10
0.0
 20
0.0
 30
0.0
  9
$PUCSXDIR
 10
1.0
 20
0.0
 30
0.0
  9
$PUCSYDIR
 10
0.0
 20
1.0
 30
0.0
  9
$PUCSORTHOREF
  2

  9
$PUCSORTHOVIEW
 70
     0
  9
$PUCSORGTOP
 10
0.0
 20
0.0
 30
0.0
  9
$PUCSORGBOTTOM
 10
0.0
 20
0.0
 30
0.0
  9
$PUCSORGLEFT
 10
0.0
 20
0.0
 30
0.0
  9
$PUCSORGRIGHT
 10
0.0
 20
0.0
 30
0.0
  9
$PUCSORGFRONT
 10
0.0
 20
0.0
 30
0.0
  9
$PUCSORGBACK
 10
0.0
 20
0.0
 30
0.0
  9
$USERI1
 70
     0
  9
$USERI2
 70
     0
  9
$USERI3
 70
     0
  9
$USERI4
 70
     0
  9
$USERI5
 70
     0
  9
$USERR1
 40
0.0
  9
$USERR2
 40
0.0
  9
$USERR3
 40
0.0
  9
$USERR4
 40
0.0
  9
$USERR5
 40
0.0
  9
$WORLDVIEW
 70
     1
  9
$SHADEDGE
 70
     3
  9
$SHADEDIF
 70
    70
  9
$TILEMODE
 70
     0
  9
$MAXACTVP
 70
    64
  9
$PINSBASE
 10
0.0
 20
0.0
 30
0.0
  9
$PLIMCHECK
 70
     0
  9
$PEXTMIN
 10
0.235904990914122
 20
1.142254894660993
 30
0.0
  9
$PEXTMAX
 10
414.6267499035753
 20
292.1954128483008
 30
0.0
  9
$PLIMMIN
 10
-8.399694053179635
 20
-7.483372837839587
  9
$PLIMMAX
 10
427.5783059849532
 20
300.8215685451085
  9
$UNITMODE
 70
     0
  9
$VISRETAIN
 70
     1
  9
$PLINEGEN
 70
     0
  9
$PSLTSCALE
 70
     0
  9
$TREEDEPTH
 70
  3020
  9
$CMLSTYLE
  2
STANDARD
  9
$CMLJUST
 70
     0
  9
$CMLSCALE
 40
20.0
  9
$PROXYGRAPHICS
 70
     1
  9
$MEASUREMENT
 70
     0
  9
$CELWEIGHT
370
    -1
  9
$ENDCAPS
280
     0
  9
$JOINSTYLE
280
     0
  9
$LWDISPLAY
290
     0
  9
$INSUNITS
 70
     4
  9
$HYPERLINKBASE
  1

  9
$STYLESHEET
  1
MONOCHROME.CTB
  9
$XEDIT
290
     1
  9
$CEPSNTYPE
380
     0
  9
$PSTYLEMODE
290
     1
  9
$FINGERPRINTGUID
  2
{317A188D-5D9A-4B88-8B34-F77A538D2CB2}
  9
$VERSIONGUID
  2
{4E3956CA-207A-4CD9-80B9-A2B03CDC047B}
  9
$EXTNAMES
290
     1
  9
$PSVPSCALE
 40
0.0
  9
$OLESTARTUP
290
     0
  0
ENDSEC
  0
SECTION
  2
CLASSES
  0
CLASS
  1
ACDBDICTIONARYWDFLT
  2
AcDbDictionaryWithDefault
  3
AutoCAD 2000
 90
        0
280
     0
281
     0
  0
CLASS
  1
ACDBPLACEHOLDER
  2
AcDbPlaceHolder
  3
AutoCAD 2000
 90
        0
280
     0
281
     0
  0
CLASS
  1
LAYOUT
  2
AcDbLayout
  3
AutoCAD 2000
 90
        0
280
     0
281
     0
  0
CLASS
  1
DICTIONARYVAR
  2
AcDbDictionaryVar
  3
AutoCAD 2000
 90
        0
280
     0
281
     0
  0
CLASS
  1
LONG_TRANSACTION
  2
AcDbLongTransaction
  3
AutoCAD 2000
 90
    32768
280
     0
281
     0
  0
CLASS
  1
LWPOLYLINE
  2
AcDbPolyline
  3
AutoCAD 2000
 90
    32768
280
     0
281
     1
  0
CLASS
  1
HATCH
  2
AcDbHatch
  3
AutoCAD 2000
 90
    32768
280
     0
281
     1
  0
CLASS
  1
XRECORD
  2
AcDbXrecord
  3
AutoCAD 2000
 90
    32768
280
     0
281
     0
  0
ENDSEC
  0
SECTION
  2
TABLES
  0
TABLE
  2
VPORT
  5
8
330
0
100
AcDbSymbolTable
 70
     2
  0
VPORT
  5
2D456
330
8
100
AcDbSymbolTableRecord
100
AcDbViewportTableRecord
  2
*Active
 70
     0
 10
0.0
 20
0.0
 11
1.0
 21
1.0
 12
1030.149636793819
 22
2275.751842470259
 13
0.0
 23
0.0
 14
10.0
 24
10.0
 15
10.0
 25
10.0
 16
0.0
 26
0.0
 36
1.0
 17
0.0
 27
0.0
 37
0.0
 40
426.7670849442692
 41
1.886477462437395
 42
50.0
 43
0.0
 44
0.0
 50
0.0
 51
0.0
 71
     0
 72
 10000
 73
     1
 74
     2
 75
     0
 76
     0
 77
     0
 78
     0
281
     0
 65
     1
110
0.0
120
0.0
130
0.0
111
1.0
121
0.0
131
0.0
112
0.0
122
1.0
132
0.0
 79
     0
146
0.0
  0
ENDTAB
  0
TABLE
  2
LTYPE
  5
5
330
0
100
AcDbSymbolTable
 70
     3
  0
LTYPE
  5
14
330
5
100
AcDbSymbolTableRecord
100
AcDbLinetypeTableRecord
  2
BYBLOCK
 70
     0
  3

 72
    65
 73
     0
 40
0.0
  0
LTYPE
  5
15
330
5
100
AcDbSymbolTableRecord
100
AcDbLinetypeTableRecord
  2
BYLAYER
 70
     0
  3

 72
    65
 73
     0
 40
0.0
  0
LTYPE
  5
16
330
5
100
AcDbSymbolTableRecord
100
AcDbLinetypeTableRecord
  2
CONTINUOUS
 70
     0
  3
Solid line
 72
    65
 73
     0
 40
0.0
  0
LTYPE
  5
6B0
330
5
100
AcDbSymbolTableRecord
100
AcDbLinetypeTableRecord
  2
CENTER2
 70
     0
  3
Center (.5x) ___ _ ___ _ ___ _ ___ _ ___ _ ___
 72
    65
 73
     4
 40
28.57499999999999
 49
19.05
 74
     0
 49
-3.174999999999998
 74
     0
 49
3.174999999999998
 74
     0
 49
-3.174999999999998
 74
     0
  0
LTYPE
  5
6B1
330
5
100
AcDbSymbolTableRecord
100
AcDbLinetypeTableRecord
  2
HIDDEN
 70
     0
  3
Hidden __ __ __ __ __ __ __ __ __ __ __ __ __ _
 72
    65
 73
     2
 40
9.524999999999996
 49
6.349999999999997
 74
     0
 49
-3.174999999999998
 74
     0
  0
ENDTAB
  0
TABLE
  2
LAYER
  5
2
102
{ACAD_XDICTIONARY
360
2C179
102
}
330
0
100
AcDbSymbolTable
 70
    14
  0
LAYER
  5
10
330
2
100
AcDbSymbolTableRecord
100
AcDbLayerTableRecord
  2
0
 70
     0
 62
     7
  6
CONTINUOUS
370
    -3
390
F
  0
LAYER
  5
31
330
2
100
AcDbSymbolTableRecord
100
AcDbLayerTableRecord
  2
MYVIEW
 70
     0
 62
    -1
  6
CONTINUOUS
370
    -3
390
F
  0
LAYER
  5
12A
330
2
100
AcDbSymbolTableRecord
100
AcDbLayerTableRecord
  2
DIMENSION
 70
     0
 62
     7
  6
CONTINUOUS
370
    -3
390
F
  0
LAYER
  5
540
330
2
100
AcDbSymbolTableRecord
100
AcDbLayerTableRecord
  2
WAKUMOJI1
 70
     0
 62
    -7
  6
CONTINUOUS
370
    -3
390
F
  0
LAYER
  5
6B2
330
2
100
AcDbSymbolTableRecord
100
AcDbLayerTableRecord
  2
DEFPOINTS
 70
     1
 62
    -7
  6
CONTINUOUS
290
     0
370
    -3
390
F
  0
LAYER
  5
6B3
330
2
100
AcDbSymbolTableRecord
100
AcDbLayerTableRecord
  2
中心線
 70
     0
 62
     7
  6
CENTER2
370
    -3
390
F
  0
LAYER
  5
6B5
330
2
100
AcDbSymbolTableRecord
100
AcDbLayerTableRecord
  2
隠れ線
 70
     0
 62
     7
  6
HIDDEN
370
    -3
390
F
  0
LAYER
  5
20520
330
2
100
AcDbSymbolTableRecord
100
AcDbLayerTableRecord
  2
細線
 70
     0
 62
     7
  6
CONTINUOUS
370
    -3
390
F
  0
LAYER
  5
20606
330
2
100
AcDbSymbolTableRecord
100
AcDbLayerTableRecord
  2
実線
 70
     0
 62
     7
  6
CONTINUOUS
370
    -3
390
F
  0
LAYER
  5
225B5
330
2
100
AcDbSymbolTableRecord
100
AcDbLayerTableRecord
  2
破線
 70
     0
 62
     7
  6
HIDDEN
370
    -3
390
F
  0
LAYER
  5
2330F
330
2
100
AcDbSymbolTableRecord
100
AcDbLayerTableRecord
  2
ﾓ_ﾀ
 70
     0
 62
     7
  6
CONTINUOUS
370
    -3
390
F
  0
LAYER
  5
2746E
330
2
100
AcDbSymbolTableRecord
100
AcDbLayerTableRecord
  2
TEXT
 70
     0
 62
     7
  6
CONTINUOUS
370
    -3
390
F
  0
LAYER
  5
27471
330
2
100
AcDbSymbolTableRecord
100
AcDbLayerTableRecord
  2
寸法
 70
     0
 62
     7
  6
CONTINUOUS
370
    -3
390
F
  0
LAYER
  5
2C08D
330
2
100
AcDbSymbolTableRecord
100
AcDbLayerTableRecord
  2
文字１
 70
     0
 62
     7
  6
CONTINUOUS
370
    -3
390
F
  0
ENDTAB
  0
TABLE
  2
STYLE
  5
3
330
0
100
AcDbSymbolTable
 70
     3
  0
STYLE
  5
11
330
3
100
AcDbSymbolTableRecord
100
AcDbTextStyleTableRecord
  2
STANDARD
 70
     0
 40
0.0
 41
1.0
 50
0.0
 71
     0
 42
2.5
  3
isocp.shx
  4
bigfont.shx
  0
STYLE
  5
133
330
3
100
AcDbSymbolTableRecord
100
AcDbTextStyleTableRecord
  2
MSｺ_ｼｯｸ-0
 70
     0
 40
0.0
 41
1.0
 50
0.0
 71
     0
 42
4.0
  3
simplex.shx
  4
bigfont.shx
  0
STYLE
  5
20521
330
3
100
AcDbSymbolTableRecord
100
AcDbTextStyleTableRecord
  2
まこ
 70
     0
 40
0.0
 41
1.0
 50
0.0
 71
     0
 42
2.5
  3
simplex.shx
  4
bigfont.shx
  0
ENDTAB
  0
TABLE
  2
VIEW
  5
6
330
0
100
AcDbSymbolTable
 70
     0
  0
ENDTAB
  0
TABLE
  2
UCS
  5
7
330
0
100
AcDbSymbolTable
 70
     0
  0
ENDTAB
  0
TABLE
  2
APPID
  5
9
330
0
100
AcDbSymbolTable
 70
     1
  0
APPID
  5
12
330
9
100
AcDbSymbolTableRecord
100
AcDbRegAppTableRecord
  2
ACAD
 70
     0
  0
ENDTAB
  0
TABLE
  2
DIMSTYLE
  5
A
330
0
100
AcDbSymbolTable
 70
     2
100
AcDbDimStyleTable
 71
     0
  0
DIMSTYLE
105
135
330
A
100
AcDbSymbolTableRecord
100
AcDbDimStyleTableRecord
  2
STANDARD
 70
     0
 41
3.0
 42
1.0
 73
     0
 74
     0
 77
     3
 78
     8
140
3.0
141
0.0
147
0.8
176
   256
177
   256
178
    40
271
     2
272
     2
340
133
341
123
342
123
  0
DIMSTYLE
105
20607
330
A
100
AcDbSymbolTableRecord
100
AcDbDimStyleTableRecord
  2
まこ
 70
     0
 41
2.5
 42
2.0
 44
1.0
 73
     0
 74
     0
 77
     3
 78
     8
140
5.0
141
0.0
147
0.5
176
     4
177
     4
178
    40
271
     3
272
     3
340
20521
341
495
342
495
  0
ENDTAB
  0
TABLE
  2
BLOCK_RECORD
  5
1
330
0
100
AcDbSymbolTable
 70
     2
  0
BLOCK_RECORD
  5
1F
102
{ACAD_XDICTIONARY
360
2D446
102
}
330
1
100
AcDbSymbolTableRecord
100
AcDbBlockTableRecord
  2
*MODEL_SPACE
340
2D44F
  0
BLOCK_RECORD
  5
1B
102
{ACAD_XDICTIONARY
360
2D444
102
}
330
1
100
AcDbSymbolTableRecord
100
AcDbBlockTableRecord
  2
*PAPER_SPACE
340
2D450
  0
BLOCK_RECORD
  5
123
330
1
100
AcDbSymbolTableRecord
100
AcDbBlockTableRecord
  2
_OPEN
340
0
  0
BLOCK_RECORD
  5
495
330
1
100
AcDbSymbolTableRecord
100
AcDbBlockTableRecord
  2
_OPEN30
340
0
  0
ENDTAB
  0
ENDSEC
  0
SECTION
  2
BLOCKS
  0
BLOCK
  5
20
330
1F
100
AcDbEntity
  8
0
100
AcDbBlockBegin
  2
*MODEL_SPACE
 70
     0
 10
0.0
 20
0.0
 30
0.0
  3
*MODEL_SPACE
  1

  0
ENDBLK
  5
21
330
1F
100
AcDbEntity
  8
0
100
AcDbBlockEnd
  0
BLOCK
  5
1C
330
1B
100
AcDbEntity
 67
     1
  8
0
100
AcDbBlockBegin
  2
*PAPER_SPACE
 70
     0
 10
0.0
 20
0.0
 30
0.0
  3
*PAPER_SPACE
  1

  0
ENDBLK
  5
1D
330
1B
100
AcDbEntity
 67
     1
  8
0
100
AcDbBlockEnd
  0
BLOCK
  5
127
330
123
100
AcDbEntity
  8
0
100
AcDbBlockBegin
  2
_OPEN
 70
     0
 10
0.0
 20
0.0
 30
0.0
  3
_OPEN
  1

  0
LINE
  5
124
330
123
100
AcDbEntity
  8
0
  6
ByBlock
 62
     0
100
AcDbLine
 10
-1.0
 20
0.1666666666666666
 30
0.0
 11
0.0
 21
0.0
 31
0.0
  0
LINE
  5
125
330
123
100
AcDbEntity
  8
0
  6
ByBlock
 62
     0
100
AcDbLine
 10
0.0
 20
0.0
 30
0.0
 11
-1.0
 21
-0.1666666666666666
 31
0.0
  0
LINE
  5
126
330
123
100
AcDbEntity
  8
0
  6
ByBlock
 62
     0
100
AcDbLine
 10
0.0
 20
0.0
 30
0.0
 11
-1.0
 21
0.0
 31
0.0
  0
ENDBLK
  5
128
330
123
100
AcDbEntity
  8
0
100
AcDbBlockEnd
  0
BLOCK
  5
499
330
495
100
AcDbEntity
  8
0
100
AcDbBlockBegin
  2
_OPEN30
 70
     0
 10
0.0
 20
0.0
 30
0.0
  3
_OPEN30
  1

  0
LINE
  5
496
330
495
100
AcDbEntity
  8
DIMENSION
 62
     0
100
AcDbLine
 10
-1.0
 20
0.26794919
 30
0.0
 11
0.0
 21
0.0
 31
0.0
  0
LINE
  5
497
330
495
100
AcDbEntity
  8
DIMENSION
 62
     0
100
AcDbLine
 10
0.0
 20
0.0
 30
0.0
 11
-1.0
 21
-0.26794919
 31
0.0
  0
LINE
  5
498
330
495
100
AcDbEntity
  8
DIMENSION
 62
     0
100
AcDbLine
 10
0.0
 20
0.0
 30
0.0
 11
-1.0
 21
0.0
 31
0.0
  0
ENDBLK
  5
49A
330
495
100
AcDbEntity
  8
0
100
AcDbBlockEnd
  0
ENDSEC
  0
SECTION
  2
ENTITIES
  0
MTEXT
  5
1E1CF
330
1F
100
AcDbEntity
  8
0
100
AcDbMText
 10
909.4269509669732
 20
447.0555623760708
 30
0.0
 40
2.5
 41
0.625
 71
     1
 72
     1
  1

 73
     1
 44
1.0
1001
ACAD
1000
MTEXTBEGIN
1070
    73
1070
     1
1070
    44
1040
1.0
1070
    74
1070
     0
1000
MTEXTEND
  0
MTEXT
  5
2753B
330
1F
100
AcDbEntity
  8
TEXT
 62
     7
100
AcDbMText
 10
-396.1773850256199
 20
1556.408851306678
 30
0.0
 40
3.0
 41
1.0
 71
     9
 72
     1
  1

  7
まこ
 73
     1
 44
1.0
1001
ACAD
1000
MTEXTBEGIN
1070
    73
1070
     1
1070
    44
1040
1.0
1070
    74
1070
     0
1000
MTEXTEND
  0
MTEXT
  5
27578
330
1F
100
AcDbEntity
  8
DIMENSION
 62
     7
100
AcDbMText
 10
-313.5767856379211
 20
1517.204398976271
 30
0.0
 40
3.0
 41
1.0
 71
     7
 72
     1
  1

  7
まこ
 73
     1
 44
1.0
1001
ACAD
1000
MTEXTBEGIN
1070
    73
1070
     1
1070
    44
1040
1.0
1070
    74
1070
     0
1000
MTEXTEND
  0
ARC
  5
2A946
102
{ACAD_REACTORS
330
2C6E2
102
}
330
1F
100
AcDbEntity
  8
破線
100
AcDbCircle
 10
936.6007842096546
 20
2408.299799342586
 30
0.0
 40
223.0
100
AcDbArc
 50
212.5000000000103
 51
327.4999999999895
  0
ARC
  5
2A947
102
{ACAD_REACTORS
330
2C6E2
102
}
330
1F
100
AcDbEntity
  8
実線
 48
10.0
100
AcDbCircle
 10
936.6007842096546
 20
2408.299799342586
 30
0.0
 40
201.0
100
AcDbArc
 50
212.5000000000103
 51
327.4999999999895
  0
ARC
  5
2A948
102
{ACAD_REACTORS
330
2C6E2
102
}
330
1F
100
AcDbEntity
  8
中心線
 48
0.5
100
AcDbCircle
 10
936.6007842096546
 20
2408.299799342586
 30
0.0
 40
230.0
100
AcDbArc
 50
215.8627567525722
 51
323.9405730303027
  0
ARC
  5
2A949
102
{ACAD_REACTORS
330
2C6E2
102
}
330
1F
100
AcDbEntity
  8
実線
 48
10.0
100
AcDbCircle
 10
936.6007842096546
 20
2408.299799342586
 30
0.0
 40
240.0
100
AcDbArc
 50
212.5000000000103
 51
327.4999999999895
  0
ARC
  5
2A94A
102
{ACAD_REACTORS
330
2C6E2
102
}
330
1F
100
AcDbEntity
  8
実線
 48
10.0
100
AcDbCircle
 10
936.600784209653
 20
2408.299799342586
 30
0.0
 40
143.9999999999995
100
AcDbArc
 50
212.897890555838
 51
327.1021094441611
  0
LINE
  5
2A952
102
{ACAD_REACTORS
330
2C6E2
102
}
330
1F
100
AcDbEntity
  8
実線
 48
50.0
100
AcDbLine
 10
734.1868372145613
 20
2279.34789333935
 30
0.0
 11
767.0791036012639
 21
2300.302578064875
 31
0.0
  0
CIRCLE
  5
2A95A
102
{ACAD_REACTORS
330
2C6E2
102
}
330
1F
100
AcDbEntity
  8
実線
 48
10.0
100
AcDbCircle
 10
873.2041923717456
 20
2187.209609276771
 30
0.0
 40
5.5
  0
CIRCLE
  5
2A95F
102
{ACAD_REACTORS
330
2C6E2
102
}
330
1F
100
AcDbEntity
  8
実線
 48
10.0
100
AcDbCircle
 10
801.4101761823932
 20
2222.225890636341
 30
0.0
 40
4.75
  0
LINE
  5
2A960
102
{ACAD_REACTORS
330
2C6E2
102
}
330
1F
100
AcDbEntity
  8
中心線
 48
0.5
100
AcDbLine
 10
804.1209681513532
 20
2196.287775303481
 30
0.0
 11
823.3060362205673
 21
2226.990302176646
 31
0.0
  0
LINE
  5
2A961
102
{ACAD_REACTORS
330
2C6E2
102
}
330
1F
100
AcDbEntity
  8
中心線
 48
0.5
100
AcDbLine
 10
789.6544711365472
 20
2206.045550748847
 30
0.0
 11
810.7907185920847
 21
2235.137099613254
 31
0.0
  0
CIRCLE
  5
2A967
102
{ACAD_REACTORS
330
2C6E2
102
}
330
1F
100
AcDbEntity
  8
実線
 48
0.1
100
AcDbCircle
 10
765.6774743498547
 20
2254.399759880048
 30
0.0
 40
3.299999999999998
  0
LINE
  5
2A968
102
{ACAD_REACTORS
330
2C6E2
102
}
330
1F
100
AcDbEntity
  8
中心線
 48
0.5
100
AcDbLine
 10
750.8145778403062
 20
2241.017147752873
 30
0.0
 11
777.7192122334302
 21
2265.242189370796
 31
0.0
  0
LINE
  5
2A969
102
{ACAD_REACTORS
330
2C6E2
102
}
330
1F
100
AcDbEntity
  8
中心線
 48
0.5
100
AcDbLine
 10
762.9361915949179
 20
2228.46484925792
 30
0.0
 11
787.9155036103481
 21
2254.33168406753
 31
0.0
  0
CIRCLE
  5
2A96A
102
{ACAD_REACTORS
330
2C6E2
102
}
330
1F
100
AcDbEntity
  8
実線
 48
10.0
100
AcDbCircle
 10
765.6774743498547
 20
2254.399759880048
 30
0.0
 40
5.5
  0
CIRCLE
  5
2A96C
102
{ACAD_REACTORS
330
2C6E2
102
}
330
1F
100
AcDbEntity
  8
実線
 48
10.0
100
AcDbCircle
 10
755.3583108801163
 20
2266.697660017674
 30
0.0
 40
4.75
  0
LINE
  5
2A96D
102
{ACAD_REACTORS
330
2C6E2
102
}
330
1F
100
AcDbEntity
  8
中心線
 48
0.5
100
AcDbLine
 10
739.5980958079884
 20
2254.384430511166
 30
0.0
 11
767.9342784884775
 21
2276.5230827495
 31
0.0
  0
CIRCLE
  5
2A96E
102
{ACAD_REACTORS
330
2C6E2
102
}
330
1F
100
AcDbEntity
  8
実線
 48
10.0
100
AcDbCircle
 10
755.3582990366352
 20
2266.697659189496
 30
0.0
 40
4.25
  0
CIRCLE
  5
2A96F
102
{ACAD_REACTORS
330
2C6E2
102
}
330
1F
100
AcDbEntity
  8
実線
 48
10.0
100
AcDbCircle
 10
776.8293590040935
 20
2242.851645264688
 30
0.0
 40
4.75
  0
CIRCLE
  5
2A970
102
{ACAD_REACTORS
330
2C6E2
102
}
330
1F
100
AcDbEntity
  8
実線
 48
10.0
100
AcDbCircle
 10
776.8293471606125
 20
2242.85164443651
 30
0.0
 40
4.25
  0
CIRCLE
  5
2A981
102
{ACAD_REACTORS
330
2C6E2
102
}
330
1F
100
AcDbEntity
  8
実線
 48
0.1
100
AcDbCircle
 10
814.7193534360186
 20
2213.248737226606
 30
0.0
 40
3.299999999999998
  0
LINE
  5
2A983
102
{ACAD_REACTORS
330
2C6E2
102
}
330
1F
100
AcDbEntity
  8
中心線
 48
0.5
100
AcDbLine
 10
819.2328935131904
 20
2187.562901127853
 30
0.0
 11
836.1146833942385
 21
2219.312930139556
 31
0.0
  0
CIRCLE
  5
2A984
102
{ACAD_REACTORS
330
2C6E2
102
}
330
1F
100
AcDbEntity
  8
実線
 48
10.0
100
AcDbCircle
 10
828.6223247689061
 20
2205.221852985029
 30
0.0
 40
4.75
  0
CIRCLE
  5
2A985
102
{ACAD_REACTORS
330
2C6E2
102
}
330
1F
100
AcDbEntity
  8
実線
 48
10.0
100
AcDbCircle
 10
814.719353436018
 20
2213.248737226606
 30
0.0
 40
5.5
  0
CIRCLE
  5
2A986
102
{ACAD_REACTORS
330
2C6E2
102
}
330
1F
100
AcDbEntity
  8
実線
 48
0.1
100
AcDbCircle
 10
873.2041923717465
 20
2187.209609276771
 30
0.0
 40
3.299999999999998
  0
LINE
  5
2A987
102
{ACAD_REACTORS
330
2C6E2
102
}
330
1F
100
AcDbEntity
  8
中心線
 48
0.5
100
AcDbLine
 10
867.6914452554051
 20
2167.984375358006
 30
0.0
 11
877.6705530000905
 21
2202.785659843464
 31
0.0
  0
LINE
  5
2A988
102
{ACAD_REACTORS
330
2C6E2
102
}
330
1F
100
AcDbEntity
  8
中心線
 48
0.5
100
AcDbLine
 10
851.0957483782435
 20
2173.37664414611
 30
0.0
 11
863.3944958475195
 21
2207.167175105519
 31
0.0
  0
CIRCLE
  5
2A98A
102
{ACAD_REACTORS
330
2C6E2
102
}
330
1F
100
AcDbEntity
  8
実線
 48
10.0
100
AcDbCircle
 10
857.9361512447562
 20
2192.170496561824
 30
0.0
 40
4.75
  0
LINE
  5
2A9A3
102
{ACAD_REACTORS
330
2C6E2
102
}
330
1F
100
AcDbEntity
  8
中心線
 48
0.5
100
AcDbLine
 10
954.0399026456864
 20
2158.90878677763
 30
0.0
 11
951.5315204007574
 21
2194.780324106622
 31
0.0
  0
CIRCLE
  5
2A9A4
102
{ACAD_REACTORS
330
2C6E2
102
}
330
1F
100
AcDbEntity
  8
実線
 48
10.0
100
AcDbCircle
 10
952.6447850142854
 20
2178.860068611004
 30
0.0
 40
4.75
  0
CIRCLE
  5
2A9BA
102
{ACAD_REACTORS
330
2C6E2
102
}
330
1F
100
AcDbEntity
  8
実線
 48
10.0
100
AcDbCircle
 10
888.7810953215726
 20
2183.32585117381
 30
0.0
 40
4.75
  0
LINE
  5
2A9BB
102
{ACAD_REACTORS
330
2C6E2
102
}
330
1F
100
AcDbEntity
  8
中心線
 48
0.5
100
AcDbLine
 10
884.6228615052181
 20
2163.762899159135
 30
0.0
 11
892.0991854328502
 21
2198.936237817286
 31
0.0
  0
CIRCLE
  5
2A9C2
102
{ACAD_REACTORS
330
2C6E2
102
}
330
1F
100
AcDbEntity
  8
実線
 48
0.1
100
AcDbCircle
 10
936.6007842096555
 20
2178.299799342585
 30
0.0
 40
3.299999999999998
  0
CIRCLE
  5
2A9C4
102
{ACAD_REACTORS
330
2C6E2
102
}
330
1F
100
AcDbEntity
  8
実線
 48
10.0
100
AcDbCircle
 10
920.5567952485067
 20
2178.860067782826
 30
0.0
 40
4.75
  0
LINE
  5
2A9C6
102
{ACAD_REACTORS
330
2C6E2
102
}
330
1F
100
AcDbEntity
  8
中心線
 48
0.5
100
AcDbLine
 10
919.1616657736245
 20
2158.90878677763
 30
0.0
 11
921.6700480185537
 21
2194.780324106622
 31
0.0
  0
CIRCLE
  5
2A9C7
102
{ACAD_REACTORS
330
2C6E2
102
}
330
1F
100
AcDbEntity
  8
実線
 48
10.0
100
AcDbCircle
 10
936.6007842096546
 20
2178.299799342586
 30
0.0
 40
5.5
  0
CIRCLE
  5
2A9DE
102
{ACAD_REACTORS
330
2C6E2
102
}
330
1F
100
AcDbEntity
  8
実線
 48
10.0
100
AcDbCircle
 10
984.4204730977375
 20
2183.32585117381
 30
0.0
 40
4.75
  0
LINE
  5
2A9DF
102
{ACAD_REACTORS
330
2C6E2
102
}
330
1F
100
AcDbEntity
  8
中心線
 48
0.5
100
AcDbLine
 10
988.5787069140926
 20
2163.762899159134
 30
0.0
 11
981.1023829864607
 21
2198.936237817286
 31
0.0
  0
CIRCLE
  5
2A9E9
102
{ACAD_REACTORS
330
2C6E2
102
}
330
1F
100
AcDbEntity
  8
実線
 48
0.1
100
AcDbCircle
 10
999.9973760475663
 20
2187.209609276771
 30
0.0
 40
3.299999999999998
  0
LINE
  5
2A9EA
102
{ACAD_REACTORS
330
2C6E2
102
}
330
1F
100
AcDbEntity
  8
中心線
 48
0.5
100
AcDbLine
 10
1022.105820041067
 20
2173.376644146108
 30
0.0
 11
1009.807072571791
 21
2207.16717510552
 31
0.0
  0
CIRCLE
  5
2A9EB
102
{ACAD_REACTORS
330
2C6E2
102
}
330
1F
100
AcDbEntity
  8
実線
 48
10.0
100
AcDbCircle
 10
1015.265417174552
 20
2192.170496561824
 30
0.0
 40
4.75
  0
LINE
  5
2A9EC
102
{ACAD_REACTORS
330
2C6E2
102
}
330
1F
100
AcDbEntity
  8
中心線
 48
0.5
100
AcDbLine
 10
1005.510123163905
 20
2167.984375358006
 30
0.0
 11
995.5310154192197
 21
2202.785659843464
 31
0.0
  0
CIRCLE
  5
2A9ED
102
{ACAD_REACTORS
330
2C6E2
102
}
330
1F
100
AcDbEntity
  8
実線
 48
10.0
100
AcDbCircle
 10
999.9973760475652
 20
2187.209609276771
 30
0.0
 40
5.5
  0
LINE
  5
2A9FB
102
{ACAD_REACTORS
330
2C6E2
102
}
330
1F
100
AcDbEntity
  8
実線
 48
0.1
100
AcDbLine
 10
767.6185012112662
 20
2299.460523193523
 30
0.0
 11
815.6926440987701
 21
2330.087129940966
 31
0.0
  0
LINE
  5
2AA01
102
{ACAD_REACTORS
330
2C6E1
102
}
330
1F
100
AcDbEntity
  8
ﾓ_ﾀ
 48
50.0
100
AcDbLine
 10
1129.09763294929
 20
2309.379562660138
 30
0.0
 11
1118.351640782353
 21
2292.51173374388
 31
0.0
  0
LINE
  5
2AA02
102
{ACAD_REACTORS
330
2C6E1
102
}
330
1F
100
AcDbEntity
  8
ﾓ_ﾀ
 48
50.0
100
AcDbLine
 10
1135.001373069979
 20
2305.61846540171
 30
0.0
 11
1124.255380903043
 21
2288.750636485453
 31
0.0
  0
LINE
  5
2AA03
102
{ACAD_REACTORS
330
2C6E2
102
}
330
1F
100
AcDbEntity
  8
実線
 48
50.0
100
AcDbLine
 10
1139.014731204747
 20
2279.347893339349
 30
0.0
 11
1106.122464818044
 21
2300.302578064875
 31
0.0
  0
LINE
  5
2AA0B
102
{ACAD_REACTORS
330
2C6E2
102
}
330
1F
100
AcDbEntity
  8
中心線
 48
0.5
100
AcDbLine
 10
1122.386990579004
 20
2241.017147752873
 30
0.0
 11
1095.276677369902
 21
2265.427383408527
 31
0.0
  0
CIRCLE
  5
2AA0C
102
{ACAD_REACTORS
330
2C6E2
102
}
330
1F
100
AcDbEntity
  8
実線
 48
10.0
100
AcDbCircle
 10
1096.372209415216
 20
2242.851645264689
 30
0.0
 40
4.75
  0
LINE
  5
2AA0E
102
{ACAD_REACTORS
330
2C6E2
102
}
330
1F
100
AcDbEntity
  8
中心線
 48
0.5
100
AcDbLine
 10
1110.265376824395
 20
2228.464849257917
 30
0.0
 11
1085.286064808959
 21
2254.331684067533
 31
0.0
  0
LINE
  5
2AA10
102
{ACAD_REACTORS
330
2C6E2
102
}
330
1F
100
AcDbEntity
  8
中心線
 48
0.5
100
AcDbLine
 10
1083.547097282765
 20
2206.045550748846
 30
0.0
 11
1062.410849827225
 21
2235.137099613257
 31
0.0
  0
LINE
  5
2AA11
102
{ACAD_REACTORS
330
2C6E2
102
}
330
1F
100
AcDbEntity
  8
中心線
 48
0.5
100
AcDbLine
 10
1069.080600267956
 20
2196.287775303481
 30
0.0
 11
1049.895532198742
 21
2226.990302176646
 31
0.0
  0
CIRCLE
  5
2AA12
102
{ACAD_REACTORS
330
2C6E2
102
}
330
1F
100
AcDbEntity
  8
実線
 48
10.0
100
AcDbCircle
 10
1071.791392236915
 20
2222.225890636344
 30
0.0
 40
4.75
  0
CIRCLE
  5
2AA13
102
{ACAD_REACTORS
330
2C6E2
102
}
330
1F
100
AcDbEntity
  8
実線
 48
0.1
100
AcDbCircle
 10
1058.482214983293
 20
2213.248737226606
 30
0.0
 40
3.299999999999998
  0
CIRCLE
  5
2AA14
102
{ACAD_REACTORS
330
2C6E2
102
}
330
1F
100
AcDbEntity
  8
実線
 48
10.0
100
AcDbCircle
 10
1058.482214983291
 20
2213.248737226606
 30
0.0
 40
5.5
  0
CIRCLE
  5
2AA15
102
{ACAD_REACTORS
330
2C6E2
102
}
330
1F
100
AcDbEntity
  8
実線
 48
10.0
100
AcDbCircle
 10
1044.579243650404
 20
2205.221852985029
 30
0.0
 40
4.75
  0
LINE
  5
2AA17
102
{ACAD_REACTORS
330
2C6E2
102
}
330
1F
100
AcDbEntity
  8
中心線
 48
0.5
100
AcDbLine
 10
1053.968674906121
 20
2187.562901127852
 30
0.0
 11
1037.08688502507
 21
2219.312930139559
 31
0.0
  0
CIRCLE
  5
2AA31
102
{ACAD_REACTORS
330
2C6E2
102
}
330
1F
100
AcDbEntity
  8
実線
 48
0.1
100
AcDbCircle
 10
1107.524094069455
 20
2254.399759880048
 30
0.0
 40
3.299999999999998
  0
LINE
  5
2AA32
102
{ACAD_REACTORS
330
2C6E2
102
}
330
1F
100
AcDbEntity
  8
中心線
 48
0.5
100
AcDbLine
 10
1133.603472611325
 20
2254.384430511163
 30
0.0
 11
1105.26728993083
 21
2276.523082749501
 31
0.0
  0
CIRCLE
  5
2AA33
102
{ACAD_REACTORS
330
2C6E2
102
}
330
1F
100
AcDbEntity
  8
実線
 48
10.0
100
AcDbCircle
 10
1117.843257539193
 20
2266.697660017676
 30
0.0
 40
4.75
  0
CIRCLE
  5
2AA34
102
{ACAD_REACTORS
330
2C6E2
102
}
330
1F
100
AcDbEntity
  8
実線
 48
10.0
100
AcDbCircle
 10
1107.524094069455
 20
2254.399759880049
 30
0.0
 40
5.5
  0
LINE
  5
2AA38
102
{ACAD_REACTORS
330
2C6E1
102
}
330
1F
100
AcDbEntity
  8
ﾓ_ﾀ
100
AcDbLine
 10
1171.333166950111
 20
2378.625637419109
 30
0.0
 11
1178.37181605246
 21
2389.674103397456
 31
0.0
  0
LINE
  5
2AA39
102
{ACAD_REACTORS
330
2C6E1
102
}
330
1F
100
AcDbEntity
  8
ﾓ_ﾀ
100
AcDbLine
 10
1164.717543505366
 20
2355.562929732707
 30
0.0
 11
1178.801732335067
 21
2372.546120837657
 31
0.0
  0
LINE
  5
2AA3A
102
{ACAD_REACTORS
330
2C6E1
102
}
330
1F
100
AcDbEntity
  8
ﾓ_ﾀ
100
AcDbLine
 10
1163.033387532145
 20
2356.64164130577
 30
0.0
 11
1177.117576361843
 21
2373.624832410722
 31
0.0
  0
LINE
  5
2AA3B
102
{ACAD_REACTORS
330
2C6E1
102
}
330
1F
100
AcDbEntity
  8
ﾓ_ﾀ
100
AcDbLine
 10
1167.087502053655
 20
2365.261658221621
 30
0.0
 11
1172.453394852426
 21
2376.597400918972
 31
0.0
  0
LINE
  5
2AA3C
102
{ACAD_REACTORS
330
2C6E1
102
}
330
1F
100
AcDbEntity
  8
ﾓ_ﾀ
100
AcDbLine
 10
1166.064159692573
 20
2364.027677401411
 30
0.0
 11
1172.11551489872
 21
2376.811497011612
 31
0.0
  0
LINE
  5
2AA3D
102
{ACAD_REACTORS
330
2C6E1
102
}
330
1F
100
AcDbEntity
  8
ﾓ_ﾀ
100
AcDbLine
 10
1161.012400364276
 20
2357.936095193446
 30
0.0
 11
1175.096589193981
 21
2374.919286298401
 31
0.0
  0
LINE
  5
2AA3E
102
{ACAD_REACTORS
330
2C6E1
102
}
330
1F
100
AcDbEntity
  8
ﾓ_ﾀ
100
AcDbLine
 10
1162.6965563375
 20
2356.857383620384
 30
0.0
 11
1176.780745167198
 21
2373.840574725333
 31
0.0
  0
LINE
  5
2AA3F
102
{ACAD_REACTORS
330
2C6E1
102
}
330
1F
100
AcDbEntity
  8
ﾓ_ﾀ
100
AcDbLine
 10
1169.898751040202
 20
2378.235203184762
 30
0.0
 11
1180.019448389958
 21
2371.787607884601
 31
0.0
  0
LINE
  5
2AA40
102
{ACAD_REACTORS
330
2C6E2
102
}
330
1F
100
AcDbEntity
  8
実線
 48
0.1
100
AcDbLine
 10
1105.583067208044
 20
2299.460523193523
 30
0.0
 11
1057.508924320534
 21
2330.087129940964
 31
0.0
  0
LINE
  5
2AA46
102
{ACAD_REACTORS
330
2C6E1
102
}
330
1F
100
AcDbEntity
  8
ﾓ_ﾀ
100
AcDbLine
 10
1160.986352184269
 20
2357.939960760762
 30
0.0
 11
1170.426115130182
 21
2377.881977474797
 31
0.0
  0
LINE
  5
2AA47
102
{ACAD_REACTORS
330
2C6E1
102
}
330
1F
100
AcDbEntity
  8
ﾓ_ﾀ
 48
50.0
100
AcDbLine
 10
1138.884629784969
 20
2325.672649934756
 30
0.0
 11
1128.675937226383
 21
2309.648212464312
 31
0.0
  0
LINE
  5
2AA48
102
{ACAD_REACTORS
330
2C6E1
102
}
330
1F
100
AcDbEntity
  8
ﾓ_ﾀ
 48
50.0
100
AcDbLine
 10
1135.423068792887
 20
2305.349815597537
 30
0.0
 11
1128.675937226383
 21
2309.648212464312
 31
0.0
  0
LINE
  5
2AA49
102
{ACAD_REACTORS
330
2C6E1
102
}
330
1F
100
AcDbEntity
  8
ﾓ_ﾀ
100
AcDbLine
 10
1160.743708420046
 20
2358.123371394468
 30
0.0
 11
1164.960665643544
 21
2355.436873356281
 31
0.0
  0
LINE
  5
2AA4A
102
{ACAD_REACTORS
330
2C6E1
102
}
330
1F
100
AcDbEntity
  8
ﾓ_ﾀ
100
AcDbLine
 10
1159.900316971451
 20
2358.66067100459
 30
0.0
 11
1166.647448537948
 21
2354.362274137812
 31
0.0
  0
LINE
  5
2AA4B
102
{ACAD_REACTORS
330
2C6E1
102
}
330
1F
100
AcDbEntity
  8
ﾓ_ﾀ
100
AcDbLine
 10
1163.013631906512
 20
2356.655384204937
 30
0.0
 11
1163.658085770636
 21
2358.01682832206
 31
0.0
  0
LINE
  5
2AA4C
102
{ACAD_REACTORS
330
2C6E1
102
}
330
1F
100
AcDbEntity
  8
ﾓ_ﾀ
100
AcDbLine
 10
1168.088914319449
 20
2362.737766443197
 30
0.0
 11
1168.774797576052
 21
2364.186732423108
 31
0.0
  0
LINE
  5
2AA4D
102
{ACAD_REACTORS
330
2C6E1
102
}
330
1F
100
AcDbEntity
  8
ﾓ_ﾀ
 48
50.0
100
AcDbLine
 10
1145.631761351475
 20
2321.374253067982
 30
0.0
 11
1135.423068792887
 21
2305.349815597537
 31
0.0
  0
LINE
  5
2AA4E
102
{ACAD_REACTORS
330
2C6E1
102
}
330
1F
100
AcDbEntity
  8
ﾓ_ﾀ
100
AcDbLine
 10
1159.900316971451
 20
2358.66067100459
 30
0.0
 11
1140.667341070721
 21
2328.47094612816
 31
0.0
  0
LINE
  5
2AA4F
102
{ACAD_REACTORS
330
2C6E1
102
}
330
1F
100
AcDbEntity
  8
ﾓ_ﾀ
100
AcDbLine
 10
1166.647448537948
 20
2354.362274137812
 30
0.0
 11
1147.428122982802
 21
2324.193976011966
 31
0.0
  0
LINE
  5
2AA50
102
{ACAD_REACTORS
330
2C6E1
102
}
330
1F
100
AcDbEntity
  8
ﾓ_ﾀ
100
AcDbLine
 10
1169.898751040202
 20
2378.235203184762
 30
0.0
 11
1170.489780609383
 21
2379.162933775159
 31
0.0
  0
LINE
  5
2AA51
102
{ACAD_REACTORS
330
2C6E1
102
}
330
1F
100
AcDbEntity
  8
ﾓ_ﾀ
100
AcDbLine
 10
1170.489780609383
 20
2379.162933775159
 30
0.0
 11
1171.333166950111
 21
2378.625637419109
 31
0.0
  0
LINE
  5
2AA52
102
{ACAD_REACTORS
330
2C6E1
102
}
330
1F
100
AcDbEntity
  8
ﾓ_ﾀ
100
AcDbLine
 10
1180.019448389958
 20
2371.787607884601
 30
0.0
 11
1180.610477959139
 21
2372.715338474995
 31
0.0
  0
LINE
  5
2AA53
102
{ACAD_REACTORS
330
2C6E1
102
}
330
1F
100
AcDbEntity
  8
ﾓ_ﾀ
100
AcDbLine
 10
1172.20421385907
 20
2371.431562322673
 30
0.0
 11
1174.142794620965
 21
2375.526920455787
 31
0.0
  0
LINE
  5
2AA54
102
{ACAD_REACTORS
330
2C169
330
2C6E1
102
}
330
1F
100
AcDbEntity
  8
ﾓ_ﾀ
100
AcDbLine
 10
1176.054361285242
 20
2388.762575566893
 30
0.0
 11
1172.304578613622
 21
2384.670405860191
 31
0.0
  0
LINE
  5
2AA55
102
{ACAD_REACTORS
330
2C169
330
2C6E1
102
}
330
1F
100
AcDbEntity
  8
ﾓ_ﾀ
100
AcDbLine
 10
1178.061831272428
 20
2395.515465347906
 30
0.0
 11
1172.007232257227
 21
2386.011648598517
 31
0.0
  0
LINE
  5
2AA56
102
{ACAD_REACTORS
330
2C169
330
2C6E1
102
}
330
1F
100
AcDbEntity
  8
ﾓ_ﾀ
100
AcDbLine
 10
1176.702174608496
 20
2394.158664593615
 30
0.0
 11
1171.132987410895
 21
2385.416791773268
 31
0.0
  0
LINE
  5
2AA57
102
{ACAD_REACTORS
330
2C6E1
102
}
330
1F
100
AcDbEntity
  8
ﾓ_ﾀ
100
AcDbLine
 10
1179.767081408241
 20
2373.25264133564
 30
0.0
 11
1186.805730510589
 21
2384.301107313989
 31
0.0
  0
LINE
  5
2AA58
102
{ACAD_REACTORS
330
2C169
330
2C6E1
102
}
330
1F
100
AcDbEntity
  8
ﾓ_ﾀ
100
AcDbLine
 10
1172.304578613622
 20
2384.670405860191
 30
0.0
 11
1171.132987410895
 21
2385.416791773268
 31
0.0
  0
LINE
  5
2AA59
102
{ACAD_REACTORS
330
2C169
330
2C6E1
102
}
330
1F
100
AcDbEntity
  8
ﾓ_ﾀ
100
AcDbLine
 10
1172.007232257227
 20
2386.011648598517
 30
0.0
 11
1171.654935601863
 21
2386.236086320633
 31
0.0
  0
LINE
  5
2AA5A
102
{ACAD_REACTORS
330
2C6E1
102
}
330
1F
100
AcDbEntity
  8
ﾓ_ﾀ
100
AcDbLine
 10
1179.767081408241
 20
2373.25264133564
 30
0.0
 11
1180.610477959139
 21
2372.715338474995
 31
0.0
  0
LINE
  5
2AA5B
102
{ACAD_REACTORS
330
2C169
330
2C6E1
102
}
330
1F
100
AcDbEntity
  8
ﾓ_ﾀ
100
AcDbLine
 10
1180.468156922323
 20
2395.134279056045
 30
0.0
 11
1179.403074010753
 21
2395.812811704303
 31
0.0
  0
LINE
  5
2AA5C
102
{ACAD_REACTORS
330
2C169
330
2C6E1
102
}
330
1F
100
AcDbEntity
  8
ﾓ_ﾀ
100
AcDbLine
 10
1178.37181605246
 20
2389.674103397456
 30
0.0
 11
1175.15198848133
 21
2391.725359787951
 31
0.0
  0
LINE
  5
2AA5D
102
{ACAD_REACTORS
330
2C169
330
2C6E1
102
}
330
1F
100
AcDbEntity
  8
ﾓ_ﾀ
100
AcDbLine
 10
1179.13355180927
 20
2393.220166961478
 30
0.0
 11
1177.306733140889
 21
2390.352636045713
 31
0.0
  0
ARC
  5
2AA5E
102
{ACAD_REACTORS
330
2C169
330
2C6E1
102
}
330
1F
100
AcDbEntity
  8
ﾓ_ﾀ
100
AcDbCircle
 10
1176.412467420266
 20
2388.434431751766
 30
0.0
 40
0.4857142857142857
100
AcDbArc
 50
57.50000000000967
 51
137.5000000000199
  0
LINE
  5
2AA5F
102
{ACAD_REACTORS
330
2C169
330
2C6E1
102
}
330
1F
100
AcDbEntity
  8
ﾓ_ﾀ
100
AcDbLine
 10
1180.765503278718
 20
2393.79303631772
 30
0.0
 11
1179.982580992269
 21
2392.564094496679
 31
0.0
  0
ARC
  5
2AA60
102
{ACAD_REACTORS
330
2C169
330
2C6E1
102
}
330
1F
100
AcDbEntity
  8
ﾓ_ﾀ
100
AcDbCircle
 10
1176.834760686294
 20
2388.165401270639
 30
0.0
 40
0.4857142857142857
100
AcDbArc
 50
327.5000000000096
 51
57.50000000000967
  0
LINE
  5
2AA61
102
{ACAD_REACTORS
330
2C169
330
2C6E1
102
}
330
1F
100
AcDbEntity
  8
ﾓ_ﾀ
100
AcDbLine
 10
1180.468156922323
 20
2395.134279056045
 30
0.0
 11
1180.765503278718
 21
2393.79303631772
 31
0.0
  0
LINE
  5
2AA62
102
{ACAD_REACTORS
330
2C169
330
2C6E1
102
}
330
1F
100
AcDbEntity
  8
ﾓ_ﾀ
100
AcDbLine
 10
1179.982580992269
 20
2392.564094496675
 30
0.0
 11
1179.13355180927
 21
2393.220166961478
 31
0.0
  0
LINE
  5
2AA63
102
{ACAD_REACTORS
330
2C169
330
2C6E1
102
}
330
1F
100
AcDbEntity
  8
ﾓ_ﾀ
100
AcDbLine
 10
1177.095734781776
 20
2388.575048544316
 30
0.0
 11
1176.673441515748
 21
2388.844079025445
 31
0.0
  0
LINE
  5
2AA64
102
{ACAD_REACTORS
330
2C6E1
102
}
330
1F
100
AcDbEntity
  8
ﾓ_ﾀ
100
AcDbLine
 10
1178.37181605246
 20
2389.674103397456
 30
0.0
 11
1186.805730510589
 21
2384.301107313989
 31
0.0
  0
LINE
  5
2AA65
102
{ACAD_REACTORS
330
2C6E1
102
}
330
1F
100
AcDbEntity
  8
ﾓ_ﾀ
100
AcDbLine
 10
1188.178069642161
 20
2394.690876816145
 30
0.0
 11
1191.087770130216
 21
2392.837193167349
 31
0.0
  0
LINE
  5
2AA66
102
{ACAD_REACTORS
330
2C6E1
102
}
330
1F
100
AcDbEntity
  8
ﾓ_ﾀ
100
AcDbLine
 10
1184.72016471433
 20
2396.893805210364
 30
0.0
 11
1187.629865202385
 21
2395.040121561569
 31
0.0
  0
LINE
  5
2AA67
102
{ACAD_REACTORS
330
2C6E1
102
}
330
1F
100
AcDbEntity
  8
ﾓ_ﾀ
100
AcDbLine
 10
1184.72016471433
 20
2396.893805210364
 30
0.0
 11
1179.615818435035
 21
2388.881586475144
 31
0.0
  0
LINE
  5
2AA68
102
{ACAD_REACTORS
330
2C6E1
102
}
330
1F
100
AcDbEntity
  8
ﾓ_ﾀ
100
AcDbLine
 10
1187.629865202385
 20
2395.040121561569
 30
0.0
 11
1182.52551892309
 21
2387.027902826347
 31
0.0
  0
LINE
  5
2AA69
102
{ACAD_REACTORS
330
2C6E1
102
}
330
1F
100
AcDbEntity
  8
ﾓ_ﾀ
100
AcDbLine
 10
1188.178069642161
 20
2394.690876816145
 30
0.0
 11
1183.073723362868
 21
2386.678658080922
 31
0.0
  0
LINE
  5
2AA6A
102
{ACAD_REACTORS
330
2C6E1
102
}
330
1F
100
AcDbEntity
  8
ﾓ_ﾀ
100
AcDbLine
 10
1191.087770130216
 20
2392.837193167349
 30
0.0
 11
1185.983423850922
 21
2384.824974432126
 31
0.0
  0
LINE
  5
2AA6B
102
{ACAD_REACTORS
330
2C169
330
2C6E1
102
}
330
1F
100
AcDbEntity
  8
ﾓ_ﾀ
100
AcDbLine
 10
1178.098203533336
 20
2393.764575335898
 30
0.0
 11
1176.323579684056
 21
2390.978973874871
 31
0.0
  0
LINE
  5
2AA6C
102
{ACAD_REACTORS
330
2C169
330
2C6E1
102
}
330
1F
100
AcDbEntity
  8
ﾓ_ﾀ
100
AcDbLine
 10
1177.278908985979
 20
2394.286523526864
 30
0.0
 11
1176.702174608496
 21
2394.158664593615
 31
0.0
  0
LINE
  5
2AA6D
102
{ACAD_REACTORS
330
2C169
330
2C6E1
102
}
330
1F
100
AcDbEntity
  8
ﾓ_ﾀ
100
AcDbLine
 10
1178.061831272428
 20
2395.515465347906
 30
0.0
 11
1179.403074010753
 21
2395.812811704303
 31
0.0
  0
LINE
  5
2AA6E
102
{ACAD_REACTORS
330
2C169
330
2C6E1
102
}
330
1F
100
AcDbEntity
  8
ﾓ_ﾀ
100
AcDbLine
 10
1178.098203533336
 20
2393.764575335898
 30
0.0
 11
1177.278908985979
 21
2394.286523526864
 31
0.0
  0
LINE
  5
2B463
102
{ACAD_REACTORS
330
2C6C8
102
}
330
1F
100
AcDbEntity
  8
中心線
 48
0.5
100
AcDbLine
 10
1299.259753163842
 20
2164.80956940861
 30
0.0
 11
1299.259753163842
 21
2267.154467702277
 31
0.0
  0
LINE
  5
2B466
102
{ACAD_REACTORS
330
2C6C8
102
}
330
1F
100
AcDbEntity
  8
実線
 48
10.0
100
AcDbLine
 10
1303.159753163843
 20
2185.299799342585
 30
0.0
 11
1303.159753163844
 21
2207.299799342587
 31
0.0
  0
LINE
  5
2B467
102
{ACAD_REACTORS
330
2C6C8
102
}
330
1F
100
AcDbEntity
  8
実線
 48
10.0
100
AcDbLine
 10
1294.559753163842
 20
2185.299799342586
 30
0.0
 11
1294.559753163842
 21
2207.299799342587
 31
0.0
  0
LINE
  5
2B468
102
{ACAD_REACTORS
330
2C6C8
102
}
330
1F
100
AcDbEntity
  8
実線
 48
10.0
100
AcDbLine
 10
1284.259753163842
 20
2206.299799342585
 30
0.0
 11
1284.259753163841
 21
2169.299799342586
 31
0.0
  0
LINE
  5
2B469
102
{ACAD_REACTORS
330
2C6C8
102
}
330
1F
100
AcDbEntity
  8
実線
 48
10.0
100
AcDbLine
 10
1314.259753163844
 20
2170.299799342586
 30
0.0
 11
1314.259753163844
 21
2206.799799342585
 31
0.0
  0
LINE
  5
2B46B
102
{ACAD_REACTORS
330
2C6C8
102
}
330
1F
100
AcDbEntity
  8
破線
 48
0.3
100
AcDbLine
 10
1292.559753163842
 20
2175.549799342582
 30
0.0
 11
1289.759753163842
 21
2175.549799342586
 31
0.0
  0
LINE
  5
2B46C
102
{ACAD_REACTORS
330
2C6C8
102
}
330
1F
100
AcDbEntity
  8
中心線
 48
0.5
100
AcDbLine
 10
1317.127076164418
 20
2178.299799342583
 30
0.0
 11
1280.810343474745
 21
2178.299799342586
 31
0.0
  0
LINE
  5
2B46D
102
{ACAD_REACTORS
330
2C6C8
102
}
330
1F
100
AcDbEntity
  8
破線
 48
0.3
100
AcDbLine
 10
1292.559753163842
 20
2183.799799342586
 30
0.0
 11
1284.259753163843
 21
2183.799799342586
 31
0.0
  0
LINE
  5
2B46E
102
{ACAD_REACTORS
330
2C6C8
102
}
330
1F
100
AcDbEntity
  8
破線
 48
0.3
100
AcDbLine
 10
1292.559753163842
 20
2172.799799342584
 30
0.0
 11
1284.259753163841
 21
2172.799799342588
 31
0.0
  0
LINE
  5
2B470
102
{ACAD_REACTORS
330
2C6C8
102
}
330
1F
100
AcDbEntity
  8
実線
 48
0.1
100
AcDbLine
 10
1292.559753163842
 20
2168.299799342585
 30
0.0
 11
1285.259753163841
 21
2168.299799342585
 31
0.0
  0
LINE
  5
2B475
102
{ACAD_REACTORS
330
2C6C8
102
}
330
1F
100
AcDbEntity
  8
実線
 48
0.1
100
AcDbLine
 10
1284.259753163841
 20
2169.299799342586
 30
0.0
 11
1285.259753163841
 21
2168.299799342585
 31
0.0
  0
CIRCLE
  5
2B47A
102
{ACAD_REACTORS
330
2C6C8
102
}
330
1F
100
AcDbEntity
  8
DIMENSION
 48
0.1
100
AcDbCircle
 10
1299.259753163843
 20
2189.299799342586
 30
0.0
 40
3.6
  0
LINE
  5
2B47B
102
{ACAD_REACTORS
330
2C6C8
102
}
330
1F
100
AcDbEntity
  8
中心線
 48
0.1
100
AcDbLine
 10
1302.740336409142
 20
2189.299799342586
 30
0.0
 11
1295.451474292696
 21
2189.299799342586
 31
0.0
  0
LINE
  5
2B47D
102
{ACAD_REACTORS
330
2C6C8
102
}
330
1F
100
AcDbEntity
  8
実線
 48
10.0
100
AcDbLine
 10
1316.759753163842
 20
2168.799799342586
 30
0.0
 11
1316.759753163842
 21
2170.299799342585
 31
0.0
  0
LINE
  5
2B47E
102
{ACAD_REACTORS
330
2C6C8
102
}
330
1F
100
AcDbEntity
  8
破線
 48
0.5
100
AcDbLine
 10
1314.259753163843
 20
2172.799799342586
 30
0.0
 11
1307.759753163842
 21
2172.799799342588
 31
0.0
  0
LINE
  5
2B47F
102
{ACAD_REACTORS
330
2C6C8
102
}
330
1F
100
AcDbEntity
  8
破線
 48
0.5
100
AcDbLine
 10
1314.259753163843
 20
2183.799799342585
 30
0.0
 11
1307.759753163842
 21
2183.799799342586
 31
0.0
  0
LINE
  5
2B480
102
{ACAD_REACTORS
330
2C6C8
102
}
330
1F
100
AcDbEntity
  8
破線
 48
0.5
100
AcDbLine
 10
1307.759753163844
 20
2172.799799342587
 30
0.0
 11
1307.759753163842
 21
2183.799799342586
 31
0.0
  0
LINE
  5
2B481
102
{ACAD_REACTORS
330
2C6C8
102
}
330
1F
100
AcDbEntity
  8
実線
 48
10.0
100
AcDbLine
 10
1292.559753163842
 20
2184.799799342585
 30
0.0
 11
1293.059753163842
 21
2185.299799342585
 31
0.0
  0
LINE
  5
2B482
102
{ACAD_REACTORS
330
2C6C8
102
}
330
1F
100
AcDbEntity
  8
実線
 48
0.1
100
AcDbLine
 10
1294.559753163842
 20
2185.299799342586
 30
0.0
 11
1292.559753163841
 21
2185.299799342585
 31
0.0
  0
LINE
  5
2B483
102
{ACAD_REACTORS
330
2C6C8
102
}
330
1F
100
AcDbEntity
  8
破線
 48
0.5
100
AcDbLine
 10
1307.759753163844
 20
2174.999799342586
 30
0.0
 11
1292.559753163841
 21
2174.999799342584
 31
0.0
  0
LINE
  5
2B484
102
{ACAD_REACTORS
330
2C6C8
102
}
330
1F
100
AcDbEntity
  8
破線
 48
0.5
100
AcDbLine
 10
1307.759753163842
 20
2181.599799342587
 30
0.0
 11
1292.559753163843
 21
2181.599799342587
 31
0.0
  0
LINE
  5
2B485
102
{ACAD_REACTORS
330
2C6C8
102
}
330
1F
100
AcDbEntity
  8
実線
 48
10.0
100
AcDbLine
 10
1303.159753163844
 20
2185.299799342585
 30
0.0
 11
1293.059753163842
 21
2185.299799342585
 31
0.0
  0
LINE
  5
2B486
102
{ACAD_REACTORS
330
2C6C8
102
}
330
1F
100
AcDbEntity
  8
実線
 48
10.0
100
AcDbLine
 10
1314.259753163843
 20
2170.299799342585
 30
0.0
 11
1316.759753163842
 21
2170.299799342585
 31
0.0
  0
LINE
  5
2B491
102
{ACAD_REACTORS
330
2C6C8
102
}
330
1F
100
AcDbEntity
  8
実線
 48
10.0
100
AcDbLine
 10
1292.559753163843
 20
2168.299799342585
 30
0.0
 11
1316.259753163842
 21
2168.299799342586
 31
0.0
  0
LINE
  5
2B492
102
{ACAD_REACTORS
330
2C6C8
102
}
330
1F
100
AcDbEntity
  8
実線
 48
10.0
100
AcDbLine
 10
1316.759753163842
 20
2168.799799342586
 30
0.0
 11
1316.259753163842
 21
2168.299799342586
 31
0.0
  0
LINE
  5
2B493
102
{ACAD_REACTORS
330
2C6C8
102
}
330
1F
100
AcDbEntity
  8
実線
 48
10.0
100
AcDbLine
 10
1292.559753163843
 20
2168.299799342585
 30
0.0
 11
1292.559753163842
 21
2184.799799342585
 31
0.0
  0
LINE
  5
2B494
102
{ACAD_REACTORS
330
2C6C8
102
}
330
1F
100
AcDbEntity
  8
実線
 48
10.0
100
AcDbLine
 10
1292.559753163842
 20
2168.299799342585
 30
0.0
 11
1292.559753163842
 21
2185.299799342585
 31
0.0
  0
LINE
  5
2B498
102
{ACAD_REACTORS
330
2C6C8
102
}
330
1F
100
AcDbEntity
  8
実線
 48
10.0
100
AcDbLine
 10
1294.559753163843
 20
2207.299799342586
 30
0.0
 11
1285.259753163842
 21
2207.299799342586
 31
0.0
  0
LINE
  5
2B499
102
{ACAD_REACTORS
330
2C6C8
102
}
330
1F
100
AcDbEntity
  8
実線
 48
10.0
100
AcDbLine
 10
1285.259753163842
 20
2207.299799342586
 30
0.0
 11
1284.259753163842
 21
2206.299799342585
 31
0.0
  0
LINE
  5
2B4BD
102
{ACAD_REACTORS
330
2C6C8
102
}
330
1F
100
AcDbEntity
  8
実線
 48
10.0
100
AcDbLine
 10
1313.759753163843
 20
2207.299799342585
 30
0.0
 11
1303.159753163843
 21
2207.299799342586
 31
0.0
  0
LINE
  5
2B4CB
102
{ACAD_REACTORS
330
2C6C8
102
}
330
1F
100
AcDbEntity
  8
実線
 48
10.0
100
AcDbLine
 10
1313.759753163843
 20
2207.299799342585
 30
0.0
 11
1314.259753163844
 21
2206.799799342585
 31
0.0
  0
LINE
  5
2B692
102
{ACAD_REACTORS
330
2C6C8
102
}
330
1F
100
AcDbEntity
  8
実線
 48
0.1
100
AcDbLine
 10
1304.159753163844
 20
2207.299799342586
 30
0.0
 11
1302.359753163842
 21
2209.099799342588
 31
0.0
  0
LINE
  5
2B693
102
{ACAD_REACTORS
330
2C6C8
102
}
330
1F
100
AcDbEntity
  8
実線
 48
0.1
100
AcDbLine
 10
1302.359753163842
 20
2209.099799342588
 30
0.0
 11
1302.359753163842
 21
2264.299799342585
 31
0.0
  0
LINE
  5
2B696
102
{ACAD_REACTORS
330
2C6C8
102
}
330
1F
100
AcDbEntity
  8
実線
 48
0.1
100
AcDbLine
 10
1302.359753163842
 20
2264.299799342585
 30
0.0
 11
1296.159753163842
 21
2264.299799342585
 31
0.0
  0
LINE
  5
2B697
102
{ACAD_REACTORS
330
2C6C8
102
}
330
1F
100
AcDbEntity
  8
実線
 48
0.1
100
AcDbLine
 10
1296.159753163842
 20
2264.299799342585
 30
0.0
 11
1296.159753163842
 21
2209.099799342586
 31
0.0
  0
LINE
  5
2B698
102
{ACAD_REACTORS
330
2C6C8
102
}
330
1F
100
AcDbEntity
  8
実線
 48
0.1
100
AcDbLine
 10
1296.159753163842
 20
2209.099799342586
 30
0.0
 11
1294.359753163842
 21
2207.299799342586
 31
0.0
  0
SPLINE
  5
2BC66
102
{ACAD_REACTORS
330
2C6E1
102
}
330
1F
100
AcDbEntity
  8
ﾓ_ﾀ
 48
0.1
100
AcDbSpline
210
0.0
220
0.0
230
1.0
 70
     8
 71
     3
 72
    11
 73
     7
 74
     5
 42
0.0000000001
 43
0.0000000001
 44
0.0000000001
 40
0.0
 40
0.0
 40
0.0
 40
0.0
 40
1.907696534025624
 40
4.607277419842419
 40
6.4117273656461
 40
8.747514479283056
 40
8.747514479283056
 40
8.747514479283056
 40
8.747514479283056
 10
1138.884629784969
 20
2325.672649934756
 30
0.0
 10
1139.567061348351
 20
2325.806286304536
 30
0.0
 10
1141.215201645552
 20
2326.129031467604
 30
0.0
 10
1142.365780412339
 20
2323.878348105986
 30
0.0
 10
1143.303769457843
 20
2321.702650031324
 30
0.0
 10
1144.792095945591
 20
2321.492700030907
 30
0.0
 10
1145.631761351475
 20
2321.374253067982
 30
0.0
 11
1138.884629784969
 21
2325.672649934756
 31
0.0
 11
1140.791103327192
 21
2325.740948534605
 31
0.0
 11
1142.457947122917
 21
2323.617421110784
 31
0.0
 11
1143.405761913694
 21
2322.081945051285
 31
0.0
 11
1145.631761351475
 21
2321.374253067982
 31
0.0
  0
SPLINE
  5
2BC67
102
{ACAD_REACTORS
330
2C6E1
102
}
330
1F
100
AcDbEntity
  8
ﾓ_ﾀ
 48
0.1
100
AcDbSpline
210
0.0
220
0.0
230
1.0
 70
     8
 71
     3
 72
    11
 73
     7
 74
     5
 42
0.0000000001
 43
0.0000000001
 44
0.0000000001
 40
0.0
 40
0.0
 40
0.0
 40
0.0
 40
1.907696534023839
 40
4.607277419839932
 40
6.411727365642157
 40
8.747514479281161
 40
8.747514479281161
 40
8.747514479281161
 40
8.747514479281161
 10
1140.667341070721
 20
2328.47094612816
 30
0.0
 10
1141.349772634102
 20
2328.604582497941
 30
0.0
 10
1142.997912931302
 20
2328.92732766101
 30
0.0
 10
1144.148491698086
 20
2326.67664429939
 30
0.0
 10
1145.086480743594
 20
2324.500946224732
 30
0.0
 10
1146.574807231342
 20
2324.290996224312
 30
0.0
 10
1147.414472637225
 20
2324.172549261386
 30
0.0
 11
1140.667341070721
 21
2328.47094612816
 31
0.0
 11
1142.573814612941
 21
2328.53924472801
 31
0.0
 11
1144.240658408665
 21
2326.415717304189
 31
0.0
 11
1145.188473199443
 21
2324.880241244692
 31
0.0
 11
1147.414472637225
 21
2324.172549261386
 31
0.0
  0
ARC
  5
2BC7E
102
{ACAD_REACTORS
330
2C6E2
102
}
330
1F
100
AcDbEntity
  8
隠れ線
 48
2.0
100
AcDbCircle
 10
936.600784209653
 20
2408.299799342587
 30
0.0
 40
238.0
100
AcDbArc
 50
212.5
 51
327.5000000000001
  0
LWPOLYLINE
  5
2BCA6
102
{ACAD_REACTORS
330
2C6E2
102
}
330
1F
100
AcDbEntity
  8
実線
 48
0.1
100
AcDbPolyline
 90
        6
 70
     1
 43
0.0
 10
754.2132990366352
 20
2268.680857364163
 10
753.0682990366353
 20
2266.697659189496
 10
754.2132990366352
 20
2264.714461014829
 10
756.5032990366353
 20
2264.714461014829
 10
757.6482990366352
 20
2266.697659189496
 10
756.5032990366353
 20
2268.680857364163
  0
LWPOLYLINE
  5
2BCD7
102
{ACAD_REACTORS
330
2C6E2
102
}
330
1F
100
AcDbEntity
  8
実線
 48
0.1
100
AcDbPolyline
 90
        6
 70
     1
 43
0.0
 10
775.6843471606122
 20
2244.834842611177
 10
774.5393471606122
 20
2242.85164443651
 10
775.6843471606122
 20
2240.868446261843
 10
777.9743471606125
 20
2240.868446261843
 10
779.1193471606125
 20
2242.85164443651
 10
777.9743471606125
 20
2244.834842611177
  0
LWPOLYLINE
  5
2BCDF
102
{ACAD_REACTORS
330
2C6E2
102
}
330
1F
100
AcDbEntity
  8
実線
 48
0.1
100
AcDbPolyline
 90
        6
 70
     1
 43
0.0
 10
800.2651761823935
 20
2224.209088811007
 10
799.1201761823936
 20
2222.225890636341
 10
800.2651761823935
 20
2220.242692461675
 10
802.5551761823932
 20
2220.242692461675
 10
803.7001761823935
 20
2222.225890636341
 10
802.5551761823932
 20
2224.209088811007
  0
CIRCLE
  5
2BCE0
102
{ACAD_REACTORS
330
2C6E2
102
}
330
1F
100
AcDbEntity
  8
実線
 48
10.0
100
AcDbCircle
 10
801.4101761823932
 20
2222.225890636341
 30
0.0
 40
4.25
  0
LWPOLYLINE
  5
2BCE7
102
{ACAD_REACTORS
330
2C6E2
102
}
330
1F
100
AcDbEntity
  8
実線
 48
0.1
100
AcDbPolyline
 90
        6
 70
     1
 43
0.0
 10
827.4773247689061
 20
2207.205051159696
 10
826.3323247689061
 20
2205.221852985029
 10
827.4773247689061
 20
2203.238654810362
 10
829.7673247689063
 20
2203.238654810362
 10
830.9123247689063
 20
2205.221852985029
 10
829.7673247689063
 20
2207.205051159696
  0
CIRCLE
  5
2BCE8
102
{ACAD_REACTORS
330
2C6E2
102
}
330
1F
100
AcDbEntity
  8
実線
 48
10.0
100
AcDbCircle
 10
828.6223247689061
 20
2205.221852985029
 30
0.0
 40
4.25
  0
LWPOLYLINE
  5
2BCEF
102
{ACAD_REACTORS
330
2C6E2
102
}
330
1F
100
AcDbEntity
  8
実線
 48
0.1
100
AcDbPolyline
 90
        6
 70
     1
 43
0.0
 10
856.7911512447563
 20
2194.153694736491
 10
855.6461512447564
 20
2192.170496561824
 10
856.7911512447563
 20
2190.187298387157
 10
859.0811512447563
 20
2190.187298387157
 10
860.2261512447563
 20
2192.170496561824
 10
859.0811512447563
 20
2194.153694736491
  0
CIRCLE
  5
2BCF0
102
{ACAD_REACTORS
330
2C6E2
102
}
330
1F
100
AcDbEntity
  8
実線
 48
10.0
100
AcDbCircle
 10
857.9361512447562
 20
2192.170496561824
 30
0.0
 40
4.25
  0
LWPOLYLINE
  5
2BCF7
102
{ACAD_REACTORS
330
2C6E2
102
}
330
1F
100
AcDbEntity
  8
実線
 48
0.1
100
AcDbPolyline
 90
        6
 70
     1
 43
0.0
 10
887.6360953215726
 20
2185.309049348477
 10
886.4910953215725
 20
2183.32585117381
 10
887.6360953215726
 20
2181.342652999143
 10
889.9260953215726
 20
2181.342652999143
 10
891.0710953215724
 20
2183.32585117381
 10
889.9260953215726
 20
2185.309049348477
  0
CIRCLE
  5
2BCF8
102
{ACAD_REACTORS
330
2C6E2
102
}
330
1F
100
AcDbEntity
  8
実線
 48
10.0
100
AcDbCircle
 10
888.7810953215726
 20
2183.32585117381
 30
0.0
 40
4.25
  0
LWPOLYLINE
  5
2BCFF
102
{ACAD_REACTORS
330
2C6E2
102
}
330
1F
100
AcDbEntity
  8
実線
 48
0.1
100
AcDbPolyline
 90
        6
 70
     1
 43
0.0
 10
919.4117952485068
 20
2180.843265957493
 10
918.2667952485068
 20
2178.860067782826
 10
919.4117952485068
 20
2176.876869608159
 10
921.7017952485067
 20
2176.876869608159
 10
922.8467952485067
 20
2178.860067782826
 10
921.7017952485067
 20
2180.843265957493
  0
CIRCLE
  5
2BD00
102
{ACAD_REACTORS
330
2C6E2
102
}
330
1F
100
AcDbEntity
  8
実線
 48
10.0
100
AcDbCircle
 10
920.5567952485067
 20
2178.860067782826
 30
0.0
 40
4.25
  0
LWPOLYLINE
  5
2BD07
102
{ACAD_REACTORS
330
2C6E2
102
}
330
1F
100
AcDbEntity
  8
実線
 48
0.1
100
AcDbPolyline
 90
        6
 70
     1
 43
0.0
 10
951.4997850142854
 20
2180.843266785669
 10
950.3547850142854
 20
2178.860068611004
 10
951.4997850142854
 20
2176.876870436337
 10
953.7897850142853
 20
2176.876870436337
 10
954.9347850142853
 20
2178.860068611004
 10
953.7897850142853
 20
2180.843266785669
  0
CIRCLE
  5
2BD08
102
{ACAD_REACTORS
330
2C6E2
102
}
330
1F
100
AcDbEntity
  8
実線
 48
10.0
100
AcDbCircle
 10
952.6447850142854
 20
2178.860068611004
 30
0.0
 40
4.25
  0
LWPOLYLINE
  5
2BD0F
102
{ACAD_REACTORS
330
2C6E2
102
}
330
1F
100
AcDbEntity
  8
実線
 48
0.1
100
AcDbPolyline
 90
        6
 70
     1
 43
0.0
 10
983.2754730977375
 20
2185.309049348477
 10
982.1304730977375
 20
2183.32585117381
 10
983.2754730977375
 20
2181.342652999143
 10
985.5654730977375
 20
2181.342652999143
 10
986.7104730977375
 20
2183.32585117381
 10
985.5654730977375
 20
2185.309049348477
  0
CIRCLE
  5
2BD10
102
{ACAD_REACTORS
330
2C6E2
102
}
330
1F
100
AcDbEntity
  8
実線
 48
10.0
100
AcDbCircle
 10
984.4204730977375
 20
2183.32585117381
 30
0.0
 40
4.25
  0
LWPOLYLINE
  5
2BD17
102
{ACAD_REACTORS
330
2C6E2
102
}
330
1F
100
AcDbEntity
  8
実線
 48
0.1
100
AcDbPolyline
 90
        6
 70
     1
 43
0.0
 10
1014.120417174555
 20
2194.153694736491
 10
1012.975417174555
 20
2192.170496561824
 10
1014.120417174555
 20
2190.187298387159
 10
1016.410417174554
 20
2190.187298387159
 10
1017.555417174553
 20
2192.170496561824
 10
1016.410417174554
 20
2194.153694736491
  0
CIRCLE
  5
2BD18
102
{ACAD_REACTORS
330
2C6E2
102
}
330
1F
100
AcDbEntity
  8
実線
 48
10.0
100
AcDbCircle
 10
1015.265417174552
 20
2192.170496561824
 30
0.0
 40
4.25
  0
LWPOLYLINE
  5
2BD27
102
{ACAD_REACTORS
330
2C6E2
102
}
330
1F
100
AcDbEntity
  8
実線
 48
0.1
100
AcDbPolyline
 90
        6
 70
     1
 43
0.0
 10
1043.434243650404
 20
2207.205051159696
 10
1042.289243650404
 20
2205.221852985029
 10
1043.434243650404
 20
2203.238654810362
 10
1045.724243650404
 20
2203.238654810362
 10
1046.869243650404
 20
2205.221852985029
 10
1045.724243650404
 20
2207.205051159696
  0
CIRCLE
  5
2BD28
102
{ACAD_REACTORS
330
2C6E2
102
}
330
1F
100
AcDbEntity
  8
実線
 48
10.0
100
AcDbCircle
 10
1044.579243650404
 20
2205.221852985029
 30
0.0
 40
4.25
  0
LWPOLYLINE
  5
2BD2F
102
{ACAD_REACTORS
330
2C6E2
102
}
330
1F
100
AcDbEntity
  8
実線
 48
0.1
100
AcDbPolyline
 90
        6
 70
     1
 43
0.0
 10
1070.646392236918
 20
2224.20908881101
 10
1069.501392236918
 20
2222.225890636344
 10
1070.646392236918
 20
2220.242692461677
 10
1072.936392236917
 20
2220.242692461677
 10
1074.081392236917
 20
2222.225890636344
 10
1072.936392236917
 20
2224.20908881101
  0
CIRCLE
  5
2BD30
102
{ACAD_REACTORS
330
2C6E2
102
}
330
1F
100
AcDbEntity
  8
実線
 48
10.0
100
AcDbCircle
 10
1071.791392236915
 20
2222.225890636344
 30
0.0
 40
4.25
  0
LWPOLYLINE
  5
2BD37
102
{ACAD_REACTORS
330
2C6E2
102
}
330
1F
100
AcDbEntity
  8
実線
 48
0.1
100
AcDbPolyline
 90
        6
 70
     1
 43
0.0
 10
1095.227209415216
 20
2244.834843439353
 10
1094.082209415216
 20
2242.851645264689
 10
1095.227209415216
 20
2240.868447090022
 10
1097.517209415216
 20
2240.868447090022
 10
1098.662209415216
 20
2242.851645264689
 10
1097.517209415216
 20
2244.834843439353
  0
CIRCLE
  5
2BD38
102
{ACAD_REACTORS
330
2C6E2
102
}
330
1F
100
AcDbEntity
  8
実線
 48
10.0
100
AcDbCircle
 10
1096.372209415216
 20
2242.851645264689
 30
0.0
 40
4.25
  0
LWPOLYLINE
  5
2BD3F
102
{ACAD_REACTORS
330
2C6E2
102
}
330
1F
100
AcDbEntity
  8
実線
 48
0.1
100
AcDbPolyline
 90
        6
 70
     1
 43
0.0
 10
1116.698257539193
 20
2268.680858192341
 10
1115.553257539193
 20
2266.697660017676
 10
1116.698257539193
 20
2264.714461843009
 10
1118.988257539194
 20
2264.714461843009
 10
1120.133257539194
 20
2266.697660017676
 10
1118.988257539194
 20
2268.680858192341
  0
CIRCLE
  5
2BD40
102
{ACAD_REACTORS
330
2C6E2
102
}
330
1F
100
AcDbEntity
  8
実線
 48
10.0
100
AcDbCircle
 10
1117.843257539193
 20
2266.697660017676
 30
0.0
 40
4.25
  0
LINE
  5
2C35B
102
{ACAD_REACTORS
330
2C6E0
102
}
330
1F
100
AcDbEntity
  8
隠れ線
 48
0.5
100
AcDbLine
 10
1162.53774709751
 20
2374.052082090972
 30
0.0
 11
1162.981025766214
 21
2374.903612490824
 31
0.0
  0
LINE
  5
2C35C
102
{ACAD_REACTORS
330
2C6E0
102
}
330
1F
100
AcDbEntity
  8
隠れ線
 48
0.5
100
AcDbLine
 10
1161.68621669766
 20
2374.495360759679
 30
0.0
 11
1167.892118059539
 21
2386.416786357595
 31
0.0
  0
LINE
  5
2C35D
102
{ACAD_REACTORS
330
2C6E0
102
}
330
1F
100
AcDbEntity
  8
隠れ線
 48
0.5
100
AcDbLine
 10
1152.489688379268
 20
2379.2827703817
 30
0.0
 11
1152.932967047973
 21
2380.134300781552
 31
0.0
  0
LINE
  5
2C35E
102
{ACAD_REACTORS
330
2C6E0
102
}
330
1F
100
AcDbEntity
  8
隠れ線
 48
0.5
100
AcDbLine
 10
1153.341218779118
 20
2378.839491712994
 30
0.0
 11
1159.547120140997
 21
2390.76091731091
 31
0.0
  0
LWPOLYLINE
  5
2C369
102
{ACAD_REACTORS
330
2C6E0
102
}
330
1F
100
AcDbEntity
  8
隠れ線
 48
0.5
100
AcDbPolyline
 90
        5
 70
     1
 43
0.0
 10
1116.86845698498
 20
2317.17040698113
 10
1128.254241503455
 20
2309.91686226845
 10
1117.50824933652
 20
2293.049033352193
 10
1106.544160540952
 20
2300.033928260702
 10
1106.391114622219
 20
2300.724273787781
  0
LWPOLYLINE
  5
2C36E
102
{ACAD_REACTORS
330
2C6E0
102
}
330
1F
100
AcDbEntity
  8
隠れ線
 48
0.5
100
AcDbPolyline
 90
        6
 70
     0
 43
0.0
 10
1127.985591699283
 20
2309.495166545544
 10
1127.985591699283
 20
2309.495166545544
 10
1117.50824933652
 20
2293.049033352193
 10
1078.712242829127
 20
2317.764815336146
 10
1089.18958519189
 20
2334.210948529498
 10
1116.599807180808
 20
2316.748711258227
  0
LWPOLYLINE
  5
2C377
102
{ACAD_REACTORS
330
2C6E0
102
}
330
1F
100
AcDbEntity
  8
隠れ線
 48
0.5
100
AcDbPolyline
 90
        4
 70
     0
 43
0.0
 10
1138.406221681454
 20
2334.62603718712
 10
1147.987504182718
 20
2353.031509625508
 10
1143.729852183464
 20
2355.247902969034
 10
1133.640646207642
 20
2335.866718614155
  0
LWPOLYLINE
  5
2C378
102
{ACAD_REACTORS
330
2C6E0
102
}
330
1F
100
AcDbEntity
  8
隠れ線
 48
0.5
100
AcDbPolyline
 90
        4
 70
     0
 43
0.0
 10
1132.952902708959
 20
2334.787177563514
 10
1124.893408583756
 20
2322.136305876321
 10
1128.941687523659
 20
2319.557267756257
 10
1137.59221121804
 20
2333.135870033842
  0
SPLINE
  5
2C379
102
{ACAD_REACTORS
330
2C6E0
102
}
330
1F
100
AcDbEntity
  8
0
 48
0.5
100
AcDbSpline
210
0.0
220
0.0
230
1.0
 70
     8
 71
     3
 72
    11
 73
     7
 74
     5
 42
0.0000000001
 43
0.0000000001
 44
0.0000000001
 40
0.0
 40
0.0
 40
0.0
 40
0.0
 40
1.788854381998963
 40
3.577708763999853
 40
5.366563146000517
 40
7.155417527999286
 40
7.155417527999286
 40
7.155417527999286
 40
7.155417527999286
 10
1132.573705429287
 20
2335.680880503154
 30
0.0
 10
1132.808594357048
 20
2335.056964133711
 30
0.0
 10
1133.27837221257
 20
2333.809131394824
 30
0.0
 10
1135.272558055888
 20
2333.961521756444
 30
0.0
 10
1137.266743899205
 20
2334.113912118064
 30
0.0
 10
1137.736521754727
 20
2332.866079379177
 30
0.0
 10
1137.971410682488
 20
2332.242163009734
 30
0.0
 11
1132.573705429287
 21
2335.680880503154
 31
0.0
 11
1133.493292055909
 21
2334.146487973149
 31
0.0
 11
1135.272558055888
 21
2333.961521756444
 31
0.0
 11
1137.051824055867
 21
2333.776555539739
 31
0.0
 11
1137.971410682488
 21
2332.242163009734
 31
0.0
  0
SPLINE
  5
2C37A
102
{ACAD_REACTORS
330
2C6E0
102
}
330
1F
100
AcDbEntity
  8
0
 48
0.5
100
AcDbSpline
210
0.0
220
0.0
230
1.0
 70
     8
 71
     3
 72
    11
 73
     7
 74
     5
 42
0.0000000001
 43
0.0000000001
 44
0.0000000001
 40
0.0
 40
0.0
 40
0.0
 40
0.0
 40
1.788854381999431
 40
3.577708763999096
 40
5.36656314599714
 40
7.155417527996727
 40
7.155417527996727
 40
7.155417527996727
 40
7.155417527996727
 10
1133.261448927971
 20
2336.760421553794
 30
0.0
 10
1133.496337855732
 20
2336.13650518435
 30
0.0
 10
1133.966115711255
 20
2334.888672445463
 30
0.0
 10
1135.960301554571
 20
2335.041062807085
 30
0.0
 10
1137.954487397886
 20
2335.193453168702
 30
0.0
 10
1138.42426525341
 20
2333.945620429817
 30
0.0
 10
1138.659154181173
 20
2333.321704060375
 30
0.0
 11
1133.261448927971
 21
2336.760421553794
 31
0.0
 11
1134.181035554594
 21
2335.226029023789
 31
0.0
 11
1135.960301554572
 21
2335.041062807085
 31
0.0
 11
1137.739567554548
 21
2334.856096590379
 31
0.0
 11
1138.659154181173
 21
2333.321704060375
 31
0.0
  0
LINE
  5
2C37B
102
{ACAD_REACTORS
330
2C6E0
102
}
330
1F
100
AcDbEntity
  8
隠れ線
 48
0.5
100
AcDbLine
 10
1123.498534912605
 20
2316.503648648911
 30
0.0
 11
1119.365916828123
 21
2319.136416729809
 31
0.0
  0
LINE
  5
2C37C
102
{ACAD_REACTORS
330
2C6E0
102
}
330
1F
100
AcDbEntity
  8
隠れ線
 48
0.5
100
AcDbLine
 10
1123.590362463846
 20
2316.089441332664
 30
0.0
 11
1118.951709511873
 21
2319.04458917857
 31
0.0
  0
LINE
  5
2C37D
102
{ACAD_REACTORS
330
2C6E0
102
}
330
1F
100
AcDbEntity
  8
隠れ線
 48
0.5
100
AcDbLine
 10
1123.590362463846
 20
2316.089441332664
 30
0.0
 11
1123.498534912605
 21
2316.503648648911
 31
0.0
  0
LINE
  5
2C37F
102
{ACAD_REACTORS
330
2C6E0
102
}
330
1F
100
AcDbEntity
  8
隠れ線
 48
0.5
100
AcDbLine
 10
1118.951709511873
 20
2319.04458917857
 30
0.0
 11
1119.365916828123
 21
2319.136416729809
 31
0.0
  0
LINE
  5
2C380
102
{ACAD_REACTORS
330
2C6E0
102
}
330
1F
100
AcDbEntity
  8
隠れ線
 48
0.5
100
AcDbLine
 10
1118.951709511873
 20
2319.04458917857
 30
0.0
 11
1117.501000569337
 21
2316.767432274876
 31
0.0
  0
LINE
  5
2C382
102
{ACAD_REACTORS
330
2C6E0
102
}
330
1F
100
AcDbEntity
  8
隠れ線
 48
0.5
100
AcDbLine
 10
1128.980579310388
 20
2313.011201194657
 30
0.0
 11
1124.847961225906
 21
2315.643969275556
 31
0.0
  0
LINE
  5
2C383
102
{ACAD_REACTORS
330
2C6E0
102
}
330
1F
100
AcDbEntity
  8
隠れ線
 48
0.5
100
AcDbLine
 10
1129.072406861628
 20
2312.596993878409
 30
0.0
 11
1127.621697919094
 21
2310.319836974713
 31
0.0
  0
LINE
  5
2C384
102
{ACAD_REACTORS
330
2C6E0
102
}
330
1F
100
AcDbEntity
  8
隠れ線
 48
0.5
100
AcDbLine
 10
1129.072406861628
 20
2312.596993878409
 30
0.0
 11
1124.433753909658
 21
2315.552141724317
 31
0.0
  0
LINE
  5
2C389
102
{ACAD_REACTORS
330
2C6E0
102
}
330
1F
100
AcDbEntity
  8
隠れ線
 48
0.5
100
AcDbLine
 10
1124.433753909658
 20
2315.552141724317
 30
0.0
 11
1122.98304496712
 21
2313.274984820619
 31
0.0
  0
LINE
  5
2C38A
102
{ACAD_REACTORS
330
2C6E0
102
}
330
1F
100
AcDbEntity
  8
隠れ線
 48
0.5
100
AcDbLine
 10
1124.433753909658
 20
2315.552141724317
 30
0.0
 11
1124.847961225906
 21
2315.643969275556
 31
0.0
  0
LINE
  5
2C38B
102
{ACAD_REACTORS
330
2C6E0
102
}
330
1F
100
AcDbEntity
  8
隠れ線
 48
0.5
100
AcDbLine
 10
1129.072406861628
 20
2312.596993878409
 30
0.0
 11
1128.980579310388
 21
2313.011201194657
 31
0.0
  0
LINE
  5
2C38C
102
{ACAD_REACTORS
330
2C6E0
102
}
330
1F
100
AcDbEntity
  8
隠れ線
 48
0.5
100
AcDbLine
 10
1123.590362463846
 20
2316.089441332664
 30
0.0
 11
1122.139653521309
 21
2313.812284428967
 31
0.0
  0
LINE
  5
2C390
102
{ACAD_REACTORS
330
2C6E0
102
}
330
1F
100
AcDbEntity
  8
隠れ線
 48
0.5
100
AcDbLine
 10
1151.988813679572
 20
2376.657362650115
 30
0.0
 11
1160.7879611447
 21
2372.076816406824
 31
0.0
  0
LINE
  5
2C391
102
{ACAD_REACTORS
330
2C6E0
102
}
330
1F
100
AcDbEntity
  8
隠れ線
 48
0.5
100
AcDbLine
 10
1161.686191550789
 20
2374.495325037587
 30
0.0
 11
1153.341198786598
 21
2378.839453307719
 31
0.0
  0
LINE
  5
2C392
102
{ACAD_REACTORS
330
2C6E0
102
}
330
1F
100
AcDbEntity
  8
隠れ線
 48
0.5
100
AcDbLine
 10
1162.53772195064
 20
2374.052046368882
 30
0.0
 11
1161.686191550789
 21
2374.495325037587
 31
0.0
  0
LINE
  5
2C393
102
{ACAD_REACTORS
330
2C6E0
102
}
330
1F
100
AcDbEntity
  8
隠れ線
 48
0.5
100
AcDbLine
 10
1160.35212639863
 20
2375.189795399091
 30
0.0
 11
1159.170049948749
 21
2372.919047666155
 31
0.0
  0
LINE
  5
2C394
102
{ACAD_REACTORS
330
2C6E0
102
}
330
1F
100
AcDbEntity
  8
隠れ線
 48
0.5
100
AcDbLine
 10
1153.341193632247
 20
2378.839455990904
 30
0.0
 11
1152.489663232397
 21
2379.282734659609
 31
0.0
  0
LINE
  5
2C395
102
{ACAD_REACTORS
330
2C6E0
102
}
330
1F
100
AcDbEntity
  8
隠れ線
 48
0.5
100
AcDbLine
 10
1156.946004799226
 20
2376.962910073913
 30
0.0
 11
1155.763928349345
 21
2374.692162340978
 31
0.0
  0
LINE
  5
2C396
102
{ACAD_REACTORS
330
2C6E0
102
}
330
1F
100
AcDbEntity
  8
隠れ線
 48
0.5
100
AcDbLine
 10
1155.810630932758
 20
2377.553948298855
 30
0.0
 11
1154.628554482876
 21
2375.283200565918
 31
0.0
  0
LINE
  5
2C397
102
{ACAD_REACTORS
330
2C6E0
102
}
330
1F
100
AcDbEntity
  8
隠れ線
 48
0.5
100
AcDbLine
 10
1159.216752532162
 20
2375.780833624032
 30
0.0
 11
1158.03467608228
 21
2373.510085891096
 31
0.0
  0
LINE
  5
2C398
102
{ACAD_REACTORS
330
2C6E0
102
}
330
1F
100
AcDbEntity
  8
隠れ線
 48
0.5
100
AcDbLine
 10
1158.081378665694
 20
2376.371871848973
 30
0.0
 11
1156.899302215812
 21
2374.101124116037
 31
0.0
  0
LINE
  5
2C399
102
{ACAD_REACTORS
330
2C6E0
102
}
330
1F
100
AcDbEntity
  8
隠れ線
 48
0.5
100
AcDbLine
 10
1154.675257066289
 20
2378.144986523795
 30
0.0
 11
1153.493180616409
 21
2375.874238790859
 31
0.0
  0
LWPOLYLINE
  5
2C39A
102
{ACAD_REACTORS
330
2C6E0
102
}
330
1F
100
AcDbEntity
  8
隠れ線
 48
0.5
100
AcDbPolyline
 90
        4
 70
     1
 43
0.0
 10
1148.697112849262
 20
2352.662110734919
 10
1149.288151074203
 20
2353.797484601388
 10
1141.908220942159
 20
2357.639233063501
 10
1141.317182717217
 20
2356.503859197035
  0
LWPOLYLINE
  5
2C39B
102
{ACAD_REACTORS
330
2C6E0
102
}
330
1F
100
AcDbEntity
  8
隠れ線
 48
0.5
100
AcDbPolyline
 90
        4
 70
     1
 43
0.0
 10
1138.657510704984
 20
2351.394676797929
 10
1144.567892954393
 20
2362.748415462611
 10
1138.891023622053
 20
2365.703606587314
 10
1132.980641372643
 20
2354.349867922633
  0
LINE
  5
2C39C
102
{ACAD_REACTORS
330
2C6E0
102
}
330
1F
100
AcDbEntity
  8
隠れ線
 48
0.5
100
AcDbLine
 10
1152.731239426884
 20
2360.758104679703
 30
0.0
 11
1147.33821356116
 21
2363.565536248172
 31
0.0
  0
ARC
  5
2C39D
102
{ACAD_REACTORS
330
2C6E0
102
}
330
1F
100
AcDbEntity
  8
隠れ線
 48
0.5
100
AcDbCircle
 10
1156.094682282732
 20
2365.140164943486
 30
0.0
 40
0.9599999999999999
100
AcDbArc
 50
62.49999999999996
 51
152.4999999999999
  0
LINE
  5
2C39E
102
{ACAD_REACTORS
330
2C6E0
102
}
330
1F
100
AcDbEntity
  8
隠れ線
 48
0.5
100
AcDbLine
 10
1155.243151882883
 20
2365.583443612192
 30
0.0
 11
1152.731239426884
 21
2360.758104679703
 31
0.0
  0
ARC
  5
2C39F
102
{ACAD_REACTORS
330
2C6E0
102
}
330
1F
100
AcDbEntity
  8
隠れ線
 48
0.5
100
AcDbCircle
 10
1156.981239620145
 20
2366.843225743189
 30
0.0
 40
0.9599999999999999
100
AcDbArc
 50
242.4999999999999
 51
332.5
  0
ARC
  5
2C3A0
102
{ACAD_REACTORS
330
2C6E0
102
}
330
1F
100
AcDbEntity
  8
隠れ線
 48
0.5
100
AcDbCircle
 10
1148.998595617306
 20
2368.834153849367
 30
0.0
 40
0.9599999999999999
100
AcDbArc
 50
332.5
 51
62.49999999999996
  0
LINE
  5
2C3A1
102
{ACAD_REACTORS
330
2C6E0
102
}
330
1F
100
AcDbEntity
  8
隠れ線
 48
0.5
100
AcDbLine
 10
1147.33821356116
 20
2363.565536248172
 30
0.0
 11
1149.850126017158
 21
2368.390875180661
 31
0.0
  0
ARC
  5
2C3A2
102
{ACAD_REACTORS
330
2C6E0
102
}
330
1F
100
AcDbEntity
  8
隠れ線
 48
0.5
100
AcDbCircle
 10
1149.885152954719
 20
2370.537214649069
 30
0.0
 40
0.9599999999999999
100
AcDbArc
 50
152.4999999999999
 51
242.4999999999999
  0
LWPOLYLINE
  5
2C3A3
102
{ACAD_REACTORS
330
2C6E0
102
}
330
1F
100
AcDbEntity
  8
隠れ線
 48
0.5
100
AcDbPolyline
 90
        2
 70
     0
 43
0.0
 10
1147.905900494394
 20
2363.270017135702
 10
1144.320890408405
 20
2356.383276835504
  0
LWPOLYLINE
  5
2C3A4
102
{ACAD_REACTORS
330
2C6E0
102
}
330
1F
100
AcDbEntity
  8
隠れ線
 48
0.5
100
AcDbPolyline
 90
        2
 70
     0
 43
0.0
 10
1148.578542407657
 20
2354.166883491976
 10
1152.163552493647
 20
2361.053623792173
  0
LINE
  5
2C3A5
102
{ACAD_REACTORS
330
2C6E0
102
}
330
1F
100
AcDbEntity
  8
隠れ線
 48
0.5
100
AcDbLine
 10
1157.832770019996
 20
2366.399947074483
 30
0.0
 11
1160.7879611447
 21
2372.076816406824
 31
0.0
  0
LINE
  5
2C3A6
102
{ACAD_REACTORS
330
2C6E0
102
}
330
1F
100
AcDbEntity
  8
隠れ線
 48
0.5
100
AcDbLine
 10
1149.033622554868
 20
2370.980493317774
 30
0.0
 11
1151.988813679572
 21
2376.657362650115
 31
0.0
  0
LINE
  5
2C3A7
102
{ACAD_REACTORS
330
2C6E0
102
}
330
1F
100
AcDbEntity
  8
隠れ線
 48
0.5
100
AcDbLine
 10
1167.892092912665
 20
2386.416750635501
 30
0.0
 11
1159.547094994126
 21
2390.760881588815
 31
0.0
  0
LWPOLYLINE
  5
2C3A8
102
{ACAD_REACTORS
330
2C6E0
102
}
330
1F
100
AcDbEntity
  8
隠れ線
 48
0.5
100
AcDbPolyline
 90
        4
 70
     1
 43
0.0
 10
1167.040587659686
 20
2386.8600650263
 10
1171.030095678037
 20
2394.52383862496
 10
1168.04973927856
 20
2396.075313965428
 10
1164.060231260209
 20
2388.41154036677
  0
LINE
  5
2C3A9
102
{ACAD_REACTORS
330
2C6E0
102
}
330
1F
100
AcDbEntity
  8
隠れ線
 48
0.5
100
AcDbLine
 10
1162.981000619345
 20
2374.903576768732
 30
0.0
 11
1162.129470219495
 21
2375.346855437439
 31
0.0
  0
LINE
  5
2C3AA
102
{ACAD_REACTORS
330
2C6E0
102
}
330
1F
100
AcDbEntity
  8
隠れ線
 48
0.5
100
AcDbLine
 10
1151.754869497394
 20
2385.563706413007
 30
0.0
 11
1158.601714200957
 21
2394.662218687289
 31
0.0
  0
LINE
  5
2C3AB
102
{ACAD_REACTORS
330
2C6E0
102
}
330
1F
100
AcDbEntity
  8
隠れ線
 48
0.5
100
AcDbLine
 10
1159.721916917978
 20
2394.079078062869
 30
0.0
 11
1158.695564594275
 21
2391.204160257522
 31
0.0
  0
LWPOLYLINE
  5
2C3AC
102
{ACAD_REACTORS
330
2C6E0
102
}
330
1F
100
AcDbEntity
  8
隠れ線
 48
0.5
100
AcDbPolyline
 90
        4
 70
     1
 43
0.0
 10
1160.39864023215
 20
2390.317644008573
 10
1164.3881482505
 20
2397.981417607233
 10
1167.368504649977
 20
2396.429942266763
 10
1163.378996631628
 20
2388.766168668103
  0
LINE
  5
2C3AD
102
{ACAD_REACTORS
330
2C6E0
102
}
330
1F
100
AcDbEntity
  8
隠れ線
 48
0.5
100
AcDbLine
 10
1157.523531993276
 20
2388.536895909298
 30
0.0
 11
1153.44452309805
 21
2385.171157422706
 31
0.0
  0
LINE
  5
2C3AE
102
{ACAD_REACTORS
330
2C6E0
102
}
330
1F
100
AcDbEntity
  8
隠れ線
 48
0.5
100
AcDbLine
 10
1158.695564594275
 20
2391.204160257522
 30
0.0
 11
1159.547120140997
 21
2390.76091731091
 31
0.0
  0
LINE
  5
2C3AF
102
{ACAD_REACTORS
330
2C6E0
102
}
330
1F
100
AcDbEntity
  8
隠れ線
 48
0.5
100
AcDbLine
 10
1157.523531993276
 20
2388.536895909298
 30
0.0
 11
1158.204761467507
 21
2388.182270291151
 31
0.0
  0
LINE
  5
2C3B0
102
{ACAD_REACTORS
330
2C6E0
102
}
330
1F
100
AcDbEntity
  8
隠れ線
 48
0.5
100
AcDbLine
 10
1153.784472300954
 20
2379.690986390755
 30
0.0
 11
1152.9329419011
 21
2380.13426505946
 31
0.0
  0
LINE
  5
2C3B1
102
{ACAD_REACTORS
330
2C6E0
102
}
330
1F
100
AcDbEntity
  8
隠れ線
 48
0.5
100
AcDbLine
 10
1153.444523098051
 20
2385.171157422705
 30
0.0
 11
1151.754869497394
 21
2385.563706413007
 31
0.0
  0
LINE
  5
2C3B2
102
{ACAD_REACTORS
330
2C6E0
102
}
330
1F
100
AcDbEntity
  8
隠れ線
 48
0.5
100
AcDbLine
 10
1158.601714200957
 20
2394.662218687289
 30
0.0
 11
1159.721916917978
 21
2394.079078062869
 31
0.0
  0
LWPOLYLINE
  5
2C3B6
102
{ACAD_REACTORS
330
2C6E0
102
}
330
1F
100
AcDbEntity
  8
隠れ線
 48
0.5
100
AcDbPolyline
 90
        4
 70
     0
 43
0.0
 10
1126.40823540066
 20
2314.649965000114
 10
1129.363383246565
 20
2319.288617952083
 10
1124.47171286085
 20
2322.404955680493
 10
1121.516565014944
 20
2317.766302728526
  0
LINE
  5
2C3DC
102
{ACAD_REACTORS
330
2C6C8
102
}
330
1F
100
AcDbEntity
  8
中心線
 48
0.2
100
AcDbLine
 10
1290.259753163842
 20
2194.053334812217
 30
0.0
 11
1290.259753163843
 21
2200.15286394952
 31
0.0
  0
LINE
  5
2C3DD
102
{ACAD_REACTORS
330
2C6C8
102
}
330
1F
100
AcDbEntity
  8
中心線
 48
0.2
100
AcDbLine
 10
1293.362789811729
 20
2203.799799342586
 30
0.0
 11
1287.049177382801
 21
2203.799799342586
 31
0.0
  0
LINE
  5
2C3DE
102
{ACAD_REACTORS
330
2C6C8
102
}
330
1F
100
AcDbEntity
  8
中心線
 48
0.2
100
AcDbLine
 10
1293.362789811729
 20
2197.299799342586
 30
0.0
 11
1287.049177382801
 21
2197.299799342587
 31
0.0
  0
LINE
  5
2C41A
102
{ACAD_REACTORS
330
2C6C8
102
}
330
1F
100
AcDbEntity
  8
中心線
 48
0.2
100
AcDbLine
 10
1290.259753163842
 20
2200.755046545315
 30
0.0
 11
1290.259753163842
 21
2206.779283489679
 31
0.0
  0
CIRCLE
  5
2C41B
102
{ACAD_REACTORS
330
2C6C8
102
}
330
1F
100
AcDbEntity
  8
細線
 48
0.1
100
AcDbCircle
 10
1290.259753163842
 20
2203.799799342586
 30
0.0
 40
1.5
  0
CIRCLE
  5
2C41C
102
{ACAD_REACTORS
330
2C6C8
102
}
330
1F
100
AcDbEntity
  8
実線
 48
0.1
100
AcDbCircle
 10
1290.259753163842
 20
2203.799799342586
 30
0.0
 40
1.0
  0
CIRCLE
  5
2C41D
102
{ACAD_REACTORS
330
2C6C8
102
}
330
1F
100
AcDbEntity
  8
細線
 48
0.1
100
AcDbCircle
 10
1290.259753163843
 20
2197.299799342586
 30
0.0
 40
1.5
  0
CIRCLE
  5
2C41E
102
{ACAD_REACTORS
330
2C6C8
102
}
330
1F
100
AcDbEntity
  8
実線
 48
0.1
100
AcDbCircle
 10
1290.259753163843
 20
2197.299799342586
 30
0.0
 40
1.0
  0
LINE
  5
2C6B2
102
{ACAD_REACTORS
330
2C6C6
102
}
330
1F
100
AcDbEntity
  8
隠れ線
 48
0.5
100
AcDbLine
 10
1285.259753163841
 20
2209.299799342586
 30
0.0
 11
1285.259753163842
 21
2283.299799342585
 31
0.0
  0
LINE
  5
2C6B3
102
{ACAD_REACTORS
330
2C6C6
102
}
330
1F
100
AcDbEntity
  8
中心線
 48
0.5
100
AcDbLine
 10
1299.259753163842
 20
2285.723373082862
 30
0.0
 11
1299.259753163842
 21
2204.810060815205
 31
0.0
  0
LINE
  5
2C6B4
102
{ACAD_REACTORS
330
2C6C6
102
}
330
1F
100
AcDbEntity
  8
中心線
 48
0.5
100
AcDbLine
 10
1324.259753163843
 20
2274.799799342578
 30
0.0
 11
1274.259753163842
 21
2274.799799342578
 31
0.0
  0
LINE
  5
2C6B5
102
{ACAD_REACTORS
330
2C6C6
102
}
330
1F
100
AcDbEntity
  8
隠れ線
 48
0.5
100
AcDbLine
 10
1285.259753163838
 20
2282.799799342578
 30
0.0
 11
1285.259753163838
 21
2255.799799342578
 31
0.0
  0
LINE
  5
2C6B6
102
{ACAD_REACTORS
330
2C6C6
102
}
330
1F
100
AcDbEntity
  8
隠れ線
 48
0.5
100
AcDbLine
 10
1313.259753163842
 20
2282.799799342578
 30
0.0
 11
1313.259753163832
 21
2255.799799342571
 31
0.0
  0
LINE
  5
2C6B7
102
{ACAD_REACTORS
330
2C6C6
102
}
330
1F
100
AcDbEntity
  8
隠れ線
 48
0.5
100
AcDbLine
 10
1279.259753163842
 20
2209.299799342586
 30
0.0
 11
1279.259753163842
 21
2283.299799342585
 31
0.0
  0
LINE
  5
2C6B8
102
{ACAD_REACTORS
330
2C6C6
102
}
330
1F
100
AcDbEntity
  8
隠れ線
 48
0.5
100
AcDbLine
 10
1319.259753163843
 20
2209.299799342586
 30
0.0
 11
1319.259753163843
 21
2283.299799342585
 31
0.0
  0
LINE
  5
2C6B9
102
{ACAD_REACTORS
330
2C6C6
102
}
330
1F
100
AcDbEntity
  8
隠れ線
 48
0.5
100
AcDbLine
 10
1313.259753163843
 20
2209.299799342586
 30
0.0
 11
1313.259753163843
 21
2283.299799342585
 31
0.0
  0
LINE
  5
2C6BA
102
{ACAD_REACTORS
330
2C6C6
102
}
330
1F
100
AcDbEntity
  8
隠れ線
 48
0.5
100
AcDbLine
 10
1313.259753163842
 20
2282.799799342578
 30
0.0
 11
1285.259753163838
 21
2282.799799342578
 31
0.0
  0
LINE
  5
2C6BB
102
{ACAD_REACTORS
330
2C6C6
102
}
330
1F
100
AcDbEntity
  8
隠れ線
 48
0.5
100
AcDbLine
 10
1279.259753163842
 20
2283.299799342585
 30
0.0
 11
1285.259753163842
 21
2283.299799342585
 31
0.0
  0
LINE
  5
2C6BC
102
{ACAD_REACTORS
330
2C6C6
102
}
330
1F
100
AcDbEntity
  8
隠れ線
 48
0.5
100
AcDbLine
 10
1319.259753163843
 20
2283.299799342585
 30
0.0
 11
1313.259753163843
 21
2283.299799342585
 31
0.0
  0
LWPOLYLINE
  5
2C6BD
102
{ACAD_REACTORS
330
2C6C6
102
}
330
1F
100
AcDbEntity
  8
隠れ線
 48
0.5
100
AcDbPolyline
 90
        4
 70
     1
 43
0.0
 10
1285.259753163845
 20
2249.946031947573
 10
1295.259753163845
 20
2249.946031947581
 10
1295.259753163867
 20
2209.94603194758
 10
1285.259753163867
 20
2209.946031947572
  0
LWPOLYLINE
  5
2C6BE
102
{ACAD_REACTORS
330
2C6C6
102
}
330
1F
100
AcDbEntity
  8
隠れ線
 48
0.5
100
AcDbPolyline
 90
        4
 70
     1
 43
0.0
 10
1313.259753163843
 20
2249.946031947581
 10
1303.259753163843
 20
2249.946031947581
 10
1303.259753163843
 20
2209.94603194758
 10
1313.259753163843
 20
2209.94603194758
  0
LINE
  5
2C6BF
102
{ACAD_REACTORS
330
2C6C6
102
}
330
1F
100
AcDbEntity
  8
隠れ線
 48
0.5
100
AcDbLine
 10
1295.259753163839
 20
2268.799799342571
 30
0.0
 11
1295.259753163843
 21
2255.799799342571
 31
0.0
  0
LINE
  5
2C6C0
102
{ACAD_REACTORS
330
2C6C6
102
}
330
1F
100
AcDbEntity
  8
隠れ線
 48
0.5
100
AcDbLine
 10
1303.259753163843
 20
2268.799799342571
 30
0.0
 11
1303.259753163843
 21
2255.799799342571
 31
0.0
  0
LINE
  5
2C6C1
102
{ACAD_REACTORS
330
2C6C6
102
}
330
1F
100
AcDbEntity
  8
隠れ線
 48
0.5
100
AcDbLine
 10
1303.259753163843
 20
2268.799799342571
 30
0.0
 11
1295.259753163839
 21
2268.799799342571
 31
0.0
  0
LINE
  5
2C6C2
102
{ACAD_REACTORS
330
2C6C6
102
}
330
1F
100
AcDbEntity
  8
隠れ線
 48
0.5
100
AcDbLine
 10
1313.259753163832
 20
2255.799799342571
 30
0.0
 11
1303.259753163843
 21
2255.799799342571
 31
0.0
  0
LINE
  5
2C6C3
102
{ACAD_REACTORS
330
2C6C6
102
}
330
1F
100
AcDbEntity
  8
隠れ線
 48
0.5
100
AcDbLine
 10
1295.259753163843
 20
2255.799799342571
 30
0.0
 11
1285.259753163843
 21
2255.799799342571
 31
0.0
  0
LINE
  5
2C6C4
102
{ACAD_REACTORS
330
2C6C6
102
}
330
1F
100
AcDbEntity
  8
隠れ線
 48
0.5
100
AcDbLine
 10
1279.259753163842
 20
2209.299799342586
 30
0.0
 11
1285.259753163841
 21
2209.299799342586
 31
0.0
  0
LINE
  5
2C6C5
102
{ACAD_REACTORS
330
2C6C6
102
}
330
1F
100
AcDbEntity
  8
隠れ線
 48
0.5
100
AcDbLine
 10
1319.259753163842
 20
2209.299799342586
 30
0.0
 11
1313.259753163843
 21
2209.299799342586
 31
0.0
  0
MTEXT
  5
2C6DA
330
1F
100
AcDbEntity
  8
DIMENSION
 62
    40
 48
0.1
100
AcDbMText
 10
1333.922291897277
 20
2345.42913285524
 30
0.0
 40
5.0
 41
160.9157999999998
 71
     1
 72
     1
  1

  7
まこ
 73
     1
 44
1.0
1001
ACAD
1000
MTEXTBEGIN
1070
    73
1070
     1
1070
    44
1040
1.0
1070
    74
1070
     0
1000
MTEXTEND
  0
LINE
  5
2CBEC
330
1F
100
AcDbEntity
  8
中心線
 48
0.5
100
AcDbLine
 10
915.4168417179477
 20
2408.299799342587
 30
0.0
 11
957.7847267013583
 21
2408.299799342587
 31
0.0
  0
LINE
  5
2CBED
330
1F
100
AcDbEntity
  8
中心線
 48
0.5
100
AcDbLine
 10
936.600784209653
 20
2429.483741834292
 30
0.0
 11
936.600784209653
 21
2159.026166130914
 31
0.0
  0
MTEXT
  5
2CE9E
330
1F
100
AcDbEntity
  8
寸法
 62
    40
 48
0.1
100
AcDbMText
 10
1094.776677369903
 20
2262.927383408527
 30
0.0
 40
5.0
 41
160.9157999999998
 71
     9
 72
     1
  1

  7
まこ
 73
     1
 44
1.0
1001
ACAD
1000
MTEXTBEGIN
1070
    73
1070
     1
1070
    44
1040
1.0
1070
    74
1070
     0
1000
MTEXTEND
  0
MTEXT
  5
2CEA1
330
1F
100
AcDbEntity
  8
寸法
 62
    40
 48
0.1
100
AcDbMText
 10
1134.103472611326
 20
2256.884430511163
 30
0.0
 40
5.0
 41
160.9157999999998
 71
     1
 72
     1
  1

  7
まこ
 73
     1
 44
1.0
1001
ACAD
1000
MTEXTBEGIN
1070
    73
1070
     1
1070
    44
1040
1.0
1070
    74
1070
     0
1000
MTEXTEND
  0
MTEXT
  5
2CEA3
330
1F
100
AcDbEntity
  8
寸法
 62
    40
 48
0.1
100
AcDbMText
 10
1134.103472611326
 20
2256.884430511163
 30
0.0
 40
5.0
 41
14.0925
 71
     1
 72
     1
  1

  7
まこ
 73
     1
 44
1.0
1001
ACAD
1000
MTEXTBEGIN
1070
    73
1070
     1
1070
    44
1040
1.0
1070
    74
1070
     0
1000
MTEXTEND
  0
MTEXT
  5
2CEA5
330
1F
100
AcDbEntity
  8
寸法
 62
    40
 48
0.1
100
AcDbMText
 10
1158.590210293986
 20
2256.884430511163
 30
0.0
 40
5.0
 41
14.0925
 71
     1
 72
     1
  1

  7
まこ
 73
     1
 44
1.0
1001
ACAD
1000
MTEXTBEGIN
1070
    73
1070
     1
1070
    44
1040
1.0
1070
    74
1070
     0
1000
MTEXTEND
  0
LINE
  5
2CF18
102
{ACAD_REACTORS
330
2CF7F
102
}
330
1F
100
AcDbEntity
  8
実線
 48
0.1
100
AcDbLine
 10
1285.59557670998
 20
2096.25656533431
 30
0.0
 11
1187.919179390977
 21
2096.25656533431
 31
0.0
  0
LINE
  5
2CF19
102
{ACAD_REACTORS
330
2CF7F
102
}
330
1F
100
AcDbEntity
  8
実線
 48
0.1
100
AcDbLine
 10
1285.59557670998
 20
2095.25656533431
 30
0.0
 11
1187.161538599079
 21
2095.25656533431
 31
0.0
  0
LINE
  5
2CF1A
102
{ACAD_REACTORS
330
2CF7F
102
}
330
1F
100
AcDbEntity
  8
実線
 48
0.1
100
AcDbLine
 10
1285.59557670998
 20
2063.75656533431
 30
0.0
 11
1188.773448873367
 21
2063.75656533431
 31
0.0
  0
LINE
  5
2CF1B
102
{ACAD_REACTORS
330
2CF7F
102
}
330
1F
100
AcDbEntity
  8
実線
 48
0.1
100
AcDbLine
 10
1285.59557670998
 20
2064.256565334309
 30
0.0
 11
1189.250073537807
 21
2064.256565334309
 31
0.0
  0
LINE
  5
2CF1C
102
{ACAD_REACTORS
330
2CF7F
102
}
330
1F
100
AcDbEntity
  8
実線
 48
0.1
100
AcDbLine
 10
1285.59557670998
 20
2063.75656533431
 30
0.0
 11
1285.59557670998
 21
2096.25656533431
 31
0.0
  0
SPLINE
  5
2CF1D
102
{ACAD_REACTORS
330
2CF7F
102
}
330
1F
100
AcDbEntity
  8
細線
 48
0.1
100
AcDbSpline
210
0.0
220
0.0
230
1.0
 70
     8
 71
     3
 72
    10
 73
     6
 74
     0
 42
0.0000000001
 43
0.0000000001
 40
5.690033001214829
 40
5.690033001214829
 40
5.690033001214829
 40
5.690033001214829
 40
20.44630274576832
 40
41.99043975419643
 40
55.12439346642678
 40
55.12439346642678
 40
55.12439346642678
 40
55.12439346642678
 10
1187.919179390977
 20
2096.25656533431
 30
0.0
 10
1182.692572225757
 20
2089.587174157875
 30
0.0
 10
1184.816846461026
 20
2081.799305171115
 30
0.0
 10
1194.451388577735
 20
2077.420704860958
 30
0.0
 10
1194.209474374753
 20
2069.3683395444
 30
0.0
 10
1188.773448873368
 20
2063.75656533431
 30
0.0
  0
LINE
  5
2CF4D
102
{ACAD_REACTORS
330
2CF78
330
2CF80
102
}
330
1F
100
AcDbEntity
  8
0
100
AcDbLine
 10
1226.095576709981
 20
2075.25656533431
 30
0.0
 11
1260.095576709979
 21
2075.25656533431
 31
0.0
  0
LINE
  5
2CF4E
102
{ACAD_REACTORS
330
2CF78
330
2CF80
102
}
330
1F
100
AcDbEntity
  8
0
100
AcDbLine
 10
1260.095576709979
 20
2087.25656533431
 30
0.0
 11
1226.095576709981
 21
2087.25656533431
 31
0.0
  0
LINE
  5
2CF50
102
{ACAD_REACTORS
330
2CF78
330
2CF80
102
}
330
1F
100
AcDbEntity
  8
0
100
AcDbLine
 10
1225.595576709979
 20
2080.256565334309
 30
0.0
 11
1260.595576709981
 21
2080.256565334309
 31
0.0
  0
LWPOLYLINE
  5
2CF51
102
{ACAD_REACTORS
330
2CF76
330
2CF80
102
}
330
1F
100
AcDbEntity
  8
0
100
AcDbPolyline
 90
        8
 70
     1
 43
0.0
 10
1266.095576709981
 20
2076.25656533431
 10
1280.095576709979
 20
2076.256565334309
 42
0.4142135623730951
 10
1280.595576709981
 20
2076.75656533431
 10
1280.595576709981
 20
2085.756565334309
 42
0.4142135623730951
 10
1280.095576709979
 20
2086.25656533431
 10
1266.095576709981
 20
2086.25656533431
 42
0.4142135623730996
 10
1265.59557670998
 20
2085.756565334309
 10
1265.59557670998
 20
2076.75656533431
 42
0.4142135623730904
  0
LINE
  5
2CF56
102
{ACAD_REACTORS
330
2CF76
330
2CF80
102
}
330
1F
100
AcDbEntity
  8
0
100
AcDbLine
 10
1265.59557670998
 20
2082.25656533431
 30
0.0
 11
1280.595576709981
 21
2082.25656533431
 31
0.0
  0
LINE
  5
2CF65
102
{ACAD_REACTORS
330
2CF78
330
2CF80
102
}
330
1F
100
AcDbEntity
  8
0
100
AcDbLine
 10
1225.595576709979
 20
2086.756565334308
 30
0.0
 11
1225.595576709979
 21
2075.75656533431
 31
0.0
  0
ARC
  5
2CF66
102
{ACAD_REACTORS
330
2CF78
330
2CF80
102
}
330
1F
100
AcDbEntity
  8
0
100
AcDbCircle
 10
1226.095576709981
 20
2086.756565334308
 30
0.0
 40
0.5
100
AcDbArc
 50
90.0
 51
180.0
  0
ARC
  5
2CF67
102
{ACAD_REACTORS
330
2CF78
330
2CF80
102
}
330
1F
100
AcDbEntity
  8
0
100
AcDbCircle
 10
1226.095576709981
 20
2075.75656533431
 30
0.0
 40
0.5
100
AcDbArc
 50
180.0
 51
270.0
  0
LINE
  5
2CF70
102
{ACAD_REACTORS
330
2CF78
330
2CF80
102
}
330
1F
100
AcDbEntity
  8
0
100
AcDbLine
 10
1260.595576709981
 20
2075.75656533431
 30
0.0
 11
1260.595576709981
 21
2086.756565334308
 31
0.0
  0
ARC
  5
2CF71
102
{ACAD_REACTORS
330
2CF78
330
2CF80
102
}
330
1F
100
AcDbEntity
  8
0
100
AcDbCircle
 10
1260.095576709979
 20
2075.75656533431
 30
0.0
 40
0.5
100
AcDbArc
 50
270.0
 51
0.0
  0
ARC
  5
2CF72
102
{ACAD_REACTORS
330
2CF78
330
2CF80
102
}
330
1F
100
AcDbEntity
  8
0
100
AcDbCircle
 10
1260.095576709979
 20
2086.756565334308
 30
0.0
 40
0.5
100
AcDbArc
 50
0.0
 51
90.0
  0
LINE
  5
2CF77
102
{ACAD_REACTORS
330
2CF7F
102
}
330
1F
100
AcDbEntity
  8
中心線
 48
0.5
100
AcDbLine
 10
1326.154756945063
 20
2081.25656533431
 30
0.0
 11
1177.719494537779
 21
2081.25656533431
 31
0.0
  0
LINE
  5
2CF79
102
{ACAD_REACTORS
330
2CF7F
102
}
330
1F
100
AcDbEntity
  8
ﾓ_ﾀ
 48
0.5
100
AcDbLine
 10
1305.59557670998
 20
2084.75656533431
 30
0.0
 11
1285.59557670998
 21
2084.75656533431
 31
0.0
  0
LINE
  5
2CF7A
102
{ACAD_REACTORS
330
2CF7F
102
}
330
1F
100
AcDbEntity
  8
ﾓ_ﾀ
 48
0.5
100
AcDbLine
 10
1305.59557670998
 20
2077.756565334309
 30
0.0
 11
1285.59557670998
 21
2077.756565334309
 31
0.0
  0
LINE
  5
2CF7B
102
{ACAD_REACTORS
330
2CF7F
102
}
330
1F
100
AcDbEntity
  8
ﾓ_ﾀ
 48
0.5
100
AcDbLine
 10
1316.139304417277
 20
2085.256565334309
 30
0.0
 11
1305.59557670998
 21
2085.256565334309
 31
0.0
  0
LINE
  5
2CF7C
102
{ACAD_REACTORS
330
2CF7F
102
}
330
1F
100
AcDbEntity
  8
ﾓ_ﾀ
 48
0.5
100
AcDbLine
 10
1316.823130251131
 20
2077.25656533431
 30
0.0
 11
1305.59557670998
 21
2077.25656533431
 31
0.0
  0
LINE
  5
2CF7D
102
{ACAD_REACTORS
330
2CF7F
102
}
330
1F
100
AcDbEntity
  8
ﾓ_ﾀ
 48
0.1
100
AcDbLine
 10
1305.59557670998
 20
2077.25656533431
 30
0.0
 11
1305.59557670998
 21
2085.256565334309
 31
0.0
  0
SPLINE
  5
2CF7E
102
{ACAD_REACTORS
330
2CF7F
102
}
330
1F
100
AcDbEntity
  8
細線
 48
0.1
100
AcDbSpline
210
0.0
220
0.0
230
1.0
 70
     8
 71
     3
 72
    10
 73
     6
 74
     4
 42
0.0000000001
 43
0.0000000001
 44
0.0000000001
 40
0.0
 40
0.0
 40
0.0
 40
0.0
 40
2.581201829955878
 40
7.683947345659348
 40
9.889515030797706
 40
9.889515030797706
 40
9.889515030797706
 40
9.889515030797706
 10
1316.139304417277
 20
2085.256565334309
 30
0.0
 10
1315.3468514633
 20
2084.568949068664
 30
0.0
 10
1312.987808206161
 20
2082.521992833814
 30
0.0
 10
1318.964862979191
 20
2080.198208686307
 30
0.0
 10
1317.31964019821
 20
2077.938515591637
 30
0.0
 10
1316.823130251131
 20
2077.25656533431
 30
0.0
 11
1316.139304417277
 21
2085.256565334309
 31
0.0
 11
1314.552196277961
 21
2083.220959615835
 31
0.0
 11
1317.760532028509
 21
2079.253013861444
 31
0.0
 11
1316.823130251131
 21
2077.25656533431
 31
0.0
  0
MTEXT
  5
2D2D8
330
1F
100
AcDbEntity
  8
寸法
 62
    40
 48
0.1
100
AcDbMText
 10
889.9323611107547
 20
2154.184529246341
 30
0.0
 40
5.0
 41
14.0925
 71
     1
 72
     1
  1

  7
まこ
 73
     1
 44
1.0
1001
ACAD
1000
MTEXTBEGIN
1070
    73
1070
     1
1070
    44
1040
1.0
1070
    74
1070
     0
1000
MTEXTEND
  0
VIEWPORT
  5
2E
330
1B
100
AcDbEntity
 67
     1
  8
0
100
AcDbViewport
 10
383.7904490730272
 20
177.4247572772722
 30
0.0
 40
785.2103662316567
 41
416.2309817458074
 68
     1
 69
     1
 12
383.7904490730272
 22
177.4247572772722
 13
0.0
 23
0.0
 14
10.0
 24
10.0
 15
10.0
 25
10.0
 16
0.0
 26
0.0
 36
1.0
 17
0.0
 27
0.0
 37
0.0
 42
50.0
 43
0.0
 44
0.0
 45
416.2309817458074
 50
0.0
 51
0.0
 72
 10000
 90
    32768
  1

281
     0
 71
     1
 74
     0
110
0.0
120
0.0
130
0.0
111
1.0
121
0.0
131
0.0
112
0.0
122
1.0
132
0.0
 79
     0
146
0.0
  0
VIEWPORT
  5
30
330
1B
100
AcDbEntity
 67
     1
  8
MYVIEW
100
AcDbViewport
 10
207.4313274472447
 20
146.6688338714809
 30
0.0
 40
414.3908449126611
 41
291.0531579536398
 68
     2
 69
     2
 12
969.6656320994817
 22
2203.974130693877
 13
0.0
 23
0.0
 14
10.0
 24
10.0
 15
10.0
 25
10.0
 16
0.0
 26
0.0
 36
1.0
 17
0.0
 27
0.0
 37
0.0
 42
50.0
 43
0.0
 44
0.0
 45
582.1063166863415
 50
0.0
 51
0.0
 72
 10000
 90
    32832
  1

281
     0
 71
     1
 74
     0
110
0.0
120
0.0
130
0.0
111
1.0
121
0.0
131
0.0
112
0.0
122
1.0
132
0.0
 79
     0
146
0.0
  0
TEXT
  5
25D
330
1B
100
AcDbEntity
 67
     1
  8
文字１
100
AcDbText
 10
337.6689773544477
 20
11.98502182656193
 30
0.0
 40
7.0
  1
ＳＥ－４９２４０
 41
0.9529999999999999
100
AcDbText
  0
TEXT
  5
54D
330
1B
100
AcDbEntity
 67
     1
  8
WAKUMOJI1
  6
Continuous
100
AcDbText
 10
144.131927571291
 20
21.39335646759497
 30
0.0
 40
4.0
  1
１～＊
 41
0.625
100
AcDbText
  0
TEXT
  5
54E
330
1B
100
AcDbEntity
 67
     1
  8
WAKUMOJI1
  6
Continuous
100
AcDbText
 10
136.1333845714824
 20
21.2100231342654
 30
0.0
 40
3.5
  1
Ａ
 72
     1
 11
137.7667179048157
 21
21.2100231342654
 31
0.0
100
AcDbText
  0
TEXT
  5
54F
330
1B
100
AcDbEntity
 67
     1
  8
WAKUMOJI1
  6
Continuous
100
AcDbText
 10
135.1319275712915
 20
16.39335646759499
 30
0.0
 40
4.0
  1
Ｒ＊－
 41
0.625
100
AcDbText
  0
TEXT
  5
550
330
1B
100
AcDbEntity
 67
     1
  8
WAKUMOJI1
  6
Continuous
100
AcDbText
 10
160.1627465868908
 20
21.77803427355024
 30
0.0
 40
3.5
  1
＊＊＊＊＊
100
AcDbText
  0
TEXT
  5
551
330
1B
100
AcDbEntity
 67
     1
  8
WAKUMOJI1
  6
Continuous
100
AcDbText
 10
232.131927571291
 20
16.39335646759499
 30
0.0
 40
3.0
  1
'99.**.**
 41
0.5
100
AcDbText
  0
MTEXT
  5
2D416
330
1B
100
AcDbEntity
 67
     1
  8
寸法
 48
0.1
100
AcDbMText
 10
236.8529526246051
 20
29.20716507791848
 30
0.0
 40
6.0
 41
166.9758999999999
 71
     1
 72
     5
  1
τｻｰﾎﾞｺﾝﾊﾟｽ R200 CLﾕﾆｯﾄ CLD-CN53CA2A (120N)
 73
     1
 44
1.0
1001
ACAD
1000
MTEXTBEGIN
1070
    73
1070
     1
1070
    44
1040
1.0
1070
    74
1070
     0
1000
MTEXTEND
  0
ENDSEC
  0
SECTION
  2
OBJECTS
  0
DICTIONARY
  5
C
330
0
100
AcDbDictionary
281
     1
  3
ACAD_GROUP
350
D
  3
ACAD_LAYOUT
350
1A
  3
ACAD_MLINESTYLE
350
17
  3
ACAD_PLOTSETTINGS
350
19
  3
ACAD_PLOTSTYLENAME
350
E
  3
ACADDIM
350
2CE9F
  3
ACDBVARIABLEDICTIONARY
350
72CC
  0
DICTIONARY
  5
2C179
330
2
100
AcDbDictionary
280
     1
281
     1
  3
ACAD_LAYERFILTERS
360
2C17A
  3
ACAD_LAYERSTATES
360
2C196
  0
DICTIONARY
  5
2D446
330
1F
100
AcDbDictionary
280
     1
281
     1
  3
ACAD_LAYOUTSELFREF
360
2D447
  0
DICTIONARY
  5
2D444
330
1B
100
AcDbDictionary
280
     1
281
     1
  3
ACAD_LAYOUTSELFREF
360
2D445
  0
DICTIONARY
  5
D
102
{ACAD_REACTORS
330
C
102
}
330
C
100
AcDbDictionary
281
     1
  3
*A1
350
1220
  3
*A10
350
19BED
  3
*A100
350
9130
  3
*A101
350
C1CA
  3
*A102
350
9C90
  3
*A103
350
AAA0
  3
*A104
350
A4F2
  3
*A105
350
695F
  3
*A106
350
91C5
  3
*A107
350
2A3BC
  3
*A108
350
2A3B9
  3
*A109
350
BFA9
  3
*A11
350
A53E
  3
*A110
350
2BC07
  3
*A111
350
6CF7
  3
*A112
350
26B28
  3
*A113
350
B949
  3
*A114
350
2B688
  3
*A115
350
2AD49
  3
*A116
350
2AA73
  3
*A117
350
639D
  3
*A118
350
2BC0C
  3
*A119
350
26D96
  3
*A12
350
6C9C
  3
*A120
350
90E7
  3
*A121
350
2BC05
  3
*A122
350
16BB
  3
*A123
350
6623
  3
*A124
350
917A
  3
*A125
350
DE6
  3
*A126
350
2B68F
  3
*A127
350
2BC0A
  3
*A128
350
8BB3
  3
*A129
350
1D705
  3
*A13
350
2AA6F
  3
*A130
350
1A5B
  3
*A131
350
4190
  3
*A132
350
36C8
  3
*A133
350
BB55
  3
*A134
350
1C64C
  3
*A135
350
1A688
  3
*A136
350
1BC3
  3
*A137
350
C69D
  3
*A138
350
6FC2
  3
*A139
350
1C0D
  3
*A14
350
2AD4A
  3
*A140
350
2A88F
  3
*A141
350
2AA77
  3
*A142
350
2A89F
  3
*A143
350
2AA76
  3
*A144
350
1A12B
  3
*A145
350
BB10
  3
*A146
350
2ABAB
  3
*A147
350
36E7
  3
*A148
350
27114
  3
*A149
350
27111
  3
*A15
350
2A898
  3
*A150
350
A107
  3
*A151
350
2AD4E
  3
*A152
350
B351
  3
*A153
350
2BBFC
  3
*A154
350
2B690
  3
*A155
350
28676
  3
*A156
350
2BC13
  3
*A157
350
B94A
  3
*A158
350
12AA
  3
*A159
350
2AD4D
  3
*A16
350
2A3B6
  3
*A160
350
927F
  3
*A161
350
2AA78
  3
*A162
350
7FF3
  3
*A163
350
2A89D
  3
*A164
350
2538D
  3
*A165
350
248BC
  3
*A166
350
3442
  3
*A167
350
2A895
  3
*A168
350
1101D
  3
*A169
350
A4F1
  3
*A17
350
2A88E
  3
*A170
350
4501
  3
*A171
350
C538
  3
*A172
350
2489E
  3
*A173
350
CCA0
  3
*A174
350
D6FD
  3
*A175
350
A331
  3
*A176
350
9132
  3
*A177
350
27115
  3
*A178
350
2ABA9
  3
*A179
350
3102
  3
*A18
350
BFA8
  3
*A180
350
A53F
  3
*A181
350
2AD50
  3
*A182
350
1A15
  3
*A183
350
AAAF
  3
*A184
350
2ABA8
  3
*A185
350
4199
  3
*A186
350
2ABAC
  3
*A187
350
92CC
  3
*A188
350
6355
  3
*A189
350
A986
  3
*A19
350
8076
  3
*A190
350
25370
  3
*A191
350
2AA7B
  3
*A192
350
BFA7
  3
*A193
350
A2ED
  3
*A194
350
2C6C6
  3
*A195
350
251ED
  3
*A196
350
4FA2
  3
*A197
350
2A3AD
  3
*A198
350
2AA75
  3
*A199
350
A0BB
  3
*A2
350
AA61
  3
*A20
350
6C2D
  3
*A200
350
2A8A1
  3
*A201
350
2BC06
  3
*A202
350
6569
  3
*A203
350
639C
  3
*A204
350
6CCC
  3
*A205
350
2A3AF
  3
*A206
350
939D
  3
*A207
350
2A3AB
  3
*A208
350
2ABAF
  3
*A209
350
2A897
  3
*A21
350
A4F5
  3
*A210
350
2A3BF
  3
*A211
350
2A89A
  3
*A212
350
1D708
  3
*A213
350
9367
  3
*A214
350
2403C
  3
*A215
350
1C56
  3
*A216
350
8CD1
  3
*A217
350
2AD4B
  3
*A218
350
D5EB
  3
*A219
350
1152
  3
*A22
350
6356
  3
*A220
350
349F
  3
*A221
350
418F
  3
*A222
350
6C2E
  3
*A223
350
2A8A0
  3
*A224
350
A56E
  3
*A225
350
C536
  3
*A226
350
10CEC
  3
*A227
350
920D
  3
*A228
350
80FE
  3
*A229
350
2BC12
  3
*A23
350
AAB0
  3
*A230
350
80D6
  3
*A231
350
2C6C8
  3
*A232
350
2BBFB
  3
*A233
350
CC5E
  3
*A234
350
2BC0E
  3
*A235
350
B946
  3
*A236
350
2A891
  3
*A237
350
24DF6
  3
*A238
350
1A85
  3
*A239
350
D8D7
  3
*A24
350
2A892
  3
*A240
350
251EC
  3
*A241
350
2BC0D
  3
*A242
350
6962
  3
*A243
350
6C31
  3
*A244
350
A336
  3
*A245
350
2A3BE
  3
*A246
350
3ED3
  3
*A247
350
34A0
  3
*A248
350
8122
  3
*A249
350
2B691
  3
*A25
350
92A6
  3
*A250
350
2BC00
  3
*A251
350
8BB5
  3
*A252
350
2ABAD
  3
*A253
350
2AA7A
  3
*A254
350
BF76
  3
*A255
350
2AD51
  3
*A256
350
A591
  3
*A257
350
117E
  3
*A258
350
2C169
  3
*A259
350
93C3
  3
*A26
350
2BBF9
  3
*A260
350
2BC0B
  3
*A261
350
6E9B
  3
*A262
350
2C6E2
  3
*A263
350
2AA70
  3
*A264
350
C88F
  3
*A265
350
2AA79
  3
*A266
350
295E0
  3
*A267
350
15E1
  3
*A268
350
B94B
  3
*A269
350
8CD0
  3
*A27
350
BEE2
  3
*A270
350
2A890
  3
*A271
350
2BBFF
  3
*A272
350
1A46C
  3
*A273
350
2A894
  3
*A274
350
27110
  3
*A275
350
1C73
  3
*A276
350
2AD47
  3
*A277
350
D69A
  3
*A278
350
1153
  3
*A279
350
2A3AA
  3
*A28
350
1A89
  3
*A280
350
2538E
  3
*A281
350
117F
  3
*A282
350
26FE7
  3
*A283
350
9933
  3
*A284
350
A91C
  3
*A285
350
2AD46
  3
*A286
350
2BC10
  3
*A287
350
2A3BD
  3
*A288
350
27116
  3
*A289
350
C7BB
  3
*A29
350
2AD4F
  3
*A290
350
2BC0F
  3
*A291
350
CC19
  3
*A292
350
26F10
  3
*A293
350
2BBFE
  3
*A294
350
8306
  3
*A295
350
2A3B1
  3
*A296
350
92CB
  3
*A297
350
2A896
  3
*A298
350
12D2
  3
*A299
350
A329
  3
*A3
350
2A3B2
  3
*A30
350
A966
  3
*A300
350
2A899
  3
*A301
350
3101
  3
*A302
350
63BF
  3
*A303
350
248AD
  3
*A304
350
148A7
  3
*A305
350
9C4A
  3
*A306
350
2BC01
  3
*A307
350
2A88C
  3
*A308
350
A2F4
  3
*A309
350
2A88D
  3
*A31
350
36E8
  3
*A310
350
B1F2
  3
*A311
350
1A425
  3
*A312
350
A5B4
  3
*A313
350
6565
  3
*A314
350
45D7
  3
*A315
350
2BBF6
  3
*A316
350
6AB6
  3
*A317
350
251EB
  3
*A318
350
A4F3
  3
*A319
350
AF2A
  3
*A32
350
2A89E
  3
*A320
350
2A8A2
  3
*A321
350
C1E4
  3
*A322
350
2A89C
  3
*A323
350
27271
  3
*A324
350
2C6E1
  3
*A325
350
80D7
  3
*A326
350
9131
  3
*A327
350
2A3AE
  3
*A328
350
6961
  3
*A329
350
2BBFA
  3
*A33
350
80FD
  3
*A330
350
254DD
  3
*A331
350
BA56
  3
*A332
350
2BC11
  3
*A333
350
19E9
  3
*A334
350
29739
  3
*A335
350
2ABA5
  3
*A336
350
2AA72
  3
*A337
350
6FF5
  3
*A338
350
18F3
  3
*A339
350
2A3BB
  3
*A34
350
7074
  3
*A340
350
D724
  3
*A341
350
A56C
  3
*A342
350
6FC8
  3
*A343
350
2ABAE
  3
*A344
350
2E19
  3
*A345
350
9B46
  3
*A346
350
BA57
  3
*A347
350
2BC04
  3
*A348
350
CB94
  3
*A349
350
B973
  3
*A35
350
2ABB1
  3
*A350
350
128B
  3
*A351
350
D820
  3
*A352
350
10EBD
  3
*A353
350
4502
  3
*A354
350
2404B
  3
*A355
350
2BC02
  3
*A356
350
3DBF
  3
*A357
350
CB80
  3
*A358
350
8123
  3
*A359
350
AAAE
  3
*A36
350
830B
  3
*A360
350
C410
  3
*A361
350
63E1
  3
*A362
350
1C33
  3
*A363
350
920C
  3
*A364
350
9B47
  3
*A365
350
7FF8
  3
*A366
350
297E9
  3
*A367
350
80FC
  3
*A368
350
AA9E
  3
*A369
350
AAB1
  3
*A37
350
1A5A
  3
*A370
350
D6FC
  3
*A371
350
1A689
  3
*A372
350
254B7
  3
*A373
350
190B
  3
*A374
350
9936
  3
*A375
350
99B0
  3
*A376
350
2BBF7
  3
*A377
350
29738
  3
*A378
350
919F
  3
*A379
350
1A12A
  3
*A38
350
2ABB0
  3
*A380
350
BF05
  3
*A381
350
2710F
  3
*A382
350
16DA
  3
*A383
350
DCA
  3
*A384
350
1A7B8
  3
*A385
350
D74A
  3
*A386
350
CA67
  3
*A387
350
24930
  3
*A388
350
8BED
  3
*A389
350
2A3AC
  3
*A39
350
B948
  3
*A390
350
45DB
  3
*A391
350
3443
  3
*A392
350
99AF
  3
*A393
350
2AD48
  3
*A394
350
2787F
  3
*A395
350
24CEA
  3
*A396
350
34DC
  3
*A397
350
2B689
  3
*A398
350
2496C
  3
*A399
350
1207
  3
*A4
350
920E
  3
*A40
350
297E8
  3
*A400
350
2AD52
  3
*A401
350
939C
  3
*A402
350
287E6
  3
*A403
350
24D71
  3
*A404
350
920F
  3
*A405
350
6E9D
  3
*A406
350
2CEAB
  3
*A407
350
2BBFD
  3
*A408
350
2BC09
  3
*A409
350
1C7E3
  3
*A41
350
9935
  3
*A410
350
2CEAC
  3
*A411
350
2A3B3
  3
*A412
350
2CEB0
  3
*A413
350
2CEE0
  3
*A414
350
D4D4
  3
*A415
350
26CA0
  3
*A416
350
2AA71
  3
*A417
350
248DA
  3
*A418
350
9282
  3
*A419
350
2CF16
  3
*A42
350
A4F4
  3
*A420
350
2CF17
  3
*A421
350
2CF76
  3
*A422
350
A332
  3
*A423
350
2CF78
  3
*A424
350
2CF7F
  3
*A425
350
8124
  3
*A426
350
92A7
  3
*A427
350
6FA2
  3
*A428
350
27112
  3
*A429
350
27255
  3
*A43
350
2A893
  3
*A430
350
639B
  3
*A431
350
2CF80
  3
*A432
350
2C918
  3
*A433
350
2ABA6
  3
*A434
350
A919
  3
*A435
350
7FF2
  3
*A436
350
91C4
  3
*A437
350
2880B
  3
*A438
350
662F
  3
*A439
350
2494E
  3
*A44
350
27113
  3
*A45
350
C5AE
  3
*A46
350
2A3B0
  3
*A47
350
2B14B
  3
*A48
350
295E1
  3
*A49
350
1D706
  3
*A5
350
24921
  3
*A50
350
91A0
  3
*A51
350
2B68E
  3
*A52
350
2ABA7
  3
*A53
350
2C6E0
  3
*A54
350
2BBF8
  3
*A55
350
6FB1
  3
*A56
350
19794
  3
*A57
350
8166
  3
*A58
350
AFF4
  3
*A59
350
2A3B5
  3
*A6
350
251EE
  3
*A60
350
2ABAA
  3
*A61
350
BF7B
  3
*A62
350
9C8F
  3
*A63
350
2BC14
  3
*A64
350
AA9F
  3
*A65
350
A4F0
  3
*A66
350
248CB
  3
*A67
350
2A3B4
  3
*A68
350
349E
  3
*A69
350
6960
  3
*A7
350
6DFB
  3
*A70
350
A962
  3
*A71
350
2A3B8
  3
*A72
350
3DA0
  3
*A73
350
2AD4C
  3
*A74
350
2BC03
  3
*A75
350
B947
  3
*A76
350
2BC08
  3
*A77
350
7FF4
  3
*A78
350
93C4
  3
*A79
350
2493F
  3
*A8
350
6C2B
  3
*A80
350
2495D
  3
*A81
350
8307
  3
*A82
350
12F1
  3
*A83
350
27994
  3
*A84
350
148A6
  3
*A85
350
37C8
  3
*A86
350
A2F5
  3
*A87
350
2A3BA
  3
*A88
350
1208
  3
*A89
350
AA60
  3
*A9
350
19D1
  3
*A90
350
A2EC
  3
*A91
350
CC1A
  3
*A92
350
2A3B7
  3
*A93
350
126C
  3
*A94
350
6F90
  3
*A95
350
24F0C
  3
*A96
350
12F2
  3
*A97
350
2B443
  3
*A98
350
B974
  3
*A99
350
6C2C
  0
DICTIONARY
  5
1A
102
{ACAD_REACTORS
330
C
102
}
330
C
100
AcDbDictionary
281
     1
  3
Model
350
2D44F
  3
ﾚｲｱｳﾄ1
350
2D450
  0
DICTIONARY
  5
17
102
{ACAD_REACTORS
330
C
102
}
330
C
100
AcDbDictionary
281
     1
  3
STANDARD
350
18
  0
DICTIONARY
  5
19
102
{ACAD_REACTORS
330
C
102
}
330
C
100
AcDbDictionary
281
     1
  0
ACDBDICTIONARYWDFLT
  5
E
102
{ACAD_REACTORS
330
C
102
}
330
C
100
AcDbDictionary
281
     1
  3
Normal
350
F
100
AcDbDictionaryWithDefault
340
F
  0
XRECORD
  5
2CE9F
102
{ACAD_REACTORS
330
C
102
}
330
C
100
AcDbXrecord
280
     1
 90
   990106
  3

 60
     0
 61
     0
 62
     1
 63
     3
 64
     0
 65
     0
 66
     0
 67
     3
 68
     1
 69
     0
 70
     0
 71
     0
 72
     0
 40
14.0924833281648
170
     0
340
2D2D8
  0
DICTIONARY
  5
72CC
102
{ACAD_REACTORS
330
C
102
}
330
C
100
AcDbDictionary
281
     1
  3
DIMASSOC
350
2CBE0
  3
SORTENTS
350
72CD
  0
DICTIONARY
  5
2C17A
102
{ACAD_REACTORS
330
2C179
102
}
330
2C179
100
AcDbDictionary
280
     1
281
     1
  3
0
360
2C17B
  3
11
360
2C17C
  3
150_
360
2C17D
  3
160_
360
2C17E
  3
170_
360
2C17F
  3
171_
360
2C180
  3
350_
360
2C181
  3
4
360
2C182
  3
5
360
2C183
  3
7
360
2C184
  3
KISEKI
360
2C185
  0
DICTIONARY
  5
2C196
102
{ACAD_REACTORS
330
2C179
102
}
330
2C179
100
AcDbDictionary
281
     1
  0
XRECORD
  5
2D447
102
{ACAD_REACTORS
330
2D446
102
}
330
2D446
100
AcDbXrecord
280
     1
340
1F
  0
XRECORD
  5
2D445
102
{ACAD_REACTORS
330
2D444
102
}
330
2D444
100
AcDbXrecord
280
     1
340
1B
  0
GROUP
  5
1220
102
{ACAD_REACTORS
330
D
102
}
330
D
100
AcDbGroup
300

 70
     1
 71
     1
  0
GROUP
  5
19BED
102
{ACAD_REACTORS
330
D
102
}
330
D
100
AcDbGroup
300

 70
     1
 71
     1
  0
GROUP
  5
9130
102
{ACAD_REACTORS
330
D
102
}
330
D
100
AcDbGroup
300

 70
     1
 71
     1
  0
GROUP
  5
C1CA
102
{ACAD_REACTORS
330
D
102
}
330
D
100
AcDbGroup
300

 70
     1
 71
     1
  0
GROUP
  5
9C90
102
{ACAD_REACTORS
330
D
102
}
330
D
100
AcDbGroup
300

 70
     1
 71
     1
  0
GROUP
  5
AAA0
102
{ACAD_REACTORS
330
D
102
}
330
D
100
AcDbGroup
300

 70
     1
 71
     1
  0
GROUP
  5
A4F2
102
{ACAD_REACTORS
330
D
102
}
330
D
100
AcDbGroup
300

 70
     1
 71
     1
  0
GROUP
  5
695F
102
{ACAD_REACTORS
330
D
102
}
330
D
100
AcDbGroup
300

 70
     1
 71
     1
  0
GROUP
  5
91C5
102
{ACAD_REACTORS
330
D
102
}
330
D
100
AcDbGroup
300

 70
     1
 71
     1
  0
GROUP
  5
2A3BC
102
{ACAD_REACTORS
330
D
102
}
330
D
100
AcDbGroup
300

 70
     1
 71
     1
  0
GROUP
  5
2A3B9
102
{ACAD_REACTORS
330
D
102
}
330
D
100
AcDbGroup
300

 70
     1
 71
     1
  0
GROUP
  5
BFA9
102
{ACAD_REACTORS
330
D
102
}
330
D
100
AcDbGroup
300

 70
     1
 71
     1
  0
GROUP
  5
A53E
102
{ACAD_REACTORS
330
D
102
}
330
D
100
AcDbGroup
300

 70
     1
 71
     1
  0
GROUP
  5
2BC07
102
{ACAD_REACTORS
330
D
102
}
330
D
100
AcDbGroup
300

 70
     1
 71
     1
  0
GROUP
  5
6CF7
102
{ACAD_REACTORS
330
D
102
}
330
D
100
AcDbGroup
300

 70
     1
 71
     1
  0
GROUP
  5
26B28
102
{ACAD_REACTORS
330
D
102
}
330
D
100
AcDbGroup
300

 70
     1
 71
     1
  0
GROUP
  5
B949
102
{ACAD_REACTORS
330
D
102
}
330
D
100
AcDbGroup
300

 70
     1
 71
     1
  0
GROUP
  5
2B688
102
{ACAD_REACTORS
330
D
102
}
330
D
100
AcDbGroup
300

 70
     1
 71
     1
  0
GROUP
  5
2AD49
102
{ACAD_REACTORS
330
D
102
}
330
D
100
AcDbGroup
300

 70
     1
 71
     1
  0
GROUP
  5
2AA73
102
{ACAD_REACTORS
330
D
102
}
330
D
100
AcDbGroup
300

 70
     1
 71
     1
  0
GROUP
  5
639D
102
{ACAD_REACTORS
330
D
102
}
330
D
100
AcDbGroup
300

 70
     1
 71
     1
  0
GROUP
  5
2BC0C
102
{ACAD_REACTORS
330
D
102
}
330
D
100
AcDbGroup
300

 70
     1
 71
     1
  0
GROUP
  5
26D96
102
{ACAD_REACTORS
330
D
102
}
330
D
100
AcDbGroup
300

 70
     1
 71
     1
  0
GROUP
  5
6C9C
102
{ACAD_REACTORS
330
D
102
}
330
D
100
AcDbGroup
300

 70
     1
 71
     1
  0
GROUP
  5
90E7
102
{ACAD_REACTORS
330
D
102
}
330
D
100
AcDbGroup
300

 70
     1
 71
     1
  0
GROUP
  5
2BC05
102
{ACAD_REACTORS
330
D
102
}
330
D
100
AcDbGroup
300

 70
     1
 71
     1
  0
GROUP
  5
16BB
102
{ACAD_REACTORS
330
D
102
}
330
D
100
AcDbGroup
300

 70
     1
 71
     1
  0
GROUP
  5
6623
102
{ACAD_REACTORS
330
D
102
}
330
D
100
AcDbGroup
300

 70
     1
 71
     1
  0
GROUP
  5
917A
102
{ACAD_REACTORS
330
D
102
}
330
D
100
AcDbGroup
300

 70
     1
 71
     1
  0
GROUP
  5
DE6
102
{ACAD_REACTORS
330
D
102
}
330
D
100
AcDbGroup
300

 70
     1
 71
     1
  0
GROUP
  5
2B68F
102
{ACAD_REACTORS
330
D
102
}
330
D
100
AcDbGroup
300

 70
     1
 71
     1
  0
GROUP
  5
2BC0A
102
{ACAD_REACTORS
330
D
102
}
330
D
100
AcDbGroup
300

 70
     1
 71
     1
  0
GROUP
  5
8BB3
102
{ACAD_REACTORS
330
D
102
}
330
D
100
AcDbGroup
300

 70
     1
 71
     1
  0
GROUP
  5
1D705
102
{ACAD_REACTORS
330
D
102
}
330
D
100
AcDbGroup
300

 70
     1
 71
     1
  0
GROUP
  5
2AA6F
102
{ACAD_REACTORS
330
D
102
}
330
D
100
AcDbGroup
300

 70
     1
 71
     1
  0
GROUP
  5
1A5B
102
{ACAD_REACTORS
330
D
102
}
330
D
100
AcDbGroup
300

 70
     1
 71
     1
  0
GROUP
  5
4190
102
{ACAD_REACTORS
330
D
102
}
330
D
100
AcDbGroup
300

 70
     1
 71
     1
  0
GROUP
  5
36C8
102
{ACAD_REACTORS
330
D
102
}
330
D
100
AcDbGroup
300

 70
     1
 71
     1
  0
GROUP
  5
BB55
102
{ACAD_REACTORS
330
D
102
}
330
D
100
AcDbGroup
300

 70
     1
 71
     1
  0
GROUP
  5
1C64C
102
{ACAD_REACTORS
330
D
102
}
330
D
100
AcDbGroup
300

 70
     1
 71
     1
  0
GROUP
  5
1A688
102
{ACAD_REACTORS
330
D
102
}
330
D
100
AcDbGroup
300

 70
     1
 71
     1
  0
GROUP
  5
1BC3
102
{ACAD_REACTORS
330
D
102
}
330
D
100
AcDbGroup
300

 70
     1
 71
     1
  0
GROUP
  5
C69D
102
{ACAD_REACTORS
330
D
102
}
330
D
100
AcDbGroup
300

 70
     1
 71
     1
  0
GROUP
  5
6FC2
102
{ACAD_REACTORS
330
D
102
}
330
D
100
AcDbGroup
300

 70
     1
 71
     1
  0
GROUP
  5
1C0D
102
{ACAD_REACTORS
330
D
102
}
330
D
100
AcDbGroup
300

 70
     1
 71
     1
  0
GROUP
  5
2AD4A
102
{ACAD_REACTORS
330
D
102
}
330
D
100
AcDbGroup
300

 70
     1
 71
     1
  0
GROUP
  5
2A88F
102
{ACAD_REACTORS
330
D
102
}
330
D
100
AcDbGroup
300

 70
     1
 71
     1
  0
GROUP
  5
2AA77
102
{ACAD_REACTORS
330
D
102
}
330
D
100
AcDbGroup
300

 70
     1
 71
     1
  0
GROUP
  5
2A89F
102
{ACAD_REACTORS
330
D
102
}
330
D
100
AcDbGroup
300

 70
     1
 71
     1
  0
GROUP
  5
2AA76
102
{ACAD_REACTORS
330
D
102
}
330
D
100
AcDbGroup
300

 70
     1
 71
     1
  0
GROUP
  5
1A12B
102
{ACAD_REACTORS
330
D
102
}
330
D
100
AcDbGroup
300

 70
     1
 71
     1
  0
GROUP
  5
BB10
102
{ACAD_REACTORS
330
D
102
}
330
D
100
AcDbGroup
300

 70
     1
 71
     1
  0
GROUP
  5
2ABAB
102
{ACAD_REACTORS
330
D
102
}
330
D
100
AcDbGroup
300

 70
     1
 71
     1
  0
GROUP
  5
36E7
102
{ACAD_REACTORS
330
D
102
}
330
D
100
AcDbGroup
300

 70
     1
 71
     1
  0
GROUP
  5
27114
102
{ACAD_REACTORS
330
D
102
}
330
D
100
AcDbGroup
300

 70
     1
 71
     1
  0
GROUP
  5
27111
102
{ACAD_REACTORS
330
D
102
}
330
D
100
AcDbGroup
300

 70
     1
 71
     1
  0
GROUP
  5
2A898
102
{ACAD_REACTORS
330
D
102
}
330
D
100
AcDbGroup
300

 70
     1
 71
     1
  0
GROUP
  5
A107
102
{ACAD_REACTORS
330
D
102
}
330
D
100
AcDbGroup
300

 70
     1
 71
     1
  0
GROUP
  5
2AD4E
102
{ACAD_REACTORS
330
D
102
}
330
D
100
AcDbGroup
300

 70
     1
 71
     1
  0
GROUP
  5
B351
102
{ACAD_REACTORS
330
D
102
}
330
D
100
AcDbGroup
300

 70
     1
 71
     1
  0
GROUP
  5
2BBFC
102
{ACAD_REACTORS
330
D
102
}
330
D
100
AcDbGroup
300

 70
     1
 71
     1
  0
GROUP
  5
2B690
102
{ACAD_REACTORS
330
D
102
}
330
D
100
AcDbGroup
300

 70
     1
 71
     1
  0
GROUP
  5
28676
102
{ACAD_REACTORS
330
D
102
}
330
D
100
AcDbGroup
300

 70
     1
 71
     1
  0
GROUP
  5
2BC13
102
{ACAD_REACTORS
330
D
102
}
330
D
100
AcDbGroup
300

 70
     1
 71
     1
  0
GROUP
  5
B94A
102
{ACAD_REACTORS
330
D
102
}
330
D
100
AcDbGroup
300

 70
     1
 71
     1
  0
GROUP
  5
12AA
102
{ACAD_REACTORS
330
D
102
}
330
D
100
AcDbGroup
300

 70
     1
 71
     1
  0
GROUP
  5
2AD4D
102
{ACAD_REACTORS
330
D
102
}
330
D
100
AcDbGroup
300

 70
     1
 71
     1
  0
GROUP
  5
2A3B6
102
{ACAD_REACTORS
330
D
102
}
330
D
100
AcDbGroup
300

 70
     1
 71
     1
  0
GROUP
  5
927F
102
{ACAD_REACTORS
330
D
102
}
330
D
100
AcDbGroup
300

 70
     1
 71
     1
  0
GROUP
  5
2AA78
102
{ACAD_REACTORS
330
D
102
}
330
D
100
AcDbGroup
300

 70
     1
 71
     1
  0
GROUP
  5
7FF3
102
{ACAD_REACTORS
330
D
102
}
330
D
100
AcDbGroup
300

 70
     1
 71
     1
  0
GROUP
  5
2A89D
102
{ACAD_REACTORS
330
D
102
}
330
D
100
AcDbGroup
300

 70
     1
 71
     1
  0
GROUP
  5
2538D
102
{ACAD_REACTORS
330
D
102
}
330
D
100
AcDbGroup
300

 70
     1
 71
     1
  0
GROUP
  5
248BC
102
{ACAD_REACTORS
330
D
102
}
330
D
100
AcDbGroup
300

 70
     1
 71
     1
  0
GROUP
  5
3442
102
{ACAD_REACTORS
330
D
102
}
330
D
100
AcDbGroup
300

 70
     1
 71
     1
  0
GROUP
  5
2A895
102
{ACAD_REACTORS
330
D
102
}
330
D
100
AcDbGroup
300

 70
     1
 71
     1
  0
GROUP
  5
1101D
102
{ACAD_REACTORS
330
D
102
}
330
D
100
AcDbGroup
300

 70
     1
 71
     1
  0
GROUP
  5
A4F1
102
{ACAD_REACTORS
330
D
102
}
330
D
100
AcDbGroup
300

 70
     1
 71
     1
  0
GROUP
  5
2A88E
102
{ACAD_REACTORS
330
D
102
}
330
D
100
AcDbGroup
300

 70
     1
 71
     1
  0
GROUP
  5
4501
102
{ACAD_REACTORS
330
D
102
}
330
D
100
AcDbGroup
300

 70
     1
 71
     1
  0
GROUP
  5
C538
102
{ACAD_REACTORS
330
D
102
}
330
D
100
AcDbGroup
300

 70
     1
 71
     1
  0
GROUP
  5
2489E
102
{ACAD_REACTORS
330
D
102
}
330
D
100
AcDbGroup
300

 70
     1
 71
     1
  0
GROUP
  5
CCA0
102
{ACAD_REACTORS
330
D
102
}
330
D
100
AcDbGroup
300

 70
     1
 71
     1
  0
GROUP
  5
D6FD
102
{ACAD_REACTORS
330
D
102
}
330
D
100
AcDbGroup
300

 70
     1
 71
     1
  0
GROUP
  5
A331
102
{ACAD_REACTORS
330
D
102
}
330
D
100
AcDbGroup
300

 70
     1
 71
     1
  0
GROUP
  5
9132
102
{ACAD_REACTORS
330
D
102
}
330
D
100
AcDbGroup
300

 70
     1
 71
     1
  0
GROUP
  5
27115
102
{ACAD_REACTORS
330
D
102
}
330
D
100
AcDbGroup
300

 70
     1
 71
     1
  0
GROUP
  5
2ABA9
102
{ACAD_REACTORS
330
D
102
}
330
D
100
AcDbGroup
300

 70
     1
 71
     1
  0
GROUP
  5
3102
102
{ACAD_REACTORS
330
D
102
}
330
D
100
AcDbGroup
300

 70
     1
 71
     1
  0
GROUP
  5
BFA8
102
{ACAD_REACTORS
330
D
102
}
330
D
100
AcDbGroup
300

 70
     1
 71
     1
  0
GROUP
  5
A53F
102
{ACAD_REACTORS
330
D
102
}
330
D
100
AcDbGroup
300

 70
     1
 71
     1
  0
GROUP
  5
2AD50
102
{ACAD_REACTORS
330
D
102
}
330
D
100
AcDbGroup
300

 70
     1
 71
     1
  0
GROUP
  5
1A15
102
{ACAD_REACTORS
330
D
102
}
330
D
100
AcDbGroup
300

 70
     1
 71
     1
  0
GROUP
  5
AAAF
102
{ACAD_REACTORS
330
D
102
}
330
D
100
AcDbGroup
300

 70
     1
 71
     1
  0
GROUP
  5
2ABA8
102
{ACAD_REACTORS
330
D
102
}
330
D
100
AcDbGroup
300

 70
     1
 71
     1
  0
GROUP
  5
4199
102
{ACAD_REACTORS
330
D
102
}
330
D
100
AcDbGroup
300

 70
     1
 71
     1
  0
GROUP
  5
2ABAC
102
{ACAD_REACTORS
330
D
102
}
330
D
100
AcDbGroup
300

 70
     1
 71
     1
  0
GROUP
  5
92CC
102
{ACAD_REACTORS
330
D
102
}
330
D
100
AcDbGroup
300

 70
     1
 71
     1
  0
GROUP
  5
6355
102
{ACAD_REACTORS
330
D
102
}
330
D
100
AcDbGroup
300

 70
     1
 71
     1
  0
GROUP
  5
A986
102
{ACAD_REACTORS
330
D
102
}
330
D
100
AcDbGroup
300

 70
     1
 71
     1
  0
GROUP
  5
8076
102
{ACAD_REACTORS
330
D
102
}
330
D
100
AcDbGroup
300

 70
     1
 71
     1
  0
GROUP
  5
25370
102
{ACAD_REACTORS
330
D
102
}
330
D
100
AcDbGroup
300

 70
     1
 71
     1
  0
GROUP
  5
2AA7B
102
{ACAD_REACTORS
330
D
102
}
330
D
100
AcDbGroup
300

 70
     1
 71
     1
  0
GROUP
  5
BFA7
102
{ACAD_REACTORS
330
D
102
}
330
D
100
AcDbGroup
300

 70
     1
 71
     1
  0
GROUP
  5
A2ED
102
{ACAD_REACTORS
330
D
102
}
330
D
100
AcDbGroup
300

 70
     1
 71
     1
  0
GROUP
  5
2C6C6
102
{ACAD_REACTORS
330
D
102
}
330
D
100
AcDbGroup
300

 70
     1
 71
     1
340
2C6B3
340
2C6C0
340
2C6BF
340
2C6B9
340
2C6B8
340
2C6B7
340
2C6B6
340
2C6B5
340
2C6B2
340
2C6C3
340
2C6BD
340
2C6C4
340
2C6BE
340
2C6C5
340
2C6C2
340
2C6B4
340
2C6BA
340
2C6BB
340
2C6C1
340
2C6BC
  0
GROUP
  5
251ED
102
{ACAD_REACTORS
330
D
102
}
330
D
100
AcDbGroup
300

 70
     1
 71
     1
  0
GROUP
  5
4FA2
102
{ACAD_REACTORS
330
D
102
}
330
D
100
AcDbGroup
300

 70
     1
 71
     1
  0
GROUP
  5
2A3AD
102
{ACAD_REACTORS
330
D
102
}
330
D
100
AcDbGroup
300

 70
     1
 71
     1
  0
GROUP
  5
2AA75
102
{ACAD_REACTORS
330
D
102
}
330
D
100
AcDbGroup
300

 70
     1
 71
     1
  0
GROUP
  5
A0BB
102
{ACAD_REACTORS
330
D
102
}
330
D
100
AcDbGroup
300

 70
     1
 71
     1
  0
GROUP
  5
AA61
102
{ACAD_REACTORS
330
D
102
}
330
D
100
AcDbGroup
300

 70
     1
 71
     1
  0
GROUP
  5
6C2D
102
{ACAD_REACTORS
330
D
102
}
330
D
100
AcDbGroup
300

 70
     1
 71
     1
  0
GROUP
  5
2A8A1
102
{ACAD_REACTORS
330
D
102
}
330
D
100
AcDbGroup
300

 70
     1
 71
     1
  0
GROUP
  5
2BC06
102
{ACAD_REACTORS
330
D
102
}
330
D
100
AcDbGroup
300

 70
     1
 71
     1
  0
GROUP
  5
6569
102
{ACAD_REACTORS
330
D
102
}
330
D
100
AcDbGroup
300

 70
     1
 71
     1
  0
GROUP
  5
639C
102
{ACAD_REACTORS
330
D
102
}
330
D
100
AcDbGroup
300

 70
     1
 71
     1
  0
GROUP
  5
6CCC
102
{ACAD_REACTORS
330
D
102
}
330
D
100
AcDbGroup
300

 70
     1
 71
     1
  0
GROUP
  5
2A3AF
102
{ACAD_REACTORS
330
D
102
}
330
D
100
AcDbGroup
300

 70
     1
 71
     1
  0
GROUP
  5
939D
102
{ACAD_REACTORS
330
D
102
}
330
D
100
AcDbGroup
300

 70
     1
 71
     1
  0
GROUP
  5
2A3AB
102
{ACAD_REACTORS
330
D
102
}
330
D
100
AcDbGroup
300

 70
     1
 71
     1
  0
GROUP
  5
2ABAF
102
{ACAD_REACTORS
330
D
102
}
330
D
100
AcDbGroup
300

 70
     1
 71
     1
  0
GROUP
  5
2A897
102
{ACAD_REACTORS
330
D
102
}
330
D
100
AcDbGroup
300

 70
     1
 71
     1
  0
GROUP
  5
A4F5
102
{ACAD_REACTORS
330
D
102
}
330
D
100
AcDbGroup
300

 70
     1
 71
     1
  0
GROUP
  5
2A3BF
102
{ACAD_REACTORS
330
D
102
}
330
D
100
AcDbGroup
300

 70
     1
 71
     1
  0
GROUP
  5
2A89A
102
{ACAD_REACTORS
330
D
102
}
330
D
100
AcDbGroup
300

 70
     1
 71
     1
  0
GROUP
  5
1D708
102
{ACAD_REACTORS
330
D
102
}
330
D
100
AcDbGroup
300

 70
     1
 71
     1
  0
GROUP
  5
9367
102
{ACAD_REACTORS
330
D
102
}
330
D
100
AcDbGroup
300

 70
     1
 71
     1
  0
GROUP
  5
2403C
102
{ACAD_REACTORS
330
D
102
}
330
D
100
AcDbGroup
300

 70
     1
 71
     1
  0
GROUP
  5
1C56
102
{ACAD_REACTORS
330
D
102
}
330
D
100
AcDbGroup
300

 70
     1
 71
     1
  0
GROUP
  5
8CD1
102
{ACAD_REACTORS
330
D
102
}
330
D
100
AcDbGroup
300

 70
     1
 71
     1
  0
GROUP
  5
2AD4B
102
{ACAD_REACTORS
330
D
102
}
330
D
100
AcDbGroup
300

 70
     1
 71
     1
  0
GROUP
  5
D5EB
102
{ACAD_REACTORS
330
D
102
}
330
D
100
AcDbGroup
300

 70
     1
 71
     1
  0
GROUP
  5
1152
102
{ACAD_REACTORS
330
D
102
}
330
D
100
AcDbGroup
300

 70
     1
 71
     1
  0
GROUP
  5
6356
102
{ACAD_REACTORS
330
D
102
}
330
D
100
AcDbGroup
300

 70
     1
 71
     1
  0
GROUP
  5
349F
102
{ACAD_REACTORS
330
D
102
}
330
D
100
AcDbGroup
300

 70
     1
 71
     1
  0
GROUP
  5
418F
102
{ACAD_REACTORS
330
D
102
}
330
D
100
AcDbGroup
300

 70
     1
 71
     1
  0
GROUP
  5
6C2E
102
{ACAD_REACTORS
330
D
102
}
330
D
100
AcDbGroup
300

 70
     1
 71
     1
  0
GROUP
  5
2A8A0
102
{ACAD_REACTORS
330
D
102
}
330
D
100
AcDbGroup
300

 70
     1
 71
     1
  0
GROUP
  5
A56E
102
{ACAD_REACTORS
330
D
102
}
330
D
100
AcDbGroup
300

 70
     1
 71
     1
  0
GROUP
  5
C536
102
{ACAD_REACTORS
330
D
102
}
330
D
100
AcDbGroup
300

 70
     1
 71
     1
  0
GROUP
  5
10CEC
102
{ACAD_REACTORS
330
D
102
}
330
D
100
AcDbGroup
300

 70
     1
 71
     1
  0
GROUP
  5
920D
102
{ACAD_REACTORS
330
D
102
}
330
D
100
AcDbGroup
300

 70
     1
 71
     1
  0
GROUP
  5
80FE
102
{ACAD_REACTORS
330
D
102
}
330
D
100
AcDbGroup
300

 70
     1
 71
     1
  0
GROUP
  5
2BC12
102
{ACAD_REACTORS
330
D
102
}
330
D
100
AcDbGroup
300

 70
     1
 71
     1
  0
GROUP
  5
AAB0
102
{ACAD_REACTORS
330
D
102
}
330
D
100
AcDbGroup
300

 70
     1
 71
     1
  0
GROUP
  5
80D6
102
{ACAD_REACTORS
330
D
102
}
330
D
100
AcDbGroup
300

 70
     1
 71
     1
  0
GROUP
  5
2C6C8
102
{ACAD_REACTORS
330
D
102
}
330
D
100
AcDbGroup
300

 70
     1
 71
     1
340
2B463
340
2B697
340
2B693
340
2B696
340
2B692
340
2B4BD
340
2B466
340
2B498
340
2B698
340
2B467
340
2C3DD
340
2C41C
340
2C41B
340
2C41A
340
2C3DE
340
2C41E
340
2C41D
340
2C3DC
340
2B468
340
2B499
340
2B4CB
340
2B469
340
2B484
340
2B483
340
2B46C
340
2B480
340
2B47E
340
2B47F
340
2B485
340
2B494
340
2B493
340
2B46E
340
2B46B
340
2B46D
340
2B482
340
2B481
340
2B47B
340
2B47A
340
2B470
340
2B475
340
2B491
340
2B492
340
2B47D
340
2B486
  0
GROUP
  5
2BBFB
102
{ACAD_REACTORS
330
D
102
}
330
D
100
AcDbGroup
300

 70
     1
 71
     1
  0
GROUP
  5
CC5E
102
{ACAD_REACTORS
330
D
102
}
330
D
100
AcDbGroup
300

 70
     1
 71
     1
  0
GROUP
  5
2BC0E
102
{ACAD_REACTORS
330
D
102
}
330
D
100
AcDbGroup
300

 70
     1
 71
     1
  0
GROUP
  5
B946
102
{ACAD_REACTORS
330
D
102
}
330
D
100
AcDbGroup
300

 70
     1
 71
     1
  0
GROUP
  5
2A891
102
{ACAD_REACTORS
330
D
102
}
330
D
100
AcDbGroup
300

 70
     1
 71
     1
  0
GROUP
  5
24DF6
102
{ACAD_REACTORS
330
D
102
}
330
D
100
AcDbGroup
300

 70
     1
 71
     1
  0
GROUP
  5
1A85
102
{ACAD_REACTORS
330
D
102
}
330
D
100
AcDbGroup
300

 70
     1
 71
     1
  0
GROUP
  5
D8D7
102
{ACAD_REACTORS
330
D
102
}
330
D
100
AcDbGroup
300

 70
     1
 71
     1
  0
GROUP
  5
2A892
102
{ACAD_REACTORS
330
D
102
}
330
D
100
AcDbGroup
300

 70
     1
 71
     1
  0
GROUP
  5
251EC
102
{ACAD_REACTORS
330
D
102
}
330
D
100
AcDbGroup
300

 70
     1
 71
     1
  0
GROUP
  5
2BC0D
102
{ACAD_REACTORS
330
D
102
}
330
D
100
AcDbGroup
300

 70
     1
 71
     1
  0
GROUP
  5
6962
102
{ACAD_REACTORS
330
D
102
}
330
D
100
AcDbGroup
300

 70
     1
 71
     1
  0
GROUP
  5
6C31
102
{ACAD_REACTORS
330
D
102
}
330
D
100
AcDbGroup
300

 70
     1
 71
     1
  0
GROUP
  5
A336
102
{ACAD_REACTORS
330
D
102
}
330
D
100
AcDbGroup
300

 70
     1
 71
     1
  0
GROUP
  5
2A3BE
102
{ACAD_REACTORS
330
D
102
}
330
D
100
AcDbGroup
300

 70
     1
 71
     1
  0
GROUP
  5
3ED3
102
{ACAD_REACTORS
330
D
102
}
330
D
100
AcDbGroup
300

 70
     1
 71
     1
  0
GROUP
  5
34A0
102
{ACAD_REACTORS
330
D
102
}
330
D
100
AcDbGroup
300

 70
     1
 71
     1
  0
GROUP
  5
8122
102
{ACAD_REACTORS
330
D
102
}
330
D
100
AcDbGroup
300

 70
     1
 71
     1
  0
GROUP
  5
2B691
102
{ACAD_REACTORS
330
D
102
}
330
D
100
AcDbGroup
300

 70
     1
 71
     1
  0
GROUP
  5
92A6
102
{ACAD_REACTORS
330
D
102
}
330
D
100
AcDbGroup
300

 70
     1
 71
     1
  0
GROUP
  5
2BC00
102
{ACAD_REACTORS
330
D
102
}
330
D
100
AcDbGroup
300

 70
     1
 71
     1
  0
GROUP
  5
8BB5
102
{ACAD_REACTORS
330
D
102
}
330
D
100
AcDbGroup
300

 70
     1
 71
     1
  0
GROUP
  5
2ABAD
102
{ACAD_REACTORS
330
D
102
}
330
D
100
AcDbGroup
300

 70
     1
 71
     1
  0
GROUP
  5
2AA7A
102
{ACAD_REACTORS
330
D
102
}
330
D
100
AcDbGroup
300

 70
     1
 71
     1
  0
GROUP
  5
BF76
102
{ACAD_REACTORS
330
D
102
}
330
D
100
AcDbGroup
300

 70
     1
 71
     1
  0
GROUP
  5
2AD51
102
{ACAD_REACTORS
330
D
102
}
330
D
100
AcDbGroup
300

 70
     1
 71
     1
  0
GROUP
  5
A591
102
{ACAD_REACTORS
330
D
102
}
330
D
100
AcDbGroup
300

 70
     1
 71
     1
  0
GROUP
  5
117E
102
{ACAD_REACTORS
330
D
102
}
330
D
100
AcDbGroup
300

 70
     1
 71
     1
  0
GROUP
  5
2C169
102
{ACAD_REACTORS
330
D
102
}
330
D
100
AcDbGroup
300

 70
     1
 71
     1
340
2AA55
340
2AA56
340
2AA5B
340
2AA5C
340
2AA5D
340
2AA5F
340
2AA61
340
2AA62
340
2AA6B
340
2AA6C
340
2AA6D
340
2AA6E
340
2AA54
340
2AA58
340
2AA59
340
2AA63
340
2AA5E
340
2AA60
  0
GROUP
  5
93C3
102
{ACAD_REACTORS
330
D
102
}
330
D
100
AcDbGroup
300

 70
     1
 71
     1
  0
GROUP
  5
2BBF9
102
{ACAD_REACTORS
330
D
102
}
330
D
100
AcDbGroup
300

 70
     1
 71
     1
  0
GROUP
  5
2BC0B
102
{ACAD_REACTORS
330
D
102
}
330
D
100
AcDbGroup
300

 70
     1
 71
     1
  0
GROUP
  5
6E9B
102
{ACAD_REACTORS
330
D
102
}
330
D
100
AcDbGroup
300

 70
     1
 71
     1
  0
GROUP
  5
2C6E2
102
{ACAD_REACTORS
330
D
102
}
330
D
100
AcDbGroup
300

 70
     1
 71
     1
340
2BC7E
340
2A949
340
2A948
340
2A947
340
2A946
340
2AA17
340
2AA15
340
2AA14
340
2AA11
340
2AA10
340
2BD28
340
2BD27
340
2BD30
340
2BD2F
340
2AA12
340
2AA13
340
2AA34
340
2BD38
340
2BD37
340
2AA0C
340
2AA0B
340
2AA0E
340
2AA33
340
2AA32
340
2AA31
340
2BD40
340
2BD3F
340
2A94A
340
2BD17
340
2BD18
340
2A9EB
340
2A9EA
340
2A9ED
340
2A9EC
340
2A9E9
340
2BD10
340
2BD0F
340
2A9DF
340
2A9DE
340
2A9C2
340
2A9C7
340
2A9C6
340
2BD00
340
2A9C4
340
2BCFF
340
2A9A3
340
2BD08
340
2BD07
340
2A9A4
340
2BCF8
340
2A9BB
340
2A9BA
340
2BCF7
340
2BCEF
340
2BCF0
340
2A98A
340
2A987
340
2A986
340
2A95A
340
2A988
340
2A985
340
2A984
340
2A983
340
2A961
340
2A960
340
2BCE8
340
2BCE7
340
2BCE0
340
2BCDF
340
2A95F
340
2A981
340
2A970
340
2A96F
340
2A969
340
2BCA6
340
2A96E
340
2A96C
340
2A96D
340
2A968
340
2A96A
340
2A967
340
2BCD7
340
2A952
340
2A9FB
340
2AA03
340
2AA40
  0
GROUP
  5
2AA70
102
{ACAD_REACTORS
330
D
102
}
330
D
100
AcDbGroup
300

 70
     1
 71
     1
  0
GROUP
  5
C88F
102
{ACAD_REACTORS
330
D
102
}
330
D
100
AcDbGroup
300

 70
     1
 71
     1
  0
GROUP
  5
2AA79
102
{ACAD_REACTORS
330
D
102
}
330
D
100
AcDbGroup
300

 70
     1
 71
     1
  0
GROUP
  5
295E0
102
{ACAD_REACTORS
330
D
102
}
330
D
100
AcDbGroup
300

 70
     1
 71
     1
  0
GROUP
  5
15E1
102
{ACAD_REACTORS
330
D
102
}
330
D
100
AcDbGroup
300

 70
     1
 71
     1
  0
GROUP
  5
B94B
102
{ACAD_REACTORS
330
D
102
}
330
D
100
AcDbGroup
300

 70
     1
 71
     1
  0
GROUP
  5
8CD0
102
{ACAD_REACTORS
330
D
102
}
330
D
100
AcDbGroup
300

 70
     1
 71
     1
  0
GROUP
  5
BEE2
102
{ACAD_REACTORS
330
D
102
}
330
D
100
AcDbGroup
300

 70
     1
 71
     1
  0
GROUP
  5
2A890
102
{ACAD_REACTORS
330
D
102
}
330
D
100
AcDbGroup
300

 70
     1
 71
     1
  0
GROUP
  5
2BBFF
102
{ACAD_REACTORS
330
D
102
}
330
D
100
AcDbGroup
300

 70
     1
 71
     1
  0
GROUP
  5
1A46C
102
{ACAD_REACTORS
330
D
102
}
330
D
100
AcDbGroup
300

 70
     1
 71
     1
  0
GROUP
  5
2A894
102
{ACAD_REACTORS
330
D
102
}
330
D
100
AcDbGroup
300

 70
     1
 71
     1
  0
GROUP
  5
27110
102
{ACAD_REACTORS
330
D
102
}
330
D
100
AcDbGroup
300

 70
     1
 71
     1
  0
GROUP
  5
1C73
102
{ACAD_REACTORS
330
D
102
}
330
D
100
AcDbGroup
300

 70
     1
 71
     1
  0
GROUP
  5
2AD47
102
{ACAD_REACTORS
330
D
102
}
330
D
100
AcDbGroup
300

 70
     1
 71
     1
  0
GROUP
  5
D69A
102
{ACAD_REACTORS
330
D
102
}
330
D
100
AcDbGroup
300

 70
     1
 71
     1
  0
GROUP
  5
1153
102
{ACAD_REACTORS
330
D
102
}
330
D
100
AcDbGroup
300

 70
     1
 71
     1
  0
GROUP
  5
2A3AA
102
{ACAD_REACTORS
330
D
102
}
330
D
100
AcDbGroup
300

 70
     1
 71
     1
  0
GROUP
  5
1A89
102
{ACAD_REACTORS
330
D
102
}
330
D
100
AcDbGroup
300

 70
     1
 71
     1
  0
GROUP
  5
2538E
102
{ACAD_REACTORS
330
D
102
}
330
D
100
AcDbGroup
300

 70
     1
 71
     1
  0
GROUP
  5
117F
102
{ACAD_REACTORS
330
D
102
}
330
D
100
AcDbGroup
300

 70
     1
 71
     1
  0
GROUP
  5
26FE7
102
{ACAD_REACTORS
330
D
102
}
330
D
100
AcDbGroup
300

 70
     1
 71
     1
  0
GROUP
  5
9933
102
{ACAD_REACTORS
330
D
102
}
330
D
100
AcDbGroup
300

 70
     1
 71
     1
  0
GROUP
  5
A91C
102
{ACAD_REACTORS
330
D
102
}
330
D
100
AcDbGroup
300

 70
     1
 71
     1
  0
GROUP
  5
2AD46
102
{ACAD_REACTORS
330
D
102
}
330
D
100
AcDbGroup
300

 70
     1
 71
     1
  0
GROUP
  5
2BC10
102
{ACAD_REACTORS
330
D
102
}
330
D
100
AcDbGroup
300

 70
     1
 71
     1
  0
GROUP
  5
2A3BD
102
{ACAD_REACTORS
330
D
102
}
330
D
100
AcDbGroup
300

 70
     1
 71
     1
  0
GROUP
  5
27116
102
{ACAD_REACTORS
330
D
102
}
330
D
100
AcDbGroup
300

 70
     1
 71
     1
  0
GROUP
  5
C7BB
102
{ACAD_REACTORS
330
D
102
}
330
D
100
AcDbGroup
300

 70
     1
 71
     1
  0
GROUP
  5
2AD4F
102
{ACAD_REACTORS
330
D
102
}
330
D
100
AcDbGroup
300

 70
     1
 71
     1
  0
GROUP
  5
2BC0F
102
{ACAD_REACTORS
330
D
102
}
330
D
100
AcDbGroup
300

 70
     1
 71
     1
  0
GROUP
  5
CC19
102
{ACAD_REACTORS
330
D
102
}
330
D
100
AcDbGroup
300

 70
     1
 71
     1
  0
GROUP
  5
26F10
102
{ACAD_REACTORS
330
D
102
}
330
D
100
AcDbGroup
300

 70
     1
 71
     1
  0
GROUP
  5
2BBFE
102
{ACAD_REACTORS
330
D
102
}
330
D
100
AcDbGroup
300

 70
     1
 71
     1
  0
GROUP
  5
8306
102
{ACAD_REACTORS
330
D
102
}
330
D
100
AcDbGroup
300

 70
     1
 71
     1
  0
GROUP
  5
2A3B1
102
{ACAD_REACTORS
330
D
102
}
330
D
100
AcDbGroup
300

 70
     1
 71
     1
  0
GROUP
  5
92CB
102
{ACAD_REACTORS
330
D
102
}
330
D
100
AcDbGroup
300

 70
     1
 71
     1
  0
GROUP
  5
2A896
102
{ACAD_REACTORS
330
D
102
}
330
D
100
AcDbGroup
300

 70
     1
 71
     1
  0
GROUP
  5
12D2
102
{ACAD_REACTORS
330
D
102
}
330
D
100
AcDbGroup
300

 70
     1
 71
     1
  0
GROUP
  5
A329
102
{ACAD_REACTORS
330
D
102
}
330
D
100
AcDbGroup
300

 70
     1
 71
     1
  0
GROUP
  5
2A3B2
102
{ACAD_REACTORS
330
D
102
}
330
D
100
AcDbGroup
300

 70
     1
 71
     1
  0
GROUP
  5
A966
102
{ACAD_REACTORS
330
D
102
}
330
D
100
AcDbGroup
300

 70
     1
 71
     1
  0
GROUP
  5
2A899
102
{ACAD_REACTORS
330
D
102
}
330
D
100
AcDbGroup
300

 70
     1
 71
     1
  0
GROUP
  5
3101
102
{ACAD_REACTORS
330
D
102
}
330
D
100
AcDbGroup
300

 70
     1
 71
     1
  0
GROUP
  5
63BF
102
{ACAD_REACTORS
330
D
102
}
330
D
100
AcDbGroup
300

 70
     1
 71
     1
  0
GROUP
  5
248AD
102
{ACAD_REACTORS
330
D
102
}
330
D
100
AcDbGroup
300

 70
     1
 71
     1
  0
GROUP
  5
148A7
102
{ACAD_REACTORS
330
D
102
}
330
D
100
AcDbGroup
300

 70
     1
 71
     1
  0
GROUP
  5
9C4A
102
{ACAD_REACTORS
330
D
102
}
330
D
100
AcDbGroup
300

 70
     1
 71
     1
  0
GROUP
  5
2BC01
102
{ACAD_REACTORS
330
D
102
}
330
D
100
AcDbGroup
300

 70
     1
 71
     1
  0
GROUP
  5
2A88C
102
{ACAD_REACTORS
330
D
102
}
330
D
100
AcDbGroup
300

 70
     1
 71
     1
  0
GROUP
  5
A2F4
102
{ACAD_REACTORS
330
D
102
}
330
D
100
AcDbGroup
300

 70
     1
 71
     1
  0
GROUP
  5
2A88D
102
{ACAD_REACTORS
330
D
102
}
330
D
100
AcDbGroup
300

 70
     1
 71
     1
  0
GROUP
  5
36E8
102
{ACAD_REACTORS
330
D
102
}
330
D
100
AcDbGroup
300

 70
     1
 71
     1
  0
GROUP
  5
B1F2
102
{ACAD_REACTORS
330
D
102
}
330
D
100
AcDbGroup
300

 70
     1
 71
     1
  0
GROUP
  5
1A425
102
{ACAD_REACTORS
330
D
102
}
330
D
100
AcDbGroup
300

 70
     1
 71
     1
  0
GROUP
  5
A5B4
102
{ACAD_REACTORS
330
D
102
}
330
D
100
AcDbGroup
300

 70
     1
 71
     1
  0
GROUP
  5
6565
102
{ACAD_REACTORS
330
D
102
}
330
D
100
AcDbGroup
300

 70
     1
 71
     1
  0
GROUP
  5
45D7
102
{ACAD_REACTORS
330
D
102
}
330
D
100
AcDbGroup
300

 70
     1
 71
     1
  0
GROUP
  5
2BBF6
102
{ACAD_REACTORS
330
D
102
}
330
D
100
AcDbGroup
300

 70
     1
 71
     1
  0
GROUP
  5
6AB6
102
{ACAD_REACTORS
330
D
102
}
330
D
100
AcDbGroup
300

 70
     1
 71
     1
  0
GROUP
  5
251EB
102
{ACAD_REACTORS
330
D
102
}
330
D
100
AcDbGroup
300

 70
     1
 71
     1
  0
GROUP
  5
A4F3
102
{ACAD_REACTORS
330
D
102
}
330
D
100
AcDbGroup
300

 70
     1
 71
     1
  0
GROUP
  5
AF2A
102
{ACAD_REACTORS
330
D
102
}
330
D
100
AcDbGroup
300

 70
     1
 71
     1
  0
GROUP
  5
2A89E
102
{ACAD_REACTORS
330
D
102
}
330
D
100
AcDbGroup
300

 70
     1
 71
     1
  0
GROUP
  5
2A8A2
102
{ACAD_REACTORS
330
D
102
}
330
D
100
AcDbGroup
300

 70
     1
 71
     1
  0
GROUP
  5
C1E4
102
{ACAD_REACTORS
330
D
102
}
330
D
100
AcDbGroup
300

 70
     1
 71
     1
  0
GROUP
  5
2A89C
102
{ACAD_REACTORS
330
D
102
}
330
D
100
AcDbGroup
300

 70
     1
 71
     1
  0
GROUP
  5
27271
102
{ACAD_REACTORS
330
D
102
}
330
D
100
AcDbGroup
300

 70
     1
 71
     1
  0
GROUP
  5
2C6E1
102
{ACAD_REACTORS
330
D
102
}
330
D
100
AcDbGroup
300

 70
     1
 71
     1
340
2AA02
340
2AA01
340
2AA48
340
2AA4D
340
2AA47
340
2AA4F
340
2AA4E
340
2BC67
340
2BC66
340
2AA3E
340
2AA3D
340
2AA3A
340
2AA39
340
2AA4A
340
2AA49
340
2AA46
340
2AA4C
340
2AA4B
340
2AA53
340
2AA3C
340
2AA3B
340
2AA3F
340
2AA5A
340
2AA52
340
2AA57
340
2AA38
340
2AA51
340
2AA50
340
2AA56
340
2AA55
340
2AA54
340
2AA59
340
2AA58
340
2AA63
340
2AA60
340
2AA5E
340
2AA5B
340
2AA5C
340
2AA5D
340
2AA5F
340
2AA61
340
2AA62
340
2AA6B
340
2AA6C
340
2AA6D
340
2AA6E
340
2AA67
340
2AA64
340
2AA6A
340
2AA65
340
2AA69
340
2AA68
340
2AA66
  0
GROUP
  5
80D7
102
{ACAD_REACTORS
330
D
102
}
330
D
100
AcDbGroup
300

 70
     1
 71
     1
  0
GROUP
  5
9131
102
{ACAD_REACTORS
330
D
102
}
330
D
100
AcDbGroup
300

 70
     1
 71
     1
  0
GROUP
  5
2A3AE
102
{ACAD_REACTORS
330
D
102
}
330
D
100
AcDbGroup
300

 70
     1
 71
     1
  0
GROUP
  5
6961
102
{ACAD_REACTORS
330
D
102
}
330
D
100
AcDbGroup
300

 70
     1
 71
     1
  0
GROUP
  5
2BBFA
102
{ACAD_REACTORS
330
D
102
}
330
D
100
AcDbGroup
300

 70
     1
 71
     1
  0
GROUP
  5
80FD
102
{ACAD_REACTORS
330
D
102
}
330
D
100
AcDbGroup
300

 70
     1
 71
     1
  0
GROUP
  5
254DD
102
{ACAD_REACTORS
330
D
102
}
330
D
100
AcDbGroup
300

 70
     1
 71
     1
  0
GROUP
  5
BA56
102
{ACAD_REACTORS
330
D
102
}
330
D
100
AcDbGroup
300

 70
     1
 71
     1
  0
GROUP
  5
2BC11
102
{ACAD_REACTORS
330
D
102
}
330
D
100
AcDbGroup
300

 70
     1
 71
     1
  0
GROUP
  5
19E9
102
{ACAD_REACTORS
330
D
102
}
330
D
100
AcDbGroup
300

 70
     1
 71
     1
  0
GROUP
  5
29739
102
{ACAD_REACTORS
330
D
102
}
330
D
100
AcDbGroup
300

 70
     1
 71
     1
  0
GROUP
  5
2ABA5
102
{ACAD_REACTORS
330
D
102
}
330
D
100
AcDbGroup
300

 70
     1
 71
     1
  0
GROUP
  5
2AA72
102
{ACAD_REACTORS
330
D
102
}
330
D
100
AcDbGroup
300

 70
     1
 71
     1
  0
GROUP
  5
6FF5
102
{ACAD_REACTORS
330
D
102
}
330
D
100
AcDbGroup
300

 70
     1
 71
     1
  0
GROUP
  5
18F3
102
{ACAD_REACTORS
330
D
102
}
330
D
100
AcDbGroup
300

 70
     1
 71
     1
  0
GROUP
  5
2A3BB
102
{ACAD_REACTORS
330
D
102
}
330
D
100
AcDbGroup
300

 70
     1
 71
     1
  0
GROUP
  5
7074
102
{ACAD_REACTORS
330
D
102
}
330
D
100
AcDbGroup
300

 70
     1
 71
     1
  0
GROUP
  5
D724
102
{ACAD_REACTORS
330
D
102
}
330
D
100
AcDbGroup
300

 70
     1
 71
     1
  0
GROUP
  5
A56C
102
{ACAD_REACTORS
330
D
102
}
330
D
100
AcDbGroup
300

 70
     1
 71
     1
  0
GROUP
  5
6FC8
102
{ACAD_REACTORS
330
D
102
}
330
D
100
AcDbGroup
300

 70
     1
 71
     1
  0
GROUP
  5
2ABAE
102
{ACAD_REACTORS
330
D
102
}
330
D
100
AcDbGroup
300

 70
     1
 71
     1
  0
GROUP
  5
2E19
102
{ACAD_REACTORS
330
D
102
}
330
D
100
AcDbGroup
300

 70
     1
 71
     1
  0
GROUP
  5
9B46
102
{ACAD_REACTORS
330
D
102
}
330
D
100
AcDbGroup
300

 70
     1
 71
     1
  0
GROUP
  5
BA57
102
{ACAD_REACTORS
330
D
102
}
330
D
100
AcDbGroup
300

 70
     1
 71
     1
  0
GROUP
  5
2BC04
102
{ACAD_REACTORS
330
D
102
}
330
D
100
AcDbGroup
300

 70
     1
 71
     1
  0
GROUP
  5
CB94
102
{ACAD_REACTORS
330
D
102
}
330
D
100
AcDbGroup
300

 70
     1
 71
     1
  0
GROUP
  5
B973
102
{ACAD_REACTORS
330
D
102
}
330
D
100
AcDbGroup
300

 70
     1
 71
     1
  0
GROUP
  5
2ABB1
102
{ACAD_REACTORS
330
D
102
}
330
D
100
AcDbGroup
300

 70
     1
 71
     1
  0
GROUP
  5
128B
102
{ACAD_REACTORS
330
D
102
}
330
D
100
AcDbGroup
300

 70
     1
 71
     1
  0
GROUP
  5
D820
102
{ACAD_REACTORS
330
D
102
}
330
D
100
AcDbGroup
300

 70
     1
 71
     1
  0
GROUP
  5
10EBD
102
{ACAD_REACTORS
330
D
102
}
330
D
100
AcDbGroup
300

 70
     1
 71
     1
  0
GROUP
  5
4502
102
{ACAD_REACTORS
330
D
102
}
330
D
100
AcDbGroup
300

 70
     1
 71
     1
  0
GROUP
  5
2404B
102
{ACAD_REACTORS
330
D
102
}
330
D
100
AcDbGroup
300

 70
     1
 71
     1
  0
GROUP
  5
2BC02
102
{ACAD_REACTORS
330
D
102
}
330
D
100
AcDbGroup
300

 70
     1
 71
     1
  0
GROUP
  5
3DBF
102
{ACAD_REACTORS
330
D
102
}
330
D
100
AcDbGroup
300

 70
     1
 71
     1
  0
GROUP
  5
CB80
102
{ACAD_REACTORS
330
D
102
}
330
D
100
AcDbGroup
300

 70
     1
 71
     1
  0
GROUP
  5
8123
102
{ACAD_REACTORS
330
D
102
}
330
D
100
AcDbGroup
300

 70
     1
 71
     1
  0
GROUP
  5
AAAE
102
{ACAD_REACTORS
330
D
102
}
330
D
100
AcDbGroup
300

 70
     1
 71
     1
  0
GROUP
  5
830B
102
{ACAD_REACTORS
330
D
102
}
330
D
100
AcDbGroup
300

 70
     1
 71
     1
  0
GROUP
  5
C410
102
{ACAD_REACTORS
330
D
102
}
330
D
100
AcDbGroup
300

 70
     1
 71
     1
  0
GROUP
  5
63E1
102
{ACAD_REACTORS
330
D
102
}
330
D
100
AcDbGroup
300

 70
     1
 71
     1
  0
GROUP
  5
1C33
102
{ACAD_REACTORS
330
D
102
}
330
D
100
AcDbGroup
300

 70
     1
 71
     1
  0
GROUP
  5
920C
102
{ACAD_REACTORS
330
D
102
}
330
D
100
AcDbGroup
300

 70
     1
 71
     1
  0
GROUP
  5
9B47
102
{ACAD_REACTORS
330
D
102
}
330
D
100
AcDbGroup
300

 70
     1
 71
     1
  0
GROUP
  5
7FF8
102
{ACAD_REACTORS
330
D
102
}
330
D
100
AcDbGroup
300

 70
     1
 71
     1
  0
GROUP
  5
297E9
102
{ACAD_REACTORS
330
D
102
}
330
D
100
AcDbGroup
300

 70
     1
 71
     1
  0
GROUP
  5
80FC
102
{ACAD_REACTORS
330
D
102
}
330
D
100
AcDbGroup
300

 70
     1
 71
     1
  0
GROUP
  5
AA9E
102
{ACAD_REACTORS
330
D
102
}
330
D
100
AcDbGroup
300

 70
     1
 71
     1
  0
GROUP
  5
AAB1
102
{ACAD_REACTORS
330
D
102
}
330
D
100
AcDbGroup
300

 70
     1
 71
     1
  0
GROUP
  5
1A5A
102
{ACAD_REACTORS
330
D
102
}
330
D
100
AcDbGroup
300

 70
     1
 71
     1
  0
GROUP
  5
D6FC
102
{ACAD_REACTORS
330
D
102
}
330
D
100
AcDbGroup
300

 70
     1
 71
     1
  0
GROUP
  5
1A689
102
{ACAD_REACTORS
330
D
102
}
330
D
100
AcDbGroup
300

 70
     1
 71
     1
  0
GROUP
  5
254B7
102
{ACAD_REACTORS
330
D
102
}
330
D
100
AcDbGroup
300

 70
     1
 71
     1
  0
GROUP
  5
190B
102
{ACAD_REACTORS
330
D
102
}
330
D
100
AcDbGroup
300

 70
     1
 71
     1
  0
GROUP
  5
9936
102
{ACAD_REACTORS
330
D
102
}
330
D
100
AcDbGroup
300

 70
     1
 71
     1
  0
GROUP
  5
99B0
102
{ACAD_REACTORS
330
D
102
}
330
D
100
AcDbGroup
300

 70
     1
 71
     1
  0
GROUP
  5
2BBF7
102
{ACAD_REACTORS
330
D
102
}
330
D
100
AcDbGroup
300

 70
     1
 71
     1
  0
GROUP
  5
29738
102
{ACAD_REACTORS
330
D
102
}
330
D
100
AcDbGroup
300

 70
     1
 71
     1
  0
GROUP
  5
919F
102
{ACAD_REACTORS
330
D
102
}
330
D
100
AcDbGroup
300

 70
     1
 71
     1
  0
GROUP
  5
1A12A
102
{ACAD_REACTORS
330
D
102
}
330
D
100
AcDbGroup
300

 70
     1
 71
     1
  0
GROUP
  5
2ABB0
102
{ACAD_REACTORS
330
D
102
}
330
D
100
AcDbGroup
300

 70
     1
 71
     1
  0
GROUP
  5
BF05
102
{ACAD_REACTORS
330
D
102
}
330
D
100
AcDbGroup
300

 70
     1
 71
     1
  0
GROUP
  5
2710F
102
{ACAD_REACTORS
330
D
102
}
330
D
100
AcDbGroup
300

 70
     1
 71
     1
  0
GROUP
  5
16DA
102
{ACAD_REACTORS
330
D
102
}
330
D
100
AcDbGroup
300

 70
     1
 71
     1
  0
GROUP
  5
DCA
102
{ACAD_REACTORS
330
D
102
}
330
D
100
AcDbGroup
300

 70
     1
 71
     1
  0
GROUP
  5
1A7B8
102
{ACAD_REACTORS
330
D
102
}
330
D
100
AcDbGroup
300

 70
     1
 71
     1
  0
GROUP
  5
D74A
102
{ACAD_REACTORS
330
D
102
}
330
D
100
AcDbGroup
300

 70
     1
 71
     1
  0
GROUP
  5
CA67
102
{ACAD_REACTORS
330
D
102
}
330
D
100
AcDbGroup
300

 70
     1
 71
     1
  0
GROUP
  5
24930
102
{ACAD_REACTORS
330
D
102
}
330
D
100
AcDbGroup
300

 70
     1
 71
     1
  0
GROUP
  5
8BED
102
{ACAD_REACTORS
330
D
102
}
330
D
100
AcDbGroup
300

 70
     1
 71
     1
  0
GROUP
  5
2A3AC
102
{ACAD_REACTORS
330
D
102
}
330
D
100
AcDbGroup
300

 70
     1
 71
     1
  0
GROUP
  5
B948
102
{ACAD_REACTORS
330
D
102
}
330
D
100
AcDbGroup
300

 70
     1
 71
     1
  0
GROUP
  5
45DB
102
{ACAD_REACTORS
330
D
102
}
330
D
100
AcDbGroup
300

 70
     1
 71
     1
  0
GROUP
  5
3443
102
{ACAD_REACTORS
330
D
102
}
330
D
100
AcDbGroup
300

 70
     1
 71
     1
  0
GROUP
  5
99AF
102
{ACAD_REACTORS
330
D
102
}
330
D
100
AcDbGroup
300

 70
     1
 71
     1
  0
GROUP
  5
2AD48
102
{ACAD_REACTORS
330
D
102
}
330
D
100
AcDbGroup
300

 70
     1
 71
     1
  0
GROUP
  5
2787F
102
{ACAD_REACTORS
330
D
102
}
330
D
100
AcDbGroup
300

 70
     1
 71
     1
  0
GROUP
  5
24CEA
102
{ACAD_REACTORS
330
D
102
}
330
D
100
AcDbGroup
300

 70
     1
 71
     1
  0
GROUP
  5
34DC
102
{ACAD_REACTORS
330
D
102
}
330
D
100
AcDbGroup
300

 70
     1
 71
     1
  0
GROUP
  5
2B689
102
{ACAD_REACTORS
330
D
102
}
330
D
100
AcDbGroup
300

 70
     1
 71
     1
  0
GROUP
  5
2496C
102
{ACAD_REACTORS
330
D
102
}
330
D
100
AcDbGroup
300

 70
     1
 71
     1
  0
GROUP
  5
1207
102
{ACAD_REACTORS
330
D
102
}
330
D
100
AcDbGroup
300

 70
     1
 71
     1
  0
GROUP
  5
920E
102
{ACAD_REACTORS
330
D
102
}
330
D
100
AcDbGroup
300

 70
     1
 71
     1
  0
GROUP
  5
297E8
102
{ACAD_REACTORS
330
D
102
}
330
D
100
AcDbGroup
300

 70
     1
 71
     1
  0
GROUP
  5
2AD52
102
{ACAD_REACTORS
330
D
102
}
330
D
100
AcDbGroup
300

 70
     1
 71
     1
  0
GROUP
  5
939C
102
{ACAD_REACTORS
330
D
102
}
330
D
100
AcDbGroup
300

 70
     1
 71
     1
  0
GROUP
  5
287E6
102
{ACAD_REACTORS
330
D
102
}
330
D
100
AcDbGroup
300

 70
     1
 71
     1
  0
GROUP
  5
24D71
102
{ACAD_REACTORS
330
D
102
}
330
D
100
AcDbGroup
300

 70
     1
 71
     1
  0
GROUP
  5
920F
102
{ACAD_REACTORS
330
D
102
}
330
D
100
AcDbGroup
300

 70
     1
 71
     1
  0
GROUP
  5
6E9D
102
{ACAD_REACTORS
330
D
102
}
330
D
100
AcDbGroup
300

 70
     1
 71
     1
  0
GROUP
  5
2CEAB
102
{ACAD_REACTORS
330
D
102
}
330
D
100
AcDbGroup
300

 70
     1
 71
     1
  0
GROUP
  5
2BBFD
102
{ACAD_REACTORS
330
D
102
}
330
D
100
AcDbGroup
300

 70
     1
 71
     1
  0
GROUP
  5
2BC09
102
{ACAD_REACTORS
330
D
102
}
330
D
100
AcDbGroup
300

 70
     1
 71
     1
  0
GROUP
  5
1C7E3
102
{ACAD_REACTORS
330
D
102
}
330
D
100
AcDbGroup
300

 70
     1
 71
     1
  0
GROUP
  5
9935
102
{ACAD_REACTORS
330
D
102
}
330
D
100
AcDbGroup
300

 70
     1
 71
     1
  0
GROUP
  5
2CEAC
102
{ACAD_REACTORS
330
D
102
}
330
D
100
AcDbGroup
300

 70
     1
 71
     1
  0
GROUP
  5
2A3B3
102
{ACAD_REACTORS
330
D
102
}
330
D
100
AcDbGroup
300

 70
     1
 71
     1
  0
GROUP
  5
2CEB0
102
{ACAD_REACTORS
330
D
102
}
330
D
100
AcDbGroup
300

 70
     1
 71
     1
  0
GROUP
  5
2CEE0
102
{ACAD_REACTORS
330
D
102
}
330
D
100
AcDbGroup
300

 70
     1
 71
     1
  0
GROUP
  5
D4D4
102
{ACAD_REACTORS
330
D
102
}
330
D
100
AcDbGroup
300

 70
     1
 71
     1
  0
GROUP
  5
26CA0
102
{ACAD_REACTORS
330
D
102
}
330
D
100
AcDbGroup
300

 70
     1
 71
     1
  0
GROUP
  5
2AA71
102
{ACAD_REACTORS
330
D
102
}
330
D
100
AcDbGroup
300

 70
     1
 71
     1
  0
GROUP
  5
248DA
102
{ACAD_REACTORS
330
D
102
}
330
D
100
AcDbGroup
300

 70
     1
 71
     1
  0
GROUP
  5
9282
102
{ACAD_REACTORS
330
D
102
}
330
D
100
AcDbGroup
300

 70
     1
 71
     1
  0
GROUP
  5
2CF16
102
{ACAD_REACTORS
330
D
102
}
330
D
100
AcDbGroup
300

 70
     1
 71
     1
  0
GROUP
  5
A4F4
102
{ACAD_REACTORS
330
D
102
}
330
D
100
AcDbGroup
300

 70
     1
 71
     1
  0
GROUP
  5
2CF17
102
{ACAD_REACTORS
330
D
102
}
330
D
100
AcDbGroup
300

 70
     1
 71
     1
  0
GROUP
  5
2CF76
102
{ACAD_REACTORS
330
D
102
}
330
D
100
AcDbGroup
300

 70
     1
 71
     1
340
2CF56
340
2CF51
  0
GROUP
  5
A332
102
{ACAD_REACTORS
330
D
102
}
330
D
100
AcDbGroup
300

 70
     1
 71
     1
  0
GROUP
  5
2CF78
102
{ACAD_REACTORS
330
D
102
}
330
D
100
AcDbGroup
300

 70
     1
 71
     1
340
2CF72
340
2CF4E
340
2CF70
340
2CF71
340
2CF50
340
2CF4D
340
2CF67
340
2CF66
340
2CF65
  0
GROUP
  5
2CF7F
102
{ACAD_REACTORS
330
D
102
}
330
D
100
AcDbGroup
300

 70
     1
 71
     1
340
2CF77
340
2CF18
340
2CF19
340
2CF7A
340
2CF79
340
2CF1C
340
2CF7B
340
2CF7C
340
2CF7E
340
2CF7D
340
2CF1A
340
2CF1B
340
2CF1D
  0
GROUP
  5
8124
102
{ACAD_REACTORS
330
D
102
}
330
D
100
AcDbGroup
300

 70
     1
 71
     1
  0
GROUP
  5
92A7
102
{ACAD_REACTORS
330
D
102
}
330
D
100
AcDbGroup
300

 70
     1
 71
     1
  0
GROUP
  5
6FA2
102
{ACAD_REACTORS
330
D
102
}
330
D
100
AcDbGroup
300

 70
     1
 71
     1
  0
GROUP
  5
27112
102
{ACAD_REACTORS
330
D
102
}
330
D
100
AcDbGroup
300

 70
     1
 71
     1
  0
GROUP
  5
27255
102
{ACAD_REACTORS
330
D
102
}
330
D
100
AcDbGroup
300

 70
     1
 71
     1
  0
GROUP
  5
2A893
102
{ACAD_REACTORS
330
D
102
}
330
D
100
AcDbGroup
300

 70
     1
 71
     1
  0
GROUP
  5
639B
102
{ACAD_REACTORS
330
D
102
}
330
D
100
AcDbGroup
300

 70
     1
 71
     1
  0
GROUP
  5
2CF80
102
{ACAD_REACTORS
330
D
102
}
330
D
100
AcDbGroup
300

 70
     1
 71
     1
340
2CF56
340
2CF51
340
2CF72
340
2CF4E
340
2CF70
340
2CF71
340
2CF50
340
2CF4D
340
2CF67
340
2CF66
340
2CF65
  0
GROUP
  5
2C918
102
{ACAD_REACTORS
330
D
102
}
330
D
100
AcDbGroup
300

 70
     1
 71
     1
  0
GROUP
  5
2ABA6
102
{ACAD_REACTORS
330
D
102
}
330
D
100
AcDbGroup
300

 70
     1
 71
     1
  0
GROUP
  5
A919
102
{ACAD_REACTORS
330
D
102
}
330
D
100
AcDbGroup
300

 70
     1
 71
     1
  0
GROUP
  5
7FF2
102
{ACAD_REACTORS
330
D
102
}
330
D
100
AcDbGroup
300

 70
     1
 71
     1
  0
GROUP
  5
91C4
102
{ACAD_REACTORS
330
D
102
}
330
D
100
AcDbGroup
300

 70
     1
 71
     1
  0
GROUP
  5
2880B
102
{ACAD_REACTORS
330
D
102
}
330
D
100
AcDbGroup
300

 70
     1
 71
     1
  0
GROUP
  5
662F
102
{ACAD_REACTORS
330
D
102
}
330
D
100
AcDbGroup
300

 70
     1
 71
     1
  0
GROUP
  5
2494E
102
{ACAD_REACTORS
330
D
102
}
330
D
100
AcDbGroup
300

 70
     1
 71
     1
  0
GROUP
  5
27113
102
{ACAD_REACTORS
330
D
102
}
330
D
100
AcDbGroup
300

 70
     1
 71
     1
  0
GROUP
  5
C5AE
102
{ACAD_REACTORS
330
D
102
}
330
D
100
AcDbGroup
300

 70
     1
 71
     1
  0
GROUP
  5
2A3B0
102
{ACAD_REACTORS
330
D
102
}
330
D
100
AcDbGroup
300

 70
     1
 71
     1
  0
GROUP
  5
2B14B
102
{ACAD_REACTORS
330
D
102
}
330
D
100
AcDbGroup
300

 70
     1
 71
     1
  0
GROUP
  5
295E1
102
{ACAD_REACTORS
330
D
102
}
330
D
100
AcDbGroup
300

 70
     1
 71
     1
  0
GROUP
  5
1D706
102
{ACAD_REACTORS
330
D
102
}
330
D
100
AcDbGroup
300

 70
     1
 71
     1
  0
GROUP
  5
24921
102
{ACAD_REACTORS
330
D
102
}
330
D
100
AcDbGroup
300

 70
     1
 71
     1
  0
GROUP
  5
91A0
102
{ACAD_REACTORS
330
D
102
}
330
D
100
AcDbGroup
300

 70
     1
 71
     1
  0
GROUP
  5
2B68E
102
{ACAD_REACTORS
330
D
102
}
330
D
100
AcDbGroup
300

 70
     1
 71
     1
  0
GROUP
  5
2ABA7
102
{ACAD_REACTORS
330
D
102
}
330
D
100
AcDbGroup
300

 70
     1
 71
     1
  0
GROUP
  5
2C6E0
102
{ACAD_REACTORS
330
D
102
}
330
D
100
AcDbGroup
300

 70
     1
 71
     1
340
2C380
340
2C36E
340
2C369
340
2C3A8
340
2C39B
340
2C39A
340
2C377
340
2C378
340
2C3B6
340
2C38C
340
2C38B
340
2C38A
340
2C389
340
2C384
340
2C383
340
2C382
340
2C37F
340
2C37D
340
2C37C
340
2C37B
340
2C379
340
2C37A
340
2C3A4
340
2C3AD
340
2C3AA
340
2C39F
340
2C398
340
2C391
340
2C390
340
2C35E
340
2C3B1
340
2C3B0
340
2C3A6
340
2C3A3
340
2C3A2
340
2C3A1
340
2C3A0
340
2C39E
340
2C39D
340
2C39C
340
2C399
340
2C396
340
2C395
340
2C394
340
2C35D
340
2C3B2
340
2C3AF
340
2C3AE
340
2C3AC
340
2C3AB
340
2C3A9
340
2C3A7
340
2C3A5
340
2C397
340
2C393
340
2C392
340
2C35C
340
2C35B
  0
GROUP
  5
2BBF8
102
{ACAD_REACTORS
330
D
102
}
330
D
100
AcDbGroup
300

 70
     1
 71
     1
  0
GROUP
  5
6FB1
102
{ACAD_REACTORS
330
D
102
}
330
D
100
AcDbGroup
300

 70
     1
 71
     1
  0
GROUP
  5
19794
102
{ACAD_REACTORS
330
D
102
}
330
D
100
AcDbGroup
300

 70
     1
 71
     1
  0
GROUP
  5
8166
102
{ACAD_REACTORS
330
D
102
}
330
D
100
AcDbGroup
300

 70
     1
 71
     1
  0
GROUP
  5
AFF4
102
{ACAD_REACTORS
330
D
102
}
330
D
100
AcDbGroup
300

 70
     1
 71
     1
  0
GROUP
  5
2A3B5
102
{ACAD_REACTORS
330
D
102
}
330
D
100
AcDbGroup
300

 70
     1
 71
     1
  0
GROUP
  5
251EE
102
{ACAD_REACTORS
330
D
102
}
330
D
100
AcDbGroup
300

 70
     1
 71
     1
  0
GROUP
  5
2ABAA
102
{ACAD_REACTORS
330
D
102
}
330
D
100
AcDbGroup
300

 70
     1
 71
     1
  0
GROUP
  5
BF7B
102
{ACAD_REACTORS
330
D
102
}
330
D
100
AcDbGroup
300

 70
     1
 71
     1
  0
GROUP
  5
9C8F
102
{ACAD_REACTORS
330
D
102
}
330
D
100
AcDbGroup
300

 70
     1
 71
     1
  0
GROUP
  5
2BC14
102
{ACAD_REACTORS
330
D
102
}
330
D
100
AcDbGroup
300

 70
     1
 71
     1
  0
GROUP
  5
AA9F
102
{ACAD_REACTORS
330
D
102
}
330
D
100
AcDbGroup
300

 70
     1
 71
     1
  0
GROUP
  5
A4F0
102
{ACAD_REACTORS
330
D
102
}
330
D
100
AcDbGroup
300

 70
     1
 71
     1
  0
GROUP
  5
248CB
102
{ACAD_REACTORS
330
D
102
}
330
D
100
AcDbGroup
300

 70
     1
 71
     1
  0
GROUP
  5
2A3B4
102
{ACAD_REACTORS
330
D
102
}
330
D
100
AcDbGroup
300

 70
     1
 71
     1
  0
GROUP
  5
349E
102
{ACAD_REACTORS
330
D
102
}
330
D
100
AcDbGroup
300

 70
     1
 71
     1
  0
GROUP
  5
6960
102
{ACAD_REACTORS
330
D
102
}
330
D
100
AcDbGroup
300

 70
     1
 71
     1
  0
GROUP
  5
6DFB
102
{ACAD_REACTORS
330
D
102
}
330
D
100
AcDbGroup
300

 70
     1
 71
     1
  0
GROUP
  5
A962
102
{ACAD_REACTORS
330
D
102
}
330
D
100
AcDbGroup
300

 70
     1
 71
     1
  0
GROUP
  5
2A3B8
102
{ACAD_REACTORS
330
D
102
}
330
D
100
AcDbGroup
300

 70
     1
 71
     1
  0
GROUP
  5
3DA0
102
{ACAD_REACTORS
330
D
102
}
330
D
100
AcDbGroup
300

 70
     1
 71
     1
  0
GROUP
  5
2AD4C
102
{ACAD_REACTORS
330
D
102
}
330
D
100
AcDbGroup
300

 70
     1
 71
     1
  0
GROUP
  5
2BC03
102
{ACAD_REACTORS
330
D
102
}
330
D
100
AcDbGroup
300

 70
     1
 71
     1
  0
GROUP
  5
B947
102
{ACAD_REACTORS
330
D
102
}
330
D
100
AcDbGroup
300

 70
     1
 71
     1
  0
GROUP
  5
2BC08
102
{ACAD_REACTORS
330
D
102
}
330
D
100
AcDbGroup
300

 70
     1
 71
     1
  0
GROUP
  5
7FF4
102
{ACAD_REACTORS
330
D
102
}
330
D
100
AcDbGroup
300

 70
     1
 71
     1
  0
GROUP
  5
93C4
102
{ACAD_REACTORS
330
D
102
}
330
D
100
AcDbGroup
300

 70
     1
 71
     1
  0
GROUP
  5
2493F
102
{ACAD_REACTORS
330
D
102
}
330
D
100
AcDbGroup
300

 70
     1
 71
     1
  0
GROUP
  5
6C2B
102
{ACAD_REACTORS
330
D
102
}
330
D
100
AcDbGroup
300

 70
     1
 71
     1
  0
GROUP
  5
2495D
102
{ACAD_REACTORS
330
D
102
}
330
D
100
AcDbGroup
300

 70
     1
 71
     1
  0
GROUP
  5
8307
102
{ACAD_REACTORS
330
D
102
}
330
D
100
AcDbGroup
300

 70
     1
 71
     1
  0
GROUP
  5
12F1
102
{ACAD_REACTORS
330
D
102
}
330
D
100
AcDbGroup
300

 70
     1
 71
     1
  0
GROUP
  5
27994
102
{ACAD_REACTORS
330
D
102
}
330
D
100
AcDbGroup
300

 70
     1
 71
     1
  0
GROUP
  5
148A6
102
{ACAD_REACTORS
330
D
102
}
330
D
100
AcDbGroup
300

 70
     1
 71
     1
  0
GROUP
  5
37C8
102
{ACAD_REACTORS
330
D
102
}
330
D
100
AcDbGroup
300

 70
     1
 71
     1
  0
GROUP
  5
A2F5
102
{ACAD_REACTORS
330
D
102
}
330
D
100
AcDbGroup
300

 70
     1
 71
     1
  0
GROUP
  5
2A3BA
102
{ACAD_REACTORS
330
D
102
}
330
D
100
AcDbGroup
300

 70
     1
 71
     1
  0
GROUP
  5
1208
102
{ACAD_REACTORS
330
D
102
}
330
D
100
AcDbGroup
300

 70
     1
 71
     1
  0
GROUP
  5
AA60
102
{ACAD_REACTORS
330
D
102
}
330
D
100
AcDbGroup
300

 70
     1
 71
     1
  0
GROUP
  5
19D1
102
{ACAD_REACTORS
330
D
102
}
330
D
100
AcDbGroup
300

 70
     1
 71
     1
  0
GROUP
  5
A2EC
102
{ACAD_REACTORS
330
D
102
}
330
D
100
AcDbGroup
300

 70
     1
 71
     1
  0
GROUP
  5
CC1A
102
{ACAD_REACTORS
330
D
102
}
330
D
100
AcDbGroup
300

 70
     1
 71
     1
  0
GROUP
  5
2A3B7
102
{ACAD_REACTORS
330
D
102
}
330
D
100
AcDbGroup
300

 70
     1
 71
     1
  0
GROUP
  5
126C
102
{ACAD_REACTORS
330
D
102
}
330
D
100
AcDbGroup
300

 70
     1
 71
     1
  0
GROUP
  5
6F90
102
{ACAD_REACTORS
330
D
102
}
330
D
100
AcDbGroup
300

 70
     1
 71
     1
  0
GROUP
  5
24F0C
102
{ACAD_REACTORS
330
D
102
}
330
D
100
AcDbGroup
300

 70
     1
 71
     1
  0
GROUP
  5
12F2
102
{ACAD_REACTORS
330
D
102
}
330
D
100
AcDbGroup
300

 70
     1
 71
     1
  0
GROUP
  5
2B443
102
{ACAD_REACTORS
330
D
102
}
330
D
100
AcDbGroup
300

 70
     1
 71
     1
  0
GROUP
  5
B974
102
{ACAD_REACTORS
330
D
102
}
330
D
100
AcDbGroup
300

 70
     1
 71
     1
  0
GROUP
  5
6C2C
102
{ACAD_REACTORS
330
D
102
}
330
D
100
AcDbGroup
300

 70
     1
 71
     1
  0
LAYOUT
  5
2D44F
102
{ACAD_REACTORS
330
1A
102
}
330
1A
100
AcDbPlotSettings
  1

  2
iR C2550
  4

  6

 40
0.0
 41
0.0
 42
0.0
 43
0.0
 44
0.0
 45
0.0
 46
0.0
 47
0.0
 48
0.0
 49
0.0
140
0.0
141
0.0
142
1.0
143
1.0
 70
  1712
 72
     0
 73
     0
 74
     0
  7

 75
     0
147
1.0
148
0.0
149
0.0
100
AcDbLayout
  1
Model
 70
     1
 71
     0
 10
0.0
 20
0.0
 11
12.0
 21
9.0
 12
0.0
 22
0.0
 32
0.0
 14
0.0
 24
0.0
 34
0.0
 15
0.0
 25
0.0
 35
0.0
146
0.0
 13
0.0
 23
0.0
 33
0.0
 16
1.0
 26
0.0
 36
0.0
 17
0.0
 27
1.0
 37
0.0
 76
     0
330
1F
  0
LAYOUT
  5
2D450
102
{ACAD_REACTORS
330
1A
102
}
330
1A
100
AcDbPlotSettings
  1

  2
iR C2550
  4
A4
  6

 40
5.873749732971191
 41
5.873747825622558
 42
5.873748779296875
 43
5.873748779296875
 44
209.9733276367187
 45
296.9259948730469
 46
0.0
 47
0.0
 48
0.0
 49
0.0
140
0.0
141
0.0
142
1.0
143
37.29495359846579
 70
   688
 72
     0
 73
     1
 74
     1
  7

 75
     0
147
0.0268132791038286
148
-5.708959222159318
149
-28.98355365903592
100
AcDbLayout
  1
ﾚｲｱｳﾄ1
 70
     0
 71
     1
 10
-8.399694053179635
 20
-7.483372837839587
 11
427.5783059849532
 21
300.8215685451085
 12
0.0
 22
0.0
 32
0.0
 14
0.235904990914122
 24
1.142254894660993
 34
0.0
 15
414.6267499035753
 25
292.1954128483008
 35
0.0
146
0.0
 13
0.0
 23
0.0
 33
0.0
 16
1.0
 26
0.0
 36
0.0
 17
0.0
 27
1.0
 37
0.0
 76
     0
330
1B
331
2E
  0
MLINESTYLE
  5
18
102
{ACAD_REACTORS
330
17
102
}
330
17
100
AcDbMlineStyle
  2
STANDARD
 70
     0
  3

 62
   256
 51
90.0
 52
90.0
 71
     2
 49
0.5
 62
   256
  6
BYLAYER
 49
-0.5
 62
   256
  6
BYLAYER
  0
ACDBPLACEHOLDER
  5
F
102
{ACAD_REACTORS
330
E
102
}
330
E
  0
DICTIONARYVAR
  5
2CBE0
102
{ACAD_REACTORS
330
72CC
102
}
330
72CC
100
DictionaryVariables
280
     0
  1
1
  0
DICTIONARYVAR
  5
72CD
102
{ACAD_REACTORS
330
72CC
102
}
330
72CC
100
DictionaryVariables
280
     0
  1
96
  0
XRECORD
  5
2C17B
102
{ACAD_REACTORS
330
2C17A
102
}
330
2C17A
100
AcDbXrecord
280
     1
  1
0
  1
*0
  1
*
  1
*
 70
     0
  1
*
  1
*
  0
XRECORD
  5
2C17C
102
{ACAD_REACTORS
330
2C17A
102
}
330
2C17A
100
AcDbXrecord
280
     1
  1
11
  1
*11
  1
*
  1
*
 70
     0
  1
*
  1
*
  0
XRECORD
  5
2C17D
102
{ACAD_REACTORS
330
2C17A
102
}
330
2C17A
100
AcDbXrecord
280
     1
  1
150_
  1
150_*
  1
*
  1
*
 70
     0
  1
*
  1
*
  0
XRECORD
  5
2C17E
102
{ACAD_REACTORS
330
2C17A
102
}
330
2C17A
100
AcDbXrecord
280
     1
  1
160_
  1
160_*
  1
*
  1
*
 70
     0
  1
*
  1
*
  0
XRECORD
  5
2C17F
102
{ACAD_REACTORS
330
2C17A
102
}
330
2C17A
100
AcDbXrecord
280
     1
  1
170_
  1
170_*
  1
*
  1
*
 70
     0
  1
*
  1
*
  0
XRECORD
  5
2C180
102
{ACAD_REACTORS
330
2C17A
102
}
330
2C17A
100
AcDbXrecord
280
     1
  1
171_
  1
171_*
  1
*
  1
*
 70
     0
  1
*
  1
*
  0
XRECORD
  5
2C181
102
{ACAD_REACTORS
330
2C17A
102
}
330
2C17A
100
AcDbXrecord
280
     1
  1
350_
  1
350_*
  1
*
  1
*
 70
     0
  1
*
  1
*
  0
XRECORD
  5
2C182
102
{ACAD_REACTORS
330
2C17A
102
}
330
2C17A
100
AcDbXrecord
280
     1
  1
4
  1
*4
  1
*
  1
*
 70
     0
  1
*
  1
*
  0
XRECORD
  5
2C183
102
{ACAD_REACTORS
330
2C17A
102
}
330
2C17A
100
AcDbXrecord
280
     1
  1
5
  1
*5
  1
*
  1
*
 70
     0
  1
*
  1
*
  0
XRECORD
  5
2C184
102
{ACAD_REACTORS
330
2C17A
102
}
330
2C17A
100
AcDbXrecord
280
     1
  1
7
  1
*7
  1
*
  1
*
 70
     0
  1
*
  1
*
  0
XRECORD
  5
2C185
102
{ACAD_REACTORS
330
2C17A
102
}
330
2C17A
100
AcDbXrecord
280
     1
  1
kiseki
  1
kiseki*
  1
*
  1
*
 70
     0
  1
*
  1
*
  0
ENDSEC
  0
EOF
