  0
SECTION
  2
HEADER
  9
$ACADVER
  1
AC1014
  9
$ACADMAINTVER
 70
     9
  9
$DWGCODEPAGE
  3
ANSI_932
  9
$INSBASE
 10
0.0
 20
0.0
 30
0.0
  9
$EXTMIN
 10
120.3830429493851
 20
-1396.247506794479
 30
0.0
  9
$EXTMAX
 10
291.0100620656178
 20
-1337.505158290801
 30
0.0
  9
$LIMMIN
 10
0.0
 20
0.0
  9
$LIMMAX
 10
420.0
 20
297.0
  9
$ORTHOMODE
 70
     1
  9
$REGENMODE
 70
     1
  9
$FILLMODE
 70
     1
  9
$QTEXTMODE
 70
     0
  9
$MIRRTEXT
 70
     0
  9
$DRAGMODE
 70
     2
  9
$LTSCALE
 40
1.0
  9
$OSMODE
 70
   959
  9
$ATTMODE
 70
     2
  9
$TEXTSIZE
 40
10.0
  9
$TRACEWID
 40
1.0
  9
$TEXTSTYLE
  7
ｽﾀｲﾙ3
  9
$CLAYER
  8
細線
  9
$CELTYPE
  6
BYLAYER
  9
$CECOLOR
 62
   256
  9
$CELTSCALE
 40
1.0
  9
$DELOBJ
 70
     1
  9
$DISPSILH
 70
     0
  9
$DIMSCALE
 40
1.0
  9
$DIMASZ
 40
2.5
  9
$DIMEXO
 40
0.8
  9
$DIMDLI
 40
0.38
  9
$DIMRND
 40
0.0
  9
$DIMDLE
 40
0.0
  9
$DIMEXE
 40
0.18
  9
$DIMTP
 40
0.0
  9
$DIMTM
 40
0.0
  9
$DIMTXT
 40
3.0
  9
$DIMCEN
 40
0.0
  9
$DIMTSZ
 40
0.0
  9
$DIMTOL
 70
     0
  9
$DIMLIM
 70
     0
  9
$DIMTIH
 70
     0
  9
$DIMTOH
 70
     0
  9
$DIMSE1
 70
     0
  9
$DIMSE2
 70
     0
  9
$DIMTAD
 70
     3
  9
$DIMZIN
 70
     8
  9
$DIMBLK
  1
OPEN30
  9
$DIMASO
 70
     1
  9
$DIMSHO
 70
     1
  9
$DIMPOST
  1

  9
$DIMAPOST
  1

  9
$DIMALT
 70
     0
  9
$DIMALTD
 70
     2
  9
$DIMALTF
 40
25.4
  9
$DIMLFAC
 40
1.0
  9
$DIMTOFL
 70
     1
  9
$DIMTVP
 40
0.0
  9
$DIMTIX
 70
     0
  9
$DIMSOXD
 70
     0
  9
$DIMSAH
 70
     0
  9
$DIMBLK1
  1

  9
$DIMBLK2
  1

  9
$DIMSTYLE
  2
まこ
  9
$DIMCLRD
 70
     4
  9
$DIMCLRE
 70
     4
  9
$DIMCLRT
 70
   256
  9
$DIMTFAC
 40
0.7
  9
$DIMGAP
 40
0.5
  9
$DIMJUST
 70
     0
  9
$DIMSD1
 70
     0
  9
$DIMSD2
 70
     0
  9
$DIMTOLJ
 70
     1
  9
$DIMTZIN
 70
     8
  9
$DIMALTZ
 70
     0
  9
$DIMALTTZ
 70
     0
  9
$DIMFIT
 70
     3
  9
$DIMUPT
 70
     0
  9
$DIMUNIT
 70
     2
  9
$DIMDEC
 70
     8
  9
$DIMTDEC
 70
     8
  9
$DIMALTU
 70
     2
  9
$DIMALTTD
 70
     2
  9
$DIMTXSTY
  7
STANDARD
  9
$DIMAUNIT
 70
     0
  9
$LUNITS
 70
     2
  9
$LUPREC
 70
     4
  9
$SKETCHINC
 40
1.0
  9
$FILLETRAD
 40
0.0
  9
$AUNITS
 70
     0
  9
$AUPREC
 70
     0
  9
$MENU
  1
.
  9
$ELEVATION
 40
0.0
  9
$PELEVATION
 40
0.0
  9
$THICKNESS
 40
0.0
  9
$LIMCHECK
 70
     0
  9
$BLIPMODE
 70
     0
  9
$CHAMFERA
 40
0.5
  9
$CHAMFERB
 40
0.5
  9
$CHAMFERC
 40
20.0
  9
$CHAMFERD
 40
0.0
  9
$SKPOLY
 70
     0
  9
$TDCREATE
 40
2451224.660162384
  9
$TDUPDATE
 40
2455601.667940173
  9
$TDINDWG
 40
16.9065963889
  9
$TDUSRTIMER
 40
16.9065963889
  9
$USRTIMER
 70
     1
  9
$ANGBASE
 50
0.0
  9
$ANGDIR
 70
     0
  9
$PDMODE
 70
     0
  9
$PDSIZE
 40
0.0
  9
$PLINEWID
 40
0.0
  9
$COORDS
 70
     1
  9
$SPLFRAME
 70
     0
  9
$SPLINETYPE
 70
     6
  9
$SPLINESEGS
 70
     8
  9
$ATTDIA
 70
     0
  9
$ATTREQ
 70
     1
  9
$HANDLING
 70
-16383
  9
$HANDSEED
  5
25A9B
  9
$SURFTAB1
 70
     6
  9
$SURFTAB2
 70
     6
  9
$SURFTYPE
 70
     6
  9
$SURFU
 70
     6
  9
$SURFV
 70
     6
  9
$UCSNAME
  2

  9
$UCSORG
 10
0.0
 20
0.0
 30
0.0
  9
$UCSXDIR
 10
1.0
 20
0.0
 30
0.0
  9
$UCSYDIR
 10
0.0
 20
1.0
 30
0.0
  9
$PUCSNAME
  2

  9
$PUCSORG
 10
0.0
 20
0.0
 30
0.0
  9
$PUCSXDIR
 10
1.0
 20
0.0
 30
0.0
  9
$PUCSYDIR
 10
0.0
 20
1.0
 30
0.0
  9
$USERI1
 70
     0
  9
$USERI2
 70
     0
  9
$USERI3
 70
     0
  9
$USERI4
 70
     0
  9
$USERI5
 70
     0
  9
$USERR1
 40
245.9999999999999
  9
$USERR2
 40
0.0
  9
$USERR3
 40
0.0
  9
$USERR4
 40
0.0
  9
$USERR5
 40
0.0
  9
$WORLDVIEW
 70
     1
  9
$SHADEDGE
 70
     3
  9
$SHADEDIF
 70
    70
  9
$TILEMODE
 70
     0
  9
$MAXACTVP
 70
    48
  9
$PINSBASE
 10
0.0
 20
0.0
 30
0.0
  9
$PLIMCHECK
 70
     0
  9
$PEXTMIN
 10
-0.023886735966812
 20
-0.0125592023440504
 30
-0.0000000349181948
  9
$PEXTMAX
 10
400.0199012157272
 20
288.0060182726316
 30
0.0000000814935747
  9
$PLIMMIN
 10
-4.514803821625021
 20
-4.503493487004319
  9
$PLIMMAX
 10
415.5971123602393
 20
292.4969569413511
  9
$UNITMODE
 70
     0
  9
$VISRETAIN
 70
     1
  9
$PLINEGEN
 70
     0
  9
$PSLTSCALE
 70
     0
  9
$TREEDEPTH
 70
  3020
  9
$PICKSTYLE
 70
     0
  9
$CMLSTYLE
  2
STANDARD
  9
$CMLJUST
 70
     0
  9
$CMLSCALE
 40
20.0
  9
$PROXYGRAPHICS
 70
     1
  9
$MEASUREMENT
 70
     0
  0
ENDSEC
  0
SECTION
  2
CLASSES
  0
CLASS
  1
HATCH
  2
AcDbHatch
  3
AutoCAD 2000
 90
        0
280
     0
281
     1
  0
CLASS
  1
LWPOLYLINE
  2
AcDbPolyline
  3
AutoCAD 2000
 90
        0
280
     0
281
     1
  0
CLASS
  1
ACDBDICTIONARYWDFLT
  2
AcDbDictionaryWithDefault
  3
AutoCAD 2000
 90
        0
280
     0
281
     0
  0
CLASS
  1
ACDBPLACEHOLDER
  2
AcDbPlaceHolder
  3
AutoCAD 2000
 90
        0
280
     0
281
     0
  0
CLASS
  1
LAYOUT
  2
AcDbLayout
  3
AutoCAD 2000
 90
        0
280
     0
281
     0
  0
CLASS
  1
LONG_TRANSACTION
  2
AcDbLongTransaction
  3
AutoCAD 2000
 90
        0
280
     0
281
     0
  0
CLASS
  1
LWPOLYLINE
  2
AcDbPolyline
  3
AutoCAD 2000
 90
        0
280
     0
281
     1
  0
CLASS
  1
HATCH
  2
AcDbHatch
  3
AutoCAD 2000
 90
        0
280
     0
281
     1
  0
CLASS
  1
XRECORD
  2
AcDbXrecord
  3
AutoCAD 2000
 90
        0
280
     0
281
     0
  0
CLASS
  1
DICTIONARYVAR
  2
AcDbDictionaryVar
  3
AutoCAD 2000
 90
        0
280
     0
281
     0
  0
CLASS
  1
LONG_TRANSACTION
  2
AcDbLongTransaction
  3
AutoCAD 2000
 90
        0
280
     0
281
     0
  0
CLASS
  1
LWPOLYLINE
  2
AcDbPolyline
  3
AutoCAD 2000
 90
        0
280
     0
281
     1
  0
CLASS
  1
HATCH
  2
AcDbHatch
  3
AutoCAD 2000
 90
        0
280
     0
281
     1
  0
CLASS
  1
XRECORD
  2
AcDbXrecord
  3
AutoCAD 2000
 90
        0
280
     0
281
     0
  0
CLASS
  1
LONG_TRANSACTION
  2
AcDbLongTransaction
  3
AutoCAD 2000
 90
        0
280
     0
281
     0
  0
CLASS
  1
LWPOLYLINE
  2
AcDbPolyline
  3
AutoCAD 2000
 90
        0
280
     0
281
     1
  0
CLASS
  1
HATCH
  2
AcDbHatch
  3
AutoCAD 2000
 90
        0
280
     0
281
     1
  0
CLASS
  1
XRECORD
  2
AcDbXrecord
  3
AutoCAD 2000
 90
        0
280
     0
281
     0
  0
ENDSEC
  0
SECTION
  2
TABLES
  0
TABLE
  2
VPORT
  5
8
330
0
100
AcDbSymbolTable
 70
     1
  0
VPORT
  5
25A45
330
8
100
AcDbSymbolTableRecord
100
AcDbViewportTableRecord
  2
*ACTIVE
 70
     0
 10
0.0
 20
0.0
 11
1.0
 21
1.0
 12
205.7061777307024
 22
-1366.891663352456
 13
0.0
 23
0.0
 14
10.0
 24
10.0
 15
10.0
 25
10.0
 16
0.0
 26
0.0
 36
1.0
 17
0.0
 27
0.0
 37
0.0
 40
78.36663522735674
 41
2.184834123222747
 42
50.0
 43
0.0
 44
0.0
 50
0.0
 51
0.0
 71
     0
 72
 10000
 73
     1
 74
     0
 75
     0
 76
     0
 77
     0
 78
     0
  0
ENDTAB
  0
TABLE
  2
LTYPE
  5
5
330
0
100
AcDbSymbolTable
 70
     6
  0
LTYPE
  5
12
330
5
100
AcDbSymbolTableRecord
100
AcDbLinetypeTableRecord
  2
BYBLOCK
 70
     0
  3

 72
    65
 73
     0
 40
0.0
  0
LTYPE
  5
13
330
5
100
AcDbSymbolTableRecord
100
AcDbLinetypeTableRecord
  2
BYLAYER
 70
     0
  3

 72
    65
 73
     0
 40
0.0
  0
LTYPE
  5
14
330
5
100
AcDbSymbolTableRecord
100
AcDbLinetypeTableRecord
  2
CONTINUOUS
 70
     0
  3
Solid line
 72
    65
 73
     0
 40
0.0
  0
LTYPE
  5
126C
330
5
100
AcDbSymbolTableRecord
100
AcDbLinetypeTableRecord
  2
CENTER
 70
     0
  3
____ _ ____ _ ____ _ ____ _ ____ _ ____ _ ____
 72
    65
 73
     4
 40
2.0
 49
1.25
 74
     0
 49
-0.25
 74
     0
 49
0.25
 74
     0
 49
-0.25
 74
     0
  0
LTYPE
  5
126E
330
5
100
AcDbSymbolTableRecord
100
AcDbLinetypeTableRecord
  2
DASHDOT
 70
     0
  3
__ . __ . __ . __ . __ . __ . __ . __ . __ . __
 72
    65
 73
     4
 40
1.0
 49
0.5
 74
     0
 49
-0.25
 74
     0
 49
0.0
 74
     0
 49
-0.25
 74
     0
  0
LTYPE
  5
1541F
330
5
100
AcDbSymbolTableRecord
100
AcDbLinetypeTableRecord
  2
HIDDEN
 70
     0
  3
Hidden __ __ __ __ __ __ __ __ __ __ __ __ __ _
 72
    65
 73
     2
 40
0.375
 49
0.25
 74
     0
 49
-0.125
 74
     0
  0
LTYPE
  5
24901
330
5
100
AcDbSymbolTableRecord
100
AcDbLinetypeTableRecord
  2
CENTERX2
 70
     0
  3
Center (2x) ________  __  ________  __  _____
 72
    65
 73
     4
 40
4.0
 49
2.5
 74
     0
 49
-0.5
 74
     0
 49
0.5
 74
     0
 49
-0.5
 74
     0
  0
LTYPE
  5
2497B
330
5
100
AcDbSymbolTableRecord
100
AcDbLinetypeTableRecord
  2
PHANTOMX2
 70
     0
  3
Phantom (2x) ____________    ____    ____   _
 72
    65
 73
     6
 40
5.0
 49
2.5
 74
     0
 49
-0.5
 74
     0
 49
0.5
 74
     0
 49
-0.5
 74
     0
 49
0.5
 74
     0
 49
-0.5
 74
     0
  0
ENDTAB
  0
TABLE
  2
LAYER
  5
2
102
{ACAD_XDICTIONARY
360
246DA
102
}
330
0
100
AcDbSymbolTable
 70
    14
  0
LAYER
  5
E
330
2
100
AcDbSymbolTableRecord
100
AcDbLayerTableRecord
  2
0
 70
     2
 62
     7
  6
CONTINUOUS
  0
LAYER
  5
2C
330
2
100
AcDbSymbolTableRecord
100
AcDbLayerTableRecord
  2
M_VIEW
 70
     4
 62
    -1
  6
CONTINUOUS
  0
LAYER
  5
30
330
2
100
AcDbSymbolTableRecord
100
AcDbLayerTableRecord
  2
FRAME025
 70
     0
 62
     7
  6
CONTINUOUS
  0
LAYER
  5
12B
330
2
100
AcDbSymbolTableRecord
100
AcDbLayerTableRecord
  2
DEFPOINTS
 70
     4
 62
    -7
  6
CONTINUOUS
  0
LAYER
  5
651
330
2
100
AcDbSymbolTableRecord
100
AcDbLayerTableRecord
  2
FRAME020
 70
     0
 62
    -7
  6
CONTINUOUS
  0
LAYER
  5
1271
330
2
100
AcDbSymbolTableRecord
100
AcDbLayerTableRecord
  2
A
 70
     0
 62
     7
  6
CONTINUOUS
  0
LAYER
  5
A9BB
330
2
100
AcDbSymbolTableRecord
100
AcDbLayerTableRecord
  2
文字
 70
     0
 62
     7
  6
CONTINUOUS
  0
LAYER
  5
122DE
330
2
100
AcDbSymbolTableRecord
100
AcDbLayerTableRecord
  2
DIMENSION
 70
     0
 62
     7
  6
CONTINUOUS
  0
LAYER
  5
246EE
330
2
100
AcDbSymbolTableRecord
100
AcDbLayerTableRecord
  2
寸法
 70
     0
 62
     7
  6
CONTINUOUS
  0
LAYER
  5
246EF
330
2
100
AcDbSymbolTableRecord
100
AcDbLayerTableRecord
  2
中心線
 70
     0
 62
     7
  6
CENTERX2
  0
LAYER
  5
246F0
330
2
100
AcDbSymbolTableRecord
100
AcDbLayerTableRecord
  2
実線
 70
     0
 62
     7
  6
CONTINUOUS
  0
LAYER
  5
246F1
330
2
100
AcDbSymbolTableRecord
100
AcDbLayerTableRecord
  2
破線
 70
     0
 62
     7
  6
HIDDEN
  0
LAYER
  5
246F4
330
2
100
AcDbSymbolTableRecord
100
AcDbLayerTableRecord
  2
二点鎖線
 70
     0
 62
     7
  6
PHANTOMX2
  0
LAYER
  5
256DB
330
2
100
AcDbSymbolTableRecord
100
AcDbLayerTableRecord
  2
細線
 70
     0
 62
     7
  6
CONTINUOUS
  0
ENDTAB
  0
TABLE
  2
STYLE
  5
3
330
0
100
AcDbSymbolTable
 70
     5
  0
STYLE
  5
F
330
3
100
AcDbSymbolTableRecord
100
AcDbTextStyleTableRecord
  2
STANDARD
 70
     0
 40
0.0
 41
1.0
 50
0.0
 71
     0
 42
2.5
  3
isocp.shx
  4
bigfont.shx
  0
STYLE
  5
35
330
3
100
AcDbSymbolTableRecord
100
AcDbTextStyleTableRecord
  2
MSｺ_ｼｯｸ
 70
     0
 40
0.0
 41
1.0
 50
0.0
 71
     0
 42
5.0
  3
MS Gothic.ttf
  4

1001
ACAD
1000
MS Gothic
1071
    32817
  0
STYLE
  5
1275
330
3
100
AcDbSymbolTableRecord
100
AcDbTextStyleTableRecord
  2
BIGFONT
 70
     0
 40
2.0
 41
1.0
 50
0.0
 71
     0
 42
2.0
  3
txt.shx
  4
bigfont.shx
  0
STYLE
  5
1A849
330
3
100
AcDbSymbolTableRecord
100
AcDbTextStyleTableRecord
  2
まこ
 70
     0
 40
0.0
 41
1.0
 50
0.0
 71
     0
 42
2.5
  3
simplex.shx
  4
bigfont.shx
  0
STYLE
  5
1A84A
330
3
100
AcDbSymbolTableRecord
100
AcDbTextStyleTableRecord
  2
ｽﾀｲﾙ3
 70
     0
 40
10.0
 41
1.0
 50
0.0
 71
     0
 42
10.0
  3
isocp.shx
  4
extfont.shx
  0
ENDTAB
  0
TABLE
  2
VIEW
  5
6
330
0
100
AcDbSymbolTable
 70
     0
  0
ENDTAB
  0
TABLE
  2
UCS
  5
7
330
0
100
AcDbSymbolTable
 70
     0
  0
ENDTAB
  0
TABLE
  2
APPID
  5
9
330
0
100
AcDbSymbolTable
 70
     4
  0
APPID
  5
10
330
9
100
AcDbSymbolTableRecord
100
AcDbRegAppTableRecord
  2
ACAD
 70
     0
  0
APPID
  5
F013
330
9
100
AcDbSymbolTableRecord
100
AcDbRegAppTableRecord
  2
CONTENTBLOCKDESCRIPTION
 70
     0
  0
APPID
  5
F014
330
9
100
AcDbSymbolTableRecord
100
AcDbRegAppTableRecord
  2
CONTENTBLOCKICON
 70
     0
  0
APPID
  5
1A9A0
330
9
100
AcDbSymbolTableRecord
100
AcDbRegAppTableRecord
  2
DCO15
 70
     0
  0
ENDTAB
  0
TABLE
  2
DIMSTYLE
  5
A
330
0
100
AcDbSymbolTable
 70
     2
  0
DIMSTYLE
105
1D
330
A
100
AcDbSymbolTableRecord
100
AcDbDimStyleTableRecord
  2
STANDARD
 70
     0
  3

  4

  5

  6

  7

 40
1.0
 41
0.18
 42
0.0625
 43
0.38
 44
0.18
 45
0.0
 46
0.0
 47
0.0
 48
0.0
140
0.18
141
0.09
142
0.0
143
25.4
144
1.0
145
0.0
146
1.0
147
0.09
 71
     0
 72
     0
 73
     1
 74
     1
 75
     0
 76
     0
 77
     0
 78
     0
170
     0
171
     2
172
     0
173
     0
174
     0
175
     0
176
     0
177
     0
178
     0
270
     2
271
     4
272
     4
273
     2
274
     2
340
F
275
     0
280
     0
281
     0
282
     0
283
     1
284
     0
285
     0
286
     0
287
     3
288
     0
  0
DIMSTYLE
105
1A84D
330
A
100
AcDbSymbolTableRecord
100
AcDbDimStyleTableRecord
  2
まこ
 70
     0
  3

  4

  5
OPEN30
  6

  7

 40
1.0
 41
2.5
 42
0.8
 43
0.38
 44
0.18
 45
0.0
 46
0.0
 47
0.0
 48
0.0
140
3.0
141
0.0
142
0.0
143
25.4
144
1.0
145
0.0
146
0.7
147
0.5
 71
     0
 72
     0
 73
     0
 74
     0
 75
     0
 76
     0
 77
     3
 78
     8
170
     0
171
     2
172
     1
173
     0
174
     0
175
     0
176
     4
177
     4
178
   256
270
     2
271
     8
272
     8
273
     2
274
     2
340
F
275
     0
280
     0
281
     0
282
     0
283
     1
284
     8
285
     0
286
     0
287
     3
288
     0
  0
ENDTAB
  0
TABLE
  2
BLOCK_RECORD
  5
1
330
0
100
AcDbSymbolTable
 70
     2
  0
BLOCK_RECORD
  5
18
102
{ACAD_XDICTIONARY
360
EFC6
102
}
330
1
100
AcDbSymbolTableRecord
100
AcDbBlockTableRecord
  2
*MODEL_SPACE
  0
BLOCK_RECORD
  5
15
102
{ACAD_XDICTIONARY
360
EFC4
102
}
330
1
100
AcDbSymbolTableRecord
100
AcDbBlockTableRecord
  2
*PAPER_SPACE
  0
BLOCK_RECORD
  5
115C
330
1
100
AcDbSymbolTableRecord
100
AcDbBlockTableRecord
  2
機械A4横_LBP
  0
BLOCK_RECORD
  5
1215D
330
1
100
AcDbSymbolTableRecord
100
AcDbBlockTableRecord
  2
_OPEN30
  0
ENDTAB
  0
ENDSEC
  0
SECTION
  2
BLOCKS
  0
BLOCK
  5
19
330
18
100
AcDbEntity
  8
0
100
AcDbBlockBegin
  2
*MODEL_SPACE
 70
     0
 10
0.0
 20
0.0
 30
0.0
  3
*MODEL_SPACE
  1

  0
ENDBLK
  5
1A
330
18
100
AcDbEntity
  8
0
100
AcDbBlockEnd
  0
BLOCK
  5
16
330
15
100
AcDbEntity
 67
     1
  8
0
100
AcDbBlockBegin
  2
*PAPER_SPACE
 70
     0
 10
0.0
 20
0.0
 30
0.0
  3
*PAPER_SPACE
  1

  0
ENDBLK
  5
17
330
15
100
AcDbEntity
 67
     1
  8
0
100
AcDbBlockEnd
  0
BLOCK
  5
115D
330
115C
100
AcDbEntity
  8
0
100
AcDbBlockBegin
  2
機械A4横_LBP
 70
     0
 10
0.0
 20
0.0
 30
0.0
  3
機械A4横_LBP
  1

  0
ENDBLK
  5
115E
330
115C
100
AcDbEntity
  8
0
100
AcDbBlockEnd
  0
BLOCK
  5
12161
330
1215D
100
AcDbEntity
  8
0
100
AcDbBlockBegin
  2
_OPEN30
 70
     0
 10
0.0
 20
0.0
 30
0.0
  3
_OPEN30
  1

  0
LINE
  5
1215E
330
1215D
100
AcDbEntity
  8
0
  6
BYBLOCK
 62
     0
100
AcDbLine
 10
-1.0
 20
0.26794919
 30
0.0
 11
0.0
 21
0.0
 31
0.0
  0
LINE
  5
1215F
330
1215D
100
AcDbEntity
  8
0
  6
BYBLOCK
 62
     0
100
AcDbLine
 10
0.0
 20
0.0
 30
0.0
 11
-1.0
 21
-0.26794919
 31
0.0
  0
LINE
  5
12160
330
1215D
100
AcDbEntity
  8
0
  6
BYBLOCK
 62
     0
100
AcDbLine
 10
0.0
 20
0.0
 30
0.0
 11
-1.0
 21
0.0
 31
0.0
  0
ENDBLK
  5
12162
330
1215D
100
AcDbEntity
  8
0
100
AcDbBlockEnd
  0
ENDSEC
  0
SECTION
  2
ENTITIES
  0
MTEXT
  5
176FC
330
18
100
AcDbEntity
  8
DIMENSION
 62
     2
100
AcDbMText
 10
-100.7823601383244
 20
171.6213144128389
 30
0.0
 40
8.0
 41
0.0
 71
     4
 72
     1
  1

1001
ACAD
1000
MTEXTBEGIN
1070
    73
1070
     1
1070
    44
1040
1.0
1070
    74
1070
     0
1000
MTEXTEND
1000
MTEXTBEGIN
1070
    73
1070
     1
1070
    44
1040
1.0
1070
    74
1070
     0
1000
MTEXTEND
  0
TEXT
  5
187C8
330
18
100
AcDbEntity
  8
A
100
AcDbText
 10
27.08248755054501
 20
1784.547672862095
 30
0.0
 40
2.5
  1

  7
MSｺ_ｼｯｸ
100
AcDbText
  0
TEXT
  5
187C9
330
18
100
AcDbEntity
  8
A
100
AcDbText
 10
19.25748755054502
 20
1784.547672862095
 30
0.0
 40
2.5
  1

 41
0.5
  7
MSｺ_ｼｯｸ
100
AcDbText
  0
TEXT
  5
187CA
330
18
100
AcDbEntity
  8
A
100
AcDbText
 10
167.1825875009164
 20
2214.514692980458
 30
0.0
 40
3.524999999999999
  1
�    
100
AcDbText
  0
MTEXT
  5
187CB
330
18
100
AcDbEntity
  8
0
  6
BYBLOCK
100
AcDbMText
 10
325.4874764241681
 20
2232.511722574347
 30
0.0
 40
2.0
 41
0.0
 71
     4
 72
     5
  1

 11
-0.0000000000000002
 21
-1.0
 31
0.0
1001
ACAD
1000
MTEXTBEGIN
1070
    73
1070
     1
1070
    44
1040
1.0
1070
    74
1070
     0
1000
MTEXTEND
1000
MTEXTBEGIN
1070
    73
1070
     1
1070
    44
1040
1.0
1070
    74
1070
     0
1000
MTEXTEND
  0
MTEXT
  5
187CC
330
18
100
AcDbEntity
  8
0
  6
BYBLOCK
100
AcDbMText
 10
360.9528647873208
 20
2221.718414215929
 30
0.0
 40
2.0
 41
0.0
 71
     7
 72
     5
  1

 11
0.0000000000000001
 21
1.0
 31
0.0
1001
ACAD
1000
MTEXTBEGIN
1070
    73
1070
     1
1070
    44
1040
1.0
1070
    74
1070
     0
1000
MTEXTEND
1000
MTEXTBEGIN
1070
    73
1070
     1
1070
    44
1040
1.0
1070
    74
1070
     0
1000
MTEXTEND
  0
MTEXT
  5
187CD
330
18
100
AcDbEntity
  8
0
100
AcDbMText
 10
325.1733668026532
 20
2146.938903673639
 30
0.0
 40
2.0
 41
10.1453
 71
     1
 72
     5
  1

 11
-0.0000000000000002
 21
-1.0
 31
0.0
1001
ACAD
1000
MTEXTBEGIN
1070
    73
1070
     1
1070
    44
1040
1.0
1070
    74
1070
     0
1000
MTEXTEND
1000
MTEXTBEGIN
1070
    73
1070
     1
1070
    44
1040
1.0
1070
    74
1070
     0
1000
MTEXTEND
  0
MTEXT
  5
187CE
330
18
100
AcDbEntity
  8
0
100
AcDbMText
 10
280.7738750495033
 20
2115.30742008065
 30
0.0
 40
2.0
 41
0.0
 71
     1
 72
     5
  1

1001
ACAD
1000
MTEXTBEGIN
1070
    73
1070
     1
1070
    44
1040
1.0
1070
    74
1070
     0
1000
MTEXTEND
1000
MTEXTBEGIN
1070
    73
1070
     1
1070
    44
1040
1.0
1070
    74
1070
     0
1000
MTEXTEND
  0
MTEXT
  5
187CF
330
18
100
AcDbEntity
  8
0
  6
CENTER
100
AcDbMText
 10
606.3621522332661
 20
2216.239946825076
 30
0.0
 40
2.0
 41
15.6417
 71
     1
 72
     5
  1

  7
BIGFONT
1001
ACAD
1000
MTEXTBEGIN
1070
    73
1070
     1
1070
    44
1040
1.0
1070
    74
1070
     0
1000
MTEXTEND
1000
MTEXTBEGIN
1070
    73
1070
     1
1070
    44
1040
1.0
1070
    74
1070
     0
1000
MTEXTEND
  0
MTEXT
  5
187D0
330
18
100
AcDbEntity
  8
0
  6
DASHDOT
100
AcDbMText
 10
368.6842112890943
 20
2323.029441652852
 30
0.0
 40
1.0
 41
2.0
 71
     1
 72
     5
  1

  7
BIGFONT
1001
ACAD
1000
MTEXTBEGIN
1070
    73
1070
     1
1070
    44
1040
1.0
1070
    74
1070
     0
1000
MTEXTEND
1000
MTEXTBEGIN
1070
    73
1070
     1
1070
    44
1040
1.0
1070
    74
1070
     0
1000
MTEXTEND
  0
MTEXT
  5
187D1
330
18
100
AcDbEntity
  8
0
  6
BYBLOCK
100
AcDbMText
 10
325.4873894192177
 20
2232.511722574347
 30
0.0
 40
2.0
 41
0.0
 71
     4
 72
     5
  1

 11
-0.0000000000000002
 21
-1.0
 31
0.0
1001
ACAD
1000
MTEXTBEGIN
1070
    73
1070
     1
1070
    44
1040
1.0
1070
    74
1070
     0
1000
MTEXTEND
1000
MTEXTBEGIN
1070
    73
1070
     1
1070
    44
1040
1.0
1070
    74
1070
     0
1000
MTEXTEND
  0
MTEXT
  5
187D2
330
18
100
AcDbEntity
  8
0
  6
BYBLOCK
100
AcDbMText
 10
360.9527777823706
 20
2221.718414215929
 30
0.0
 40
2.0
 41
0.0
 71
     7
 72
     5
  1

 11
0.0000000000000001
 21
1.0
 31
0.0
1001
ACAD
1000
MTEXTBEGIN
1070
    73
1070
     1
1070
    44
1040
1.0
1070
    74
1070
     0
1000
MTEXTEND
1000
MTEXTBEGIN
1070
    73
1070
     1
1070
    44
1040
1.0
1070
    74
1070
     0
1000
MTEXTEND
  0
MTEXT
  5
187D3
330
18
100
AcDbEntity
  8
0
100
AcDbMText
 10
325.1732797977028
 20
2146.938903673639
 30
0.0
 40
2.0
 41
10.1453
 71
     1
 72
     5
  1

 11
-0.0000000000000002
 21
-1.0
 31
0.0
1001
ACAD
1000
MTEXTBEGIN
1070
    73
1070
     1
1070
    44
1040
1.0
1070
    74
1070
     0
1000
MTEXTEND
1000
MTEXTBEGIN
1070
    73
1070
     1
1070
    44
1040
1.0
1070
    74
1070
     0
1000
MTEXTEND
  0
MTEXT
  5
187D4
330
18
100
AcDbEntity
  8
0
100
AcDbMText
 10
280.7737880445529
 20
2115.30742008065
 30
0.0
 40
2.0
 41
0.0
 71
     1
 72
     5
  1

1001
ACAD
1000
MTEXTBEGIN
1070
    73
1070
     1
1070
    44
1040
1.0
1070
    74
1070
     0
1000
MTEXTEND
1000
MTEXTBEGIN
1070
    73
1070
     1
1070
    44
1040
1.0
1070
    74
1070
     0
1000
MTEXTEND
  0
MTEXT
  5
187D5
330
18
100
AcDbEntity
  8
0
  6
CENTER
100
AcDbMText
 10
606.3620652283159
 20
2216.239946825076
 30
0.0
 40
2.0
 41
15.6417
 71
     1
 72
     5
  1

  7
BIGFONT
1001
ACAD
1000
MTEXTBEGIN
1070
    73
1070
     1
1070
    44
1040
1.0
1070
    74
1070
     0
1000
MTEXTEND
1000
MTEXTBEGIN
1070
    73
1070
     1
1070
    44
1040
1.0
1070
    74
1070
     0
1000
MTEXTEND
  0
MTEXT
  5
187D6
330
18
100
AcDbEntity
  8
0
  6
DASHDOT
100
AcDbMText
 10
368.6841242841442
 20
2323.029441652852
 30
0.0
 40
1.0
 41
2.0
 71
     1
 72
     5
  1

  7
BIGFONT
1001
ACAD
1000
MTEXTBEGIN
1070
    73
1070
     1
1070
    44
1040
1.0
1070
    74
1070
     0
1000
MTEXTEND
1000
MTEXTBEGIN
1070
    73
1070
     1
1070
    44
1040
1.0
1070
    74
1070
     0
1000
MTEXTEND
  0
INSERT
  5
187D7
330
18
100
AcDbEntity
  8
FRAME025
100
AcDbBlockReference
  2
機械A4横_LBP
 10
271.0019941658661
 20
2006.88884056487
 30
0.0
  0
LINE
  5
2493B
102
{ACAD_REACTORS
330
24979
102
}
330
18
100
AcDbEntity
  8
中心線
100
AcDbLine
 10
291.0100620656178
 20
-1345.434943158609
 30
0.0
 11
260.0100620656181
 21
-1345.434943158609
 31
0.0
  0
LINE
  5
2493E
102
{ACAD_REACTORS
330
24979
102
}
330
18
100
AcDbEntity
  8
実線
100
AcDbLine
 10
269.4100620656179
 20
-1351.434943158609
 30
0.0
 11
272.010062065618
 21
-1351.434943158609
 31
0.0
  0
LINE
  5
2493F
102
{ACAD_REACTORS
330
24979
102
}
330
18
100
AcDbEntity
  8
破線
 48
5.0
100
AcDbLine
 10
282.1100620656179
 20
-1347.534943158608
 30
0.0
 11
268.910062065618
 21
-1347.534943158608
 31
0.0
  0
LINE
  5
24940
102
{ACAD_REACTORS
330
24979
102
}
330
18
100
AcDbEntity
  8
破線
 48
5.0
100
AcDbLine
 10
282.1100620656179
 20
-1343.334943158609
 30
0.0
 11
268.910062065618
 21
-1343.334943158609
 31
0.0
  0
LINE
  5
24941
102
{ACAD_REACTORS
330
24979
102
}
330
18
100
AcDbEntity
  8
実線
100
AcDbLine
 10
281.6100620656179
 20
-1340.43494315861
 30
0.0
 11
269.4100620656179
 21
-1340.43494315861
 31
0.0
  0
LINE
  5
24942
102
{ACAD_REACTORS
330
24979
102
}
330
18
100
AcDbEntity
  8
実線
100
AcDbLine
 10
268.910062065618
 20
-1350.934943158609
 30
0.0
 11
269.4100620656179
 21
-1351.434943158609
 31
0.0
  0
LINE
  5
24943
102
{ACAD_REACTORS
330
24979
102
}
330
18
100
AcDbEntity
  8
実線
100
AcDbLine
 10
268.910062065618
 20
-1340.934943158609
 30
0.0
 11
268.910062065618
 21
-1350.934943158609
 31
0.0
  0
LINE
  5
24944
102
{ACAD_REACTORS
330
24979
102
}
330
18
100
AcDbEntity
  8
実線
100
AcDbLine
 10
269.4100620656179
 20
-1340.43494315861
 30
0.0
 11
268.910062065618
 21
-1340.934943158609
 31
0.0
  0
ARC
  5
2494C
102
{ACAD_REACTORS
330
24979
102
}
330
18
100
AcDbEntity
  8
実線
100
AcDbCircle
 10
278.010062065618
 20
-1348.434943158609
 30
0.0
 40
0.5
100
AcDbArc
 50
0.0
 51
90.0
  0
LINE
  5
2494D
102
{ACAD_REACTORS
330
24979
102
}
330
18
100
AcDbEntity
  8
実線
100
AcDbLine
 10
272.510062065618
 20
-1348.434943158609
 30
0.0
 11
272.510062065618
 21
-1350.934943158609
 31
0.0
  0
LINE
  5
2494E
102
{ACAD_REACTORS
330
24979
102
}
330
18
100
AcDbEntity
  8
実線
100
AcDbLine
 10
272.010062065618
 20
-1351.434943158609
 30
0.0
 11
272.510062065618
 21
-1350.934943158609
 31
0.0
  0
ARC
  5
2494F
102
{ACAD_REACTORS
330
24979
102
}
330
18
100
AcDbEntity
  8
実線
100
AcDbCircle
 10
273.0100620656179
 20
-1348.434943158609
 30
0.0
 40
0.5
100
AcDbArc
 50
90.0
 51
180.0
  0
LINE
  5
24950
102
{ACAD_REACTORS
330
24979
102
}
330
18
100
AcDbEntity
  8
実線
100
AcDbLine
 10
278.010062065618
 20
-1347.934943158609
 30
0.0
 11
273.0100620656179
 21
-1347.934943158609
 31
0.0
  0
LINE
  5
24951
102
{ACAD_REACTORS
330
24979
102
}
330
18
100
AcDbEntity
  8
実線
 48
5.0
100
AcDbLine
 10
282.1100620656179
 20
-1347.434943158609
 30
0.0
 11
282.1100620656179
 21
-1343.434943158609
 31
0.0
  0
LINE
  5
24952
102
{ACAD_REACTORS
330
24979
102
}
330
18
100
AcDbEntity
  8
実線
100
AcDbLine
 10
281.6100620656179
 20
-1351.434943158609
 30
0.0
 11
282.1100620656179
 21
-1350.934943158609
 31
0.0
  0
LINE
  5
24953
102
{ACAD_REACTORS
330
24979
102
}
330
18
100
AcDbEntity
  8
実線
100
AcDbLine
 10
282.1100620656179
 20
-1350.934943158609
 30
0.0
 11
282.1100620656179
 21
-1340.934943158609
 31
0.0
  0
LINE
  5
24954
102
{ACAD_REACTORS
330
24979
102
}
330
18
100
AcDbEntity
  8
実線
100
AcDbLine
 10
282.1100620656179
 20
-1340.934943158609
 30
0.0
 11
281.6100620656179
 21
-1340.43494315861
 31
0.0
  0
LINE
  5
24955
102
{ACAD_REACTORS
330
24979
102
}
330
18
100
AcDbEntity
  8
実線
100
AcDbLine
 10
279.010062065618
 20
-1351.434943158609
 30
0.0
 11
278.510062065618
 21
-1350.934943158609
 31
0.0
  0
LINE
  5
24956
102
{ACAD_REACTORS
330
24979
102
}
330
18
100
AcDbEntity
  8
実線
100
AcDbLine
 10
278.510062065618
 20
-1348.434943158609
 30
0.0
 11
278.510062065618
 21
-1350.934943158609
 31
0.0
  0
LINE
  5
24957
102
{ACAD_REACTORS
330
24979
102
}
330
18
100
AcDbEntity
  8
実線
100
AcDbLine
 10
281.6100620656179
 20
-1351.434943158609
 30
0.0
 11
279.010062065618
 21
-1351.434943158609
 31
0.0
  0
LINE
  5
24AB4
102
{ACAD_REACTORS
330
24BF6
330
24C27
102
}
330
18
100
AcDbEntity
  8
中心線
100
AcDbLine
 10
120.3830429493851
 20
-1345.434961213219
 30
0.0
 11
178.1830429493852
 21
-1345.434961213219
 31
0.0
  0
CIRCLE
  5
24AB6
102
{ACAD_REACTORS
330
24BF6
330
24C27
102
}
330
18
100
AcDbEntity
  8
実線
100
AcDbCircle
 10
133.2830429493851
 20
-1345.434961213219
 30
0.0
 40
4.4
  0
LINE
  5
24AB9
102
{ACAD_REACTORS
330
24BF6
330
24C27
102
}
330
18
100
AcDbEntity
  8
中心線
100
AcDbLine
 10
133.2830429493851
 20
-1352.184961213219
 30
0.0
 11
133.2830429493851
 21
-1338.684961213219
 31
0.0
  0
LINE
  5
24ABB
102
{ACAD_REACTORS
330
24BF6
330
24C27
102
}
330
18
100
AcDbEntity
  8
中心線
100
AcDbLine
 10
149.2830429493851
 20
-1351.684961213218
 30
0.0
 11
149.2830429493851
 21
-1339.184961213218
 31
0.0
  0
LINE
  5
24ABC
102
{ACAD_REACTORS
330
24BF6
330
24C27
102
}
330
18
100
AcDbEntity
  8
中心線
100
AcDbLine
 10
141.2830429493851
 20
-1350.44497926771
 30
0.0
 11
141.2830429493851
 21
-1340.424979267947
 31
0.0
  0
CIRCLE
  5
24ABD
102
{ACAD_REACTORS
330
24BF6
330
24C27
102
}
330
18
100
AcDbEntity
  8
実線
100
AcDbCircle
 10
141.2830429493851
 20
-1345.434961213219
 30
0.0
 40
2.509999999999998
  0
CIRCLE
  5
24ABE
102
{ACAD_REACTORS
330
24BF6
330
24C27
102
}
330
18
100
AcDbEntity
  8
実線
100
AcDbCircle
 10
149.2830429493851
 20
-1345.434961213219
 30
0.0
 40
3.75
  0
CIRCLE
  5
24ABF
102
{ACAD_REACTORS
330
24BF6
330
24C27
102
}
330
18
100
AcDbEntity
  8
実線
100
AcDbCircle
 10
165.2830429493851
 20
-1345.434961213219
 30
0.0
 40
4.4
  0
LINE
  5
24AC0
102
{ACAD_REACTORS
330
24BF6
330
24C27
102
}
330
18
100
AcDbEntity
  8
中心線
100
AcDbLine
 10
157.2830429493851
 20
-1350.44497926771
 30
0.0
 11
157.2830429493851
 21
-1340.424979267947
 31
0.0
  0
LINE
  5
24AC1
102
{ACAD_REACTORS
330
24BF6
330
24C27
102
}
330
18
100
AcDbEntity
  8
中心線
100
AcDbLine
 10
165.2830429493851
 20
-1352.184961213219
 30
0.0
 11
165.2830429493851
 21
-1338.684961213219
 31
0.0
  0
CIRCLE
  5
24AC2
102
{ACAD_REACTORS
330
24BF6
330
24C27
102
}
330
18
100
AcDbEntity
  8
実線
100
AcDbCircle
 10
157.2830429493851
 20
-1345.434961213219
 30
0.0
 40
2.509999999999998
  0
LWPOLYLINE
  5
24ACD
102
{ACAD_REACTORS
330
24BF7
330
2565E
102
}
330
18
100
AcDbEntity
  8
実線
100
AcDbPolyline
 90
        4
 70
     1
 43
0.0
 10
265.0100620656181
 20
-1340.43494315861
 10
268.910062065618
 20
-1340.43494315861
 10
268.910062065618
 20
-1378.434943158609
 10
265.0100620656181
 20
-1378.434943158609
  0
LINE
  5
24AD0
102
{ACAD_REACTORS
330
24BF7
330
2565E
102
}
330
18
100
AcDbEntity
  8
破線
 48
5.0
100
AcDbLine
 10
265.0100620656181
 20
-1341.684925103999
 30
0.0
 11
268.9100973700291
 21
-1341.684925103999
 31
0.0
  0
LINE
  5
24AD3
102
{ACAD_REACTORS
330
24BF7
330
2565E
102
}
330
18
100
AcDbEntity
  8
破線
 48
5.0
100
AcDbLine
 10
265.0100965097138
 20
-1349.184925103999
 30
0.0
 11
268.910062065618
 21
-1349.184925103999
 31
0.0
  0
LWPOLYLINE
  5
24C0C
330
18
100
AcDbEntity
  8
実線
100
AcDbPolyline
 90
        4
 70
     1
 43
0.0
 10
273.0100620656179
 20
-1377.934943158609
 10
269.0100620656179
 20
-1377.934943158609
 10
269.0100620656179
 20
-1352.934943158609
 10
273.0100620656179
 20
-1352.934943158609
  0
LWPOLYLINE
  5
24C1C
102
{ACAD_REACTORS
330
24C1E
102
}
330
18
100
AcDbEntity
  8
実線
100
AcDbPolyline
 90
        6
 70
     1
 43
0.0
 10
132.4175728955474
 20
-1343.935905052933
 10
131.5521028417093
 20
-1345.434943158609
 10
132.4175728955474
 20
-1346.933981264286
 10
134.148513003223
 20
-1346.933981264286
 10
135.013983057061
 20
-1345.434943158609
 10
134.148513003223
 20
-1343.935905052933
  0
CIRCLE
  5
24C1D
102
{ACAD_REACTORS
330
24C1E
102
}
330
18
100
AcDbEntity
  8
実線
100
AcDbCircle
 10
133.2830429493851
 20
-1345.434961213219
 30
0.0
 40
3.9
  0
LINE
  5
24C1F
102
{ACAD_REACTORS
330
24C27
102
}
330
18
100
AcDbEntity
  8
実線
100
AcDbLine
 10
126.3830429493852
 20
-1378.434961213218
 30
0.0
 11
172.1830429493853
 21
-1378.434961213218
 31
0.0
  0
LINE
  5
24C20
102
{ACAD_REACTORS
330
24C27
102
}
330
18
100
AcDbEntity
  8
実線
100
AcDbLine
 10
172.1830429493853
 20
-1378.434961213218
 30
0.0
 11
173.1830429493853
 21
-1377.434961213219
 31
0.0
  0
LINE
  5
24C21
102
{ACAD_REACTORS
330
24C27
102
}
330
18
100
AcDbEntity
  8
実線
100
AcDbLine
 10
173.1830429493853
 20
-1377.434961213219
 30
0.0
 11
173.1830429493853
 21
-1341.434961213219
 31
0.0
  0
LINE
  5
24C22
102
{ACAD_REACTORS
330
24C27
102
}
330
18
100
AcDbEntity
  8
実線
100
AcDbLine
 10
173.1830429493853
 20
-1341.434961213219
 30
0.0
 11
172.1830429493853
 21
-1340.434961213219
 31
0.0
  0
LINE
  5
24C23
102
{ACAD_REACTORS
330
24C27
102
}
330
18
100
AcDbEntity
  8
実線
100
AcDbLine
 10
172.1830429493853
 20
-1340.434961213219
 30
0.0
 11
126.3830429493852
 21
-1340.434961213219
 31
0.0
  0
LINE
  5
24C24
102
{ACAD_REACTORS
330
24C27
102
}
330
18
100
AcDbEntity
  8
実線
100
AcDbLine
 10
126.3830429493852
 20
-1340.434961213219
 30
0.0
 11
125.3830429493852
 21
-1341.434961213219
 31
0.0
  0
LINE
  5
24C25
102
{ACAD_REACTORS
330
24C27
102
}
330
18
100
AcDbEntity
  8
実線
100
AcDbLine
 10
125.3830429493852
 20
-1341.434961213219
 30
0.0
 11
125.3830429493852
 21
-1377.434961213219
 31
0.0
  0
LINE
  5
24C26
102
{ACAD_REACTORS
330
24C27
102
}
330
18
100
AcDbEntity
  8
実線
100
AcDbLine
 10
125.3830429493852
 20
-1377.434961213219
 30
0.0
 11
126.3830429493852
 21
-1378.434961213218
 31
0.0
  0
LWPOLYLINE
  5
24C2C
102
{ACAD_REACTORS
330
24C2E
102
}
330
18
100
AcDbEntity
  8
実線
100
AcDbPolyline
 90
        6
 70
     1
 43
0.0
 10
164.4175728955474
 20
-1343.935905052933
 10
163.5521028417094
 20
-1345.434943158609
 10
164.4175728955474
 20
-1346.933981264286
 10
166.148513003223
 20
-1346.933981264286
 10
167.013983057061
 20
-1345.434943158609
 10
166.148513003223
 20
-1343.935905052933
  0
CIRCLE
  5
24C2D
102
{ACAD_REACTORS
330
24C2E
102
}
330
18
100
AcDbEntity
  8
実線
100
AcDbCircle
 10
165.2830429493851
 20
-1345.434961213219
 30
0.0
 40
3.9
  0
LINE
  5
24C42
102
{ACAD_REACTORS
330
25730
102
}
330
18
100
AcDbEntity
  8
0
100
AcDbLine
 10
131.8830429493852
 20
-1376.434961213218
 30
0.0
 11
165.8830429493851
 21
-1376.434961213218
 31
0.0
  0
LINE
  5
24C46
102
{ACAD_REACTORS
330
25730
102
}
330
18
100
AcDbEntity
  8
0
100
AcDbLine
 10
165.8830429493851
 20
-1364.434961213218
 30
0.0
 11
131.8830429493852
 21
-1364.434961213218
 31
0.0
  0
LINE
  5
24C47
102
{ACAD_REACTORS
330
25730
102
}
330
18
100
AcDbEntity
  8
0
100
AcDbLine
 10
131.3830429493852
 20
-1371.434961213219
 30
0.0
 11
166.3830429493851
 21
-1371.434961213219
 31
0.0
  0
LINE
  5
24C4F
102
{ACAD_REACTORS
330
24E30
102
}
330
18
100
AcDbEntity
  8
0
100
AcDbLine
 10
131.3830429493852
 20
-1356.434961213219
 30
0.0
 11
146.3830429493851
 21
-1356.434961213219
 31
0.0
  0
LWPOLYLINE
  5
24C51
102
{ACAD_REACTORS
330
24E30
102
}
330
18
100
AcDbEntity
  8
0
100
AcDbPolyline
 90
        8
 70
     1
 43
0.0
 10
131.8830429493852
 20
-1362.434961213218
 10
145.8830429493851
 20
-1362.434961213219
 42
0.4142135623730951
 10
146.3830429493851
 20
-1361.934961213219
 10
146.3830429493851
 20
-1352.934961213219
 42
0.4142135623730951
 10
145.8830429493851
 20
-1352.434961213219
 10
131.8830429493852
 20
-1352.434961213219
 42
0.4142135623730996
 10
131.3830429493852
 20
-1352.934961213219
 10
131.3830429493852
 20
-1361.934961213218
 42
0.4142135623730904
  0
ARC
  5
24C56
102
{ACAD_REACTORS
330
25730
102
}
330
18
100
AcDbEntity
  8
0
100
AcDbCircle
 10
165.8830429493851
 20
-1375.934961213219
 30
0.0
 40
0.5
100
AcDbArc
 50
270.0
 51
0.0
  0
ARC
  5
24C57
102
{ACAD_REACTORS
330
25730
102
}
330
18
100
AcDbEntity
  8
0
100
AcDbCircle
 10
165.8830429493851
 20
-1364.934961213219
 30
0.0
 40
0.5
100
AcDbArc
 50
0.0
 51
90.0
  0
LINE
  5
24C58
102
{ACAD_REACTORS
330
25730
102
}
330
18
100
AcDbEntity
  8
0
100
AcDbLine
 10
166.3830429493851
 20
-1375.934961213219
 30
0.0
 11
166.3830429493851
 21
-1364.934961213219
 31
0.0
  0
ARC
  5
24C80
102
{ACAD_REACTORS
330
25730
102
}
330
18
100
AcDbEntity
  8
0
100
AcDbCircle
 10
131.8830429493852
 20
-1375.934961213219
 30
0.0
 40
0.5
100
AcDbArc
 50
180.0
 51
270.0
  0
ARC
  5
24C81
102
{ACAD_REACTORS
330
25730
102
}
330
18
100
AcDbEntity
  8
0
100
AcDbCircle
 10
131.8830429493852
 20
-1364.934961213219
 30
0.0
 40
0.5
100
AcDbArc
 50
90.0
 51
180.0
  0
LINE
  5
24C83
102
{ACAD_REACTORS
330
25730
102
}
330
18
100
AcDbEntity
  8
0
100
AcDbLine
 10
131.3830429493852
 20
-1364.934961213219
 30
0.0
 11
131.3830429493852
 21
-1375.934961213219
 31
0.0
  0
LWPOLYLINE
  5
2560C
102
{ACAD_REACTORS
330
2564B
102
}
330
18
100
AcDbEntity
  8
二点鎖線
100
AcDbPolyline
 90
       10
 70
     0
 43
0.0
 10
272.010062065618
 20
-1379.434943158609
 10
266.0100811952637
 20
-1379.434943158609
 10
265.5100811952638
 20
-1379.934943158609
 10
265.510062065618
 20
-1389.934943158609
 10
266.010062065618
 20
-1390.434943158609
 10
285.010062065618
 20
-1390.434943158609
 10
285.5100620656179
 20
-1389.934943158609
 10
285.5100811952638
 20
-1379.934943158609
 10
285.0100811952638
 20
-1379.434943158609
 10
279.010062065618
 20
-1379.434943158609
  0
LINE
  5
2560D
102
{ACAD_REACTORS
330
2564B
102
}
330
18
100
AcDbEntity
  8
中心線
100
AcDbLine
 10
274.3499426671886
 20
-1387.434939213219
 30
0.0
 11
263.110062065618
 21
-1387.434939213219
 31
0.0
  0
LINE
  5
2560E
102
{ACAD_REACTORS
330
2564B
102
}
330
18
100
AcDbEntity
  8
二点鎖線
100
AcDbLine
 10
267.510062065618
 20
-1382.434921158609
 30
0.0
 11
271.5100620656179
 21
-1382.434921158609
 31
0.0
  0
LINE
  5
2560F
102
{ACAD_REACTORS
330
2564B
102
}
330
18
100
AcDbEntity
  8
二点鎖線
100
AcDbLine
 10
269.5100811952638
 20
-1380.434921158609
 30
0.0
 11
271.0100811952638
 21
-1381.434921158609
 31
0.0
  0
LINE
  5
25610
102
{ACAD_REACTORS
330
2564B
102
}
330
18
100
AcDbEntity
  8
二点鎖線
100
AcDbLine
 10
268.0100811952637
 20
-1381.434921158609
 30
0.0
 11
271.0100811952638
 21
-1381.434921158609
 31
0.0
  0
LINE
  5
25611
102
{ACAD_REACTORS
330
2564B
102
}
330
18
100
AcDbEntity
  8
二点鎖線
100
AcDbLine
 10
272.5100429359721
 20
-1385.934921158609
 30
0.0
 11
265.510062065618
 21
-1385.934921158609
 31
0.0
  0
LINE
  5
25612
102
{ACAD_REACTORS
330
2564B
102
}
330
18
100
AcDbEntity
  8
二点鎖線
100
AcDbLine
 10
272.510062065618
 20
-1388.934921158609
 30
0.0
 11
265.510062065618
 21
-1388.934921158609
 31
0.0
  0
LINE
  5
25613
102
{ACAD_REACTORS
330
2564B
102
}
330
18
100
AcDbEntity
  8
二点鎖線
100
AcDbLine
 10
270.510062065618
 20
-1385.434921158609
 30
0.0
 11
265.510062065618
 21
-1385.434921158609
 31
0.0
  0
LINE
  5
25614
102
{ACAD_REACTORS
330
2564B
102
}
330
18
100
AcDbEntity
  8
二点鎖線
100
AcDbLine
 10
270.510062065618
 20
-1389.434921158609
 30
0.0
 11
265.510062065618
 21
-1389.434921158609
 31
0.0
  0
LINE
  5
25615
102
{ACAD_REACTORS
330
2564B
102
}
330
18
100
AcDbEntity
  8
中心線
100
AcDbLine
 10
269.510062065618
 20
-1378.851849743075
 30
0.0
 11
269.510062065618
 21
-1391.434921158609
 31
0.0
  0
LINE
  5
25616
102
{ACAD_REACTORS
330
2564B
102
}
330
18
100
AcDbEntity
  8
二点鎖線
100
AcDbLine
 10
267.510062065618
 20
-1382.434921158609
 30
0.0
 11
268.0100811952637
 21
-1381.727610255331
 31
0.0
  0
LINE
  5
25617
102
{ACAD_REACTORS
330
2564B
102
}
330
18
100
AcDbEntity
  8
二点鎖線
100
AcDbLine
 10
268.0100811952637
 20
-1381.434921158609
 30
0.0
 11
269.5100811952638
 21
-1380.434921158609
 31
0.0
  0
LINE
  5
25618
102
{ACAD_REACTORS
330
2564B
102
}
330
18
100
AcDbEntity
  8
二点鎖線
100
AcDbLine
 10
267.510062065618
 20
-1382.434921158609
 30
0.0
 11
267.5100811952638
 21
-1390.434921158609
 31
0.0
  0
LINE
  5
25619
102
{ACAD_REACTORS
330
2564B
102
}
330
18
100
AcDbEntity
  8
二点鎖線
100
AcDbLine
 10
268.0100811952637
 20
-1381.434921158609
 30
0.0
 11
268.0100811952637
 21
-1390.434921158609
 31
0.0
  0
LINE
  5
2561A
102
{ACAD_REACTORS
330
2564B
102
}
330
18
100
AcDbEntity
  8
中心線
100
AcDbLine
 10
276.6701814640475
 20
-1387.434939213219
 30
0.0
 11
287.9100620656181
 21
-1387.434939213219
 31
0.0
  0
LINE
  5
2561B
102
{ACAD_REACTORS
330
2564B
102
}
330
18
100
AcDbEntity
  8
二点鎖線
100
AcDbLine
 10
283.5100620656179
 20
-1382.434921158609
 30
0.0
 11
279.5100620656179
 21
-1382.434921158609
 31
0.0
  0
LINE
  5
2561C
102
{ACAD_REACTORS
330
2564B
102
}
330
18
100
AcDbEntity
  8
二点鎖線
100
AcDbLine
 10
283.5100620656179
 20
-1382.434921158609
 30
0.0
 11
283.0100429359721
 21
-1381.727610255331
 31
0.0
  0
LINE
  5
2561D
102
{ACAD_REACTORS
330
2564B
102
}
330
18
100
AcDbEntity
  8
二点鎖線
100
AcDbLine
 10
278.5100811952637
 20
-1385.934921158609
 30
0.0
 11
285.5100620656179
 21
-1385.934921158609
 31
0.0
  0
LINE
  5
2561E
102
{ACAD_REACTORS
330
2564B
102
}
330
18
100
AcDbEntity
  8
二点鎖線
100
AcDbLine
 10
280.510062065618
 20
-1385.434921158609
 30
0.0
 11
285.5100620656179
 21
-1385.434921158609
 31
0.0
  0
LINE
  5
2561F
102
{ACAD_REACTORS
330
2564B
102
}
330
18
100
AcDbEntity
  8
二点鎖線
100
AcDbLine
 10
278.510062065618
 20
-1388.934921158609
 30
0.0
 11
285.5100620656179
 21
-1388.934921158609
 31
0.0
  0
LINE
  5
25620
102
{ACAD_REACTORS
330
2564B
102
}
330
18
100
AcDbEntity
  8
二点鎖線
100
AcDbLine
 10
280.510062065618
 20
-1389.434921158609
 30
0.0
 11
285.5100620656179
 21
-1389.434921158609
 31
0.0
  0
LINE
  5
25621
102
{ACAD_REACTORS
330
2564B
102
}
330
18
100
AcDbEntity
  8
二点鎖線
100
AcDbLine
 10
277.5100620656179
 20
-1348.934921158609
 30
0.0
 11
277.5100620656179
 21
-1377.934921158609
 31
0.0
  0
LINE
  5
25622
102
{ACAD_REACTORS
330
2564B
102
}
330
18
100
AcDbEntity
  8
二点鎖線
100
AcDbLine
 10
273.5100620656179
 20
-1377.934921158609
 30
0.0
 11
273.5100620656179
 21
-1348.934921158609
 31
0.0
  0
LINE
  5
25623
102
{ACAD_REACTORS
330
2564B
102
}
330
18
100
AcDbEntity
  8
中心線
100
AcDbLine
 10
271.9457148070363
 20
-1382.43492544925
 30
0.0
 11
278.8990785913097
 21
-1382.43492544925
 31
0.0
  0
LINE
  5
25624
102
{ACAD_REACTORS
330
2564B
102
}
330
18
100
AcDbEntity
  8
二点鎖線
100
AcDbLine
 10
275.63646756895
 20
-1382.43492544925
 30
0.0
 11
277.3577637331209
 21
-1380.713629285079
 31
0.0
  0
LINE
  5
25625
102
{ACAD_REACTORS
330
2564B
102
}
330
18
100
AcDbEntity
  8
二点鎖線
100
AcDbLine
 10
275.5100620656179
 20
-1381.677447476099
 30
0.0
 11
276.8763124052245
 21
-1380.311197136492
 31
0.0
  0
LINE
  5
25626
102
{ACAD_REACTORS
330
2564B
102
}
330
18
100
AcDbEntity
  8
二点鎖線
100
AcDbLine
 10
276.5203510454333
 20
-1382.43492544925
 30
0.0
 11
277.7278828275506
 21
-1381.227393667133
 31
0.0
  0
CIRCLE
  5
25627
102
{ACAD_REACTORS
330
2564B
102
}
330
18
100
AcDbEntity
  8
二点鎖線
100
AcDbCircle
 10
275.5100620656179
 20
-1382.43492544925
 30
0.0
 40
2.525244926117465
  0
LINE
  5
25628
102
{ACAD_REACTORS
330
2564B
102
}
330
18
100
AcDbEntity
  8
二点鎖線
100
AcDbLine
 10
275.5100620656179
 20
-1380.793563999614
 30
0.0
 11
276.2752294156031
 21
-1380.02839664963
 31
0.0
  0
LINE
  5
25629
102
{ACAD_REACTORS
330
2564B
102
}
330
18
100
AcDbEntity
  8
二点鎖線
100
AcDbLine
 10
274.3025302835011
 20
-1384.652746211181
 30
0.0
 11
275.5100620656179
 21
-1383.445214429064
 31
0.0
  0
LINE
  5
2562A
102
{ACAD_REACTORS
330
2564B
102
}
330
18
100
AcDbEntity
  8
二点鎖線
100
AcDbLine
 10
274.943391825609
 20
-1384.895768145557
 30
0.0
 11
275.5100620656179
 21
-1384.329097905548
 31
0.0
  0
ARC
  5
2562B
102
{ACAD_REACTORS
330
2564B
102
}
330
18
100
AcDbEntity
  8
二点鎖線
100
AcDbCircle
 10
272.010062065618
 20
-1377.934943158609
 30
0.0
 40
1.5
100
AcDbArc
 50
270.0
 51
0.0
  0
LINE
  5
2562C
102
{ACAD_REACTORS
330
2564B
102
}
330
18
100
AcDbEntity
  8
二点鎖線
100
AcDbLine
 10
273.1035332659984
 20
-1383.200092799234
 30
0.0
 11
273.8687006159839
 21
-1382.43492544925
 31
0.0
  0
LINE
  5
2562D
102
{ACAD_REACTORS
330
2564B
102
}
330
18
100
AcDbEntity
  8
二点鎖線
100
AcDbLine
 10
273.3863337528608
 20
-1383.801175788857
 30
0.0
 11
274.7525840924668
 21
-1382.43492544925
 31
0.0
  0
LINE
  5
2562E
102
{ACAD_REACTORS
330
2564B
102
}
330
18
100
AcDbEntity
  8
二点鎖線
100
AcDbLine
 10
273.7887659014471
 20
-1384.282627116752
 30
0.0
 11
275.5100620656179
 21
-1382.561330952582
 31
0.0
  0
LINE
  5
2562F
102
{ACAD_REACTORS
330
2564B
102
}
330
18
100
AcDbEntity
  8
二点鎖線
100
AcDbLine
 10
270.510062065618
 20
-1385.434921158609
 30
0.0
 11
271.1367605417219
 21
-1385.934921158609
 31
0.0
  0
LINE
  5
25630
102
{ACAD_REACTORS
330
2564B
102
}
330
18
100
AcDbEntity
  8
二点鎖線
100
AcDbLine
 10
271.5100620656179
 20
-1382.434921158609
 30
0.0
 11
271.0100811952638
 21
-1381.727610255331
 31
0.0
  0
LINE
  5
25631
102
{ACAD_REACTORS
330
2564B
102
}
330
18
100
AcDbEntity
  8
二点鎖線
100
AcDbLine
 10
272.510062065618
 20
-1388.934921158609
 30
0.0
 11
273.5100620656179
 21
-1387.434921158609
 31
0.0
  0
LINE
  5
25632
102
{ACAD_REACTORS
330
2564B
102
}
330
18
100
AcDbEntity
  8
二点鎖線
100
AcDbLine
 10
270.510062065618
 20
-1389.434921158609
 30
0.0
 11
271.1367605417219
 21
-1388.934921158609
 31
0.0
  0
LINE
  5
25633
102
{ACAD_REACTORS
330
2564B
102
}
330
18
100
AcDbEntity
  8
二点鎖線
100
AcDbLine
 10
270.5100429359721
 20
-1389.434921158609
 30
0.0
 11
270.5100429359721
 21
-1385.434921158609
 31
0.0
  0
LINE
  5
25634
102
{ACAD_REACTORS
330
2564B
102
}
330
18
100
AcDbEntity
  8
二点鎖線
100
AcDbLine
 10
272.5100429359721
 20
-1385.934921158609
 30
0.0
 11
273.5100620656179
 21
-1387.434921158609
 31
0.0
  0
LINE
  5
25635
102
{ACAD_REACTORS
330
2564B
102
}
330
18
100
AcDbEntity
  8
二点鎖線
100
AcDbLine
 10
272.5100429359721
 20
-1385.934921158609
 30
0.0
 11
272.510062065618
 21
-1388.934921158609
 31
0.0
  0
LINE
  5
25636
102
{ACAD_REACTORS
330
2564B
102
}
330
18
100
AcDbEntity
  8
二点鎖線
100
AcDbLine
 10
271.5100811952638
 20
-1390.434921158609
 30
0.0
 11
271.5100620656179
 21
-1382.434921158609
 31
0.0
  0
LINE
  5
25637
102
{ACAD_REACTORS
330
2564B
102
}
330
18
100
AcDbEntity
  8
二点鎖線
100
AcDbLine
 10
271.0100811952638
 20
-1390.434921158609
 30
0.0
 11
271.0100811952638
 21
-1381.434921158609
 31
0.0
  0
LINE
  5
25638
102
{ACAD_REACTORS
330
2564B
102
}
330
18
100
AcDbEntity
  8
中心線
100
AcDbLine
 10
281.5100620656179
 20
-1378.851849743075
 30
0.0
 11
281.5100620656179
 21
-1391.434921158609
 31
0.0
  0
LINE
  5
25639
102
{ACAD_REACTORS
330
2564B
102
}
330
18
100
AcDbEntity
  8
二点鎖線
100
AcDbLine
 10
279.5100620656179
 20
-1382.434921158609
 30
0.0
 11
280.0100429359721
 21
-1381.727610255331
 31
0.0
  0
LINE
  5
2563A
102
{ACAD_REACTORS
330
2564B
102
}
330
18
100
AcDbEntity
  8
二点鎖線
100
AcDbLine
 10
280.510062065618
 20
-1385.434921158609
 30
0.0
 11
279.8833635895141
 21
-1385.934921158609
 31
0.0
  0
LINE
  5
2563B
102
{ACAD_REACTORS
330
2564B
102
}
330
18
100
AcDbEntity
  8
二点鎖線
100
AcDbLine
 10
281.5100429359722
 20
-1380.434921158609
 30
0.0
 11
280.0100429359721
 21
-1381.434921158609
 31
0.0
  0
LINE
  5
2563C
102
{ACAD_REACTORS
330
2564B
102
}
330
18
100
AcDbEntity
  8
二点鎖線
100
AcDbLine
 10
283.0100429359721
 20
-1381.434921158609
 30
0.0
 11
280.0100429359721
 21
-1381.434921158609
 31
0.0
  0
LINE
  5
2563D
102
{ACAD_REACTORS
330
2564B
102
}
330
18
100
AcDbEntity
  8
二点鎖線
100
AcDbLine
 10
283.0100429359721
 20
-1381.434921158609
 30
0.0
 11
281.5100429359722
 21
-1380.434921158609
 31
0.0
  0
LINE
  5
2563E
102
{ACAD_REACTORS
330
2564B
102
}
330
18
100
AcDbEntity
  8
二点鎖線
100
AcDbLine
 10
280.510062065618
 20
-1389.434921158609
 30
0.0
 11
279.8833635895141
 21
-1388.934921158609
 31
0.0
  0
LINE
  5
2563F
102
{ACAD_REACTORS
330
2564B
102
}
330
18
100
AcDbEntity
  8
二点鎖線
100
AcDbLine
 10
278.5100811952637
 20
-1385.934921158609
 30
0.0
 11
278.510062065618
 21
-1388.934921158609
 31
0.0
  0
LINE
  5
25640
102
{ACAD_REACTORS
330
2564B
102
}
330
18
100
AcDbEntity
  8
二点鎖線
100
AcDbLine
 10
279.5100429359722
 20
-1390.434921158609
 30
0.0
 11
279.5100620656179
 21
-1382.434921158609
 31
0.0
  0
LINE
  5
25641
102
{ACAD_REACTORS
330
2564B
102
}
330
18
100
AcDbEntity
  8
二点鎖線
100
AcDbLine
 10
280.5100811952637
 20
-1389.434921158609
 30
0.0
 11
280.5100811952637
 21
-1385.434921158609
 31
0.0
  0
LINE
  5
25642
102
{ACAD_REACTORS
330
2564B
102
}
330
18
100
AcDbEntity
  8
二点鎖線
100
AcDbLine
 10
280.0100429359721
 20
-1390.434921158609
 30
0.0
 11
280.0100429359721
 21
-1381.434921158609
 31
0.0
  0
LINE
  5
25643
102
{ACAD_REACTORS
330
2564B
102
}
330
18
100
AcDbEntity
  8
二点鎖線
100
AcDbLine
 10
283.0100429359721
 20
-1381.434921158609
 30
0.0
 11
283.0100429359721
 21
-1390.434921158609
 31
0.0
  0
LINE
  5
25644
102
{ACAD_REACTORS
330
2564B
102
}
330
18
100
AcDbEntity
  8
二点鎖線
100
AcDbLine
 10
277.4042345219168
 20
-1382.43492544925
 30
0.0
 11
277.9709047619255
 21
-1381.868255209241
 31
0.0
  0
ARC
  5
25645
102
{ACAD_REACTORS
330
2564B
102
}
330
18
100
AcDbEntity
  8
二点鎖線
100
AcDbCircle
 10
279.010062065618
 20
-1377.934943158609
 30
0.0
 40
1.5
100
AcDbArc
 50
180.0
 51
270.0
  0
LINE
  5
25646
102
{ACAD_REACTORS
330
2564B
102
}
330
18
100
AcDbEntity
  8
二点鎖線
100
AcDbLine
 10
278.510062065618
 20
-1388.934921158609
 30
0.0
 11
277.5100620656179
 21
-1387.434921158609
 31
0.0
  0
LINE
  5
25647
102
{ACAD_REACTORS
330
2564B
102
}
330
18
100
AcDbEntity
  8
二点鎖線
100
AcDbLine
 10
278.5100811952637
 20
-1385.934921158609
 30
0.0
 11
277.5100620656179
 21
-1387.434921158609
 31
0.0
  0
LINE
  5
25648
102
{ACAD_REACTORS
330
2564B
102
}
330
18
100
AcDbEntity
  8
二点鎖線
100
AcDbLine
 10
273.5100620656179
 20
-1348.934921158609
 30
0.0
 11
277.5100620656179
 21
-1348.934921158609
 31
0.0
  0
LINE
  5
25649
102
{ACAD_REACTORS
330
2564B
102
}
330
18
100
AcDbEntity
  8
二点鎖線
100
AcDbLine
 10
283.5100620656179
 20
-1382.434921158609
 30
0.0
 11
283.5100429359722
 21
-1390.434921158609
 31
0.0
  0
LINE
  5
2564A
102
{ACAD_REACTORS
330
2564B
102
}
330
18
100
AcDbEntity
  8
中心線
100
AcDbLine
 10
275.5100620656179
 20
-1337.505158290801
 30
0.0
 11
275.5100620656179
 21
-1396.247506794479
 31
0.0
  0
LWPOLYLINE
  5
2565F
102
{ACAD_REACTORS
330
25663
330
25664
102
}
330
18
100
AcDbEntity
  8
実線
100
AcDbPolyline
 90
        4
 70
     1
 43
0.0
 10
286.0100620656178
 20
-1340.43494315861
 10
282.1100620656181
 20
-1340.43494315861
 10
282.1100620656181
 20
-1378.434943158609
 10
286.0100620656178
 20
-1378.434943158609
  0
LINE
  5
25660
102
{ACAD_REACTORS
330
25663
330
25664
102
}
330
18
100
AcDbEntity
  8
破線
 48
5.0
100
AcDbLine
 10
286.0100276215221
 20
-1349.184925103999
 30
0.0
 11
282.1100620656181
 21
-1349.184925103999
 31
0.0
  0
LINE
  5
25661
102
{ACAD_REACTORS
330
25663
330
25664
102
}
330
18
100
AcDbEntity
  8
破線
 48
5.0
100
AcDbLine
 10
286.0100620656178
 20
-1341.684925103999
 30
0.0
 11
282.1100267612068
 21
-1341.684925103999
 31
0.0
  0
CIRCLE
  5
2574A
330
18
100
AcDbEntity
  8
実線
100
AcDbCircle
 10
149.2830429493851
 20
-1345.434961213219
 30
0.0
 40
2.1
  0
LWPOLYLINE
  5
257F8
330
18
100
AcDbEntity
  8
実線
100
AcDbPolyline
 90
        4
 70
     1
 43
0.0
 10
278.010062065618
 20
-1377.934943158609
 10
282.010062065618
 20
-1377.934943158609
 10
282.010062065618
 20
-1352.934943158609
 10
278.010062065618
 20
-1352.934943158609
  0
VIEWPORT
  5
23
330
15
100
AcDbEntity
 67
     1
  8
0
100
AcDbViewport
 10
205.5411542693071
 20
143.9967317271734
 30
0.0
 40
653.5042693737826
 41
299.1093293663083
 68
     1
 69
     1
1001
ACAD
1000
MVIEW
1002
{
1070
    16
1010
0.0
1020
0.0
1030
0.0
1010
0.0
1020
0.0
1030
1.0
1040
0.0
1040
299.1093293663083
1040
205.5411542693071
1040
143.9967317271734
1040
50.0
1040
0.0
1040
0.0
1070
     0
1070
 10000
1070
     1
1070
     0
1070
     0
1070
     0
1070
     0
1070
     0
1040
0.0
1040
0.0
1040
0.0
1040
10.0
1040
10.0
1040
10.0
1040
10.0
1070
     0
1002
{
1002
}
1002
}
  0
VIEWPORT
  5
2E
330
15
100
AcDbEntity
 67
     1
  8
M_VIEW
100
AcDbViewport
 10
200.0
 20
144.0
 30
0.0
 40
400.0
 41
288.0
 68
     2
 69
     2
1001
ACAD
1000
MVIEW
1002
{
1070
    16
1010
0.0
1020
0.0
1030
0.0
1010
0.0
1020
0.0
1030
1.0
1040
0.0
1040
288.0
1040
218.371088883775
1040
-1372.96227952872
1040
50.0
1040
0.0
1040
0.0
1070
     0
1070
 10000
1070
     1
1070
     0
1070
     0
1070
     0
1070
     0
1070
     0
1040
0.0
1040
0.0
1040
0.0
1040
10.0
1040
10.0
1040
10.0
1040
10.0
1070
     0
1002
{
1002
}
1002
}
  0
INSERT
  5
115F
330
15
100
AcDbEntity
 67
     1
  8
FRAME025
100
AcDbBlockReference
  2
機械A4横_LBP
 10
82.74908858651452
 20
152.030959079227
 30
0.0
  0
TEXT
  5
AA6A
330
15
100
AcDbEntity
 67
     1
  8
文字
  6
BYBLOCK
 62
     0
100
AcDbText
 10
32.81885892396519
 20
73.01882819621747
 30
0.0
 40
3.2
  1

 50
90.0
 41
0.625
  7
MSｺ_ｼｯｸ
100
AcDbText
  0
TEXT
  5
AA6C
330
15
100
AcDbEntity
 67
     1
  8
文字
  6
BYBLOCK
 62
     0
100
AcDbText
 10
37.25020936743055
 20
73.01882819621747
 30
0.0
 40
3.2
  1

 50
90.0
 41
0.625
  7
MSｺ_ｼｯｸ
100
AcDbText
  0
TEXT
  5
FCA5
330
15
100
AcDbEntity
 67
     1
  8
FRAME020
  6
CONTINUOUS
100
AcDbText
 10
126.6213117262079
 20
29.63926951973459
 30
0.0
 40
2.5
  1

 41
0.625
  7
MSｺ_ｼｯｸ
100
AcDbText
  0
TEXT
  5
12229
330
15
100
AcDbEntity
 67
     1
  8
0
100
AcDbText
 10
324.4093404637501
 20
9.631146838661264
 30
0.0
 40
6.5
  1
ＳＥ－３７８７２
100
AcDbText
  0
TEXT
  5
2585F
330
15
100
AcDbEntity
 67
     1
  8
FRAME020
  6
CONTINUOUS
100
AcDbText
 10
120.8652350702617
 20
13.96666666666598
 30
0.0
 40
4.0
  1
Ｒ１－６９２３０
 41
0.625
100
AcDbText
  0
TEXT
  5
25860
330
15
100
AcDbEntity
 67
     1
  8
FRAME020
  6
CONTINUOUS
100
AcDbText
 10
129.8652350702615
 20
18.96666666666598
 30
0.0
 40
4.0
  1
１
 41
0.625
100
AcDbText
  0
TEXT
  5
25861
330
15
100
AcDbEntity
 67
     1
  8
FRAME020
  6
CONTINUOUS
100
AcDbText
 10
121.8666920704527
 20
18.78333333333637
 30
0.0
 40
3.5
  1
Ａ
 72
     1
 11
123.500025403786
 21
18.78333333333637
 31
0.0
100
AcDbText
  0
TEXT
  5
25862
330
15
100
AcDbEntity
 67
     1
  8
FRAME020
  6
CONTINUOUS
100
AcDbText
 10
145.8960540858611
 20
19.35134447262123
 30
0.0
 40
3.5
  1
１. 銘板及び合格証貼付位置変更
 41
0.7
100
AcDbText
  0
TEXT
  5
25866
330
15
100
AcDbEntity
 67
     1
  8
FRAME020
  6
CONTINUOUS
100
AcDbText
 10
271.0999999999999
 20
23.5
 30
0.0
 40
6.0
  1
伊藤
 72
     1
 11
277.4999999999999
 21
26.5
 31
0.0
100
AcDbText
 73
     2
  0
TEXT
  5
25867
330
15
100
AcDbEntity
 67
     1
  8
FRAME020
  6
CONTINUOUS
100
AcDbText
 10
249.5
 20
23.5
 30
0.0
 40
6.0
  1
久保木
 41
0.8
 72
     1
 11
257.5
 21
26.5
 31
0.0
100
AcDbText
 73
     2
  0
TEXT
  5
25868
330
15
100
AcDbEntity
 67
     1
  8
FRAME020
  6
CONTINUOUS
100
AcDbText
 10
231.0999999999999
 20
23.5
 30
0.0
 40
6.0
  1
大湊
 72
     1
 11
237.5
 21
26.5
 31
0.0
100
AcDbText
 73
     2
  0
TEXT
  5
25869
330
15
100
AcDbEntity
 67
     1
  8
FRAME020
  6
CONTINUOUS
100
AcDbText
 10
268.7667857142856
 20
15.15
 30
0.0
 40
2.7
  1
'08.07.23
 41
0.95
  7
まこ
 72
     1
 11
277.4999999999999
 21
16.5
 31
0.0
100
AcDbText
 73
     2
  0
TEXT
  5
259B5
330
15
100
AcDbEntity
 67
     1
  8
FRAME020
  6
CONTINUOUS
100
AcDbText
 10
248.7667857142857
 20
15.15
 30
0.0
 40
2.7
  1
'08.07.23
 41
0.95
  7
まこ
 72
     1
 11
257.5
 21
16.5
 31
0.0
100
AcDbText
 73
     2
  0
TEXT
  5
259BB
330
15
100
AcDbEntity
 67
     1
  8
FRAME020
  6
CONTINUOUS
100
AcDbText
 10
228.827857142857
 20
15.15
 30
0.0
 40
2.7
  1
'08.07.26
 41
0.95
  7
まこ
 72
     1
 11
237.4999999999999
 21
16.5
 31
0.0
100
AcDbText
 73
     2
  0
MTEXT
  5
25A3A
330
15
100
AcDbEntity
 67
     1
  8
寸法
100
AcDbMText
 10
203.2894010765613
 20
25.65491452309582
 30
0.0
 40
6.0
 41
185.4683999999999
 71
     1
 72
     5
  1
τﾘﾆｱﾓｰﾀ ｺｱﾚｽ小推力 NLA-S MGﾍﾞｰｽ MBS48B (48mm)
  7
ｽﾀｲﾙ3
1001
ACAD
1000
MTEXTBEGIN
1070
    73
1070
     1
1070
    44
1040
1.0
1070
    74
1070
     0
1000
MTEXTEND
1000
MTEXTBEGIN
1070
    73
1070
     1
1070
    44
1040
1.0
1070
    74
1070
     0
1000
MTEXTEND
  0
ENDSEC
  0
SECTION
  2
OBJECTS
  0
DICTIONARY
  5
C
330
0
100
AcDbDictionary
  3
ACAD_GROUP
350
D
  3
ACAD_LAYOUT
350
DB2
  3
ACAD_MLINESTYLE
350
1B
  3
ACAD_PLOTSETTINGS
350
DB3
  3
ACAD_PLOTSTYLENAME
350
FB5B
  3
ACADDIM
350
22F5B
  3
ACDBHEADERROUNDTRIPXREC
350
25A78
  3
ACDBVARIABLEDICTIONARY
350
106A6
  3
ASE_INDEX_DICTIONARY
350
1A99F
  3
DWGPROPS
350
25A77
1001
ACAD
1000
TREAT_AS_HARD
1070
     0
  0
DICTIONARY
  5
246DA
330
2
100
AcDbDictionary
280
     1
  3
ACAD_LAYERFILTERS
360
246DB
  3
ACAD_LAYERSTATES
360
246F6
  0
DICTIONARY
  5
EFC6
330
18
100
AcDbDictionary
280
     1
  3
ACAD_LAYOUTSELFREF
360
25A9A
  0
DICTIONARY
  5
EFC4
330
15
100
AcDbDictionary
280
     1
  3
ACAD_LAYOUTSELFREF
360
25A99
  0
DICTIONARY
  5
D
102
{ACAD_REACTORS
330
C
102
}
330
C
100
AcDbDictionary
  3
*A1
350
AC8A
  3
*A10
350
ACA2
  3
*A100
350
23FED
  3
*A101
350
24BF6
  3
*A102
350
20218
  3
*A103
350
1606B
  3
*A104
350
16059
  3
*A105
350
20019
  3
*A106
350
23FEE
  3
*A107
350
22C3E
  3
*A108
350
198F1
  3
*A109
350
1F913
  3
*A11
350
ACAB
  3
*A110
350
196C2
  3
*A111
350
2001C
  3
*A112
350
1B756
  3
*A113
350
1F91D
  3
*A114
350
24979
  3
*A115
350
173BF
  3
*A116
350
18F23
  3
*A117
350
19786
  3
*A118
350
18F20
  3
*A119
350
19F55
  3
*A12
350
19A86
  3
*A120
350
20222
  3
*A121
350
25663
  3
*A122
350
1B732
  3
*A123
350
238E7
  3
*A124
350
1D6AC
  3
*A125
350
22BAA
  3
*A126
350
22BA9
  3
*A127
350
1D6F2
  3
*A128
350
24BFD
  3
*A129
350
1D710
  3
*A13
350
1A695
  3
*A130
350
20231
  3
*A131
350
22F5A
  3
*A132
350
FC9A
  3
*A133
350
19A51
  3
*A134
350
232A7
  3
*A135
350
19F99
  3
*A136
350
233AD
  3
*A137
350
23FEB
  3
*A138
350
1A09A
  3
*A139
350
19256
  3
*A14
350
22982
  3
*A140
350
19F87
  3
*A141
350
255CA
  3
*A142
350
19AA4
  3
*A143
350
25730
  3
*A144
350
238A6
  3
*A145
350
2297E
  3
*A146
350
20022
  3
*A147
350
25664
  3
*A148
350
20010
  3
*A149
350
2564B
  3
*A15
350
1D6E8
  3
*A150
350
1D684
  3
*A151
350
18FA7
  3
*A152
350
24E30
  3
*A153
350
1AA94
  3
*A154
350
19FAB
  3
*A155
350
2297A
  3
*A156
350
FCB8
  3
*A157
350
FB6C
  3
*A158
350
1738B
  3
*A159
350
22986
  3
*A16
350
173BE
  3
*A160
350
24C2B
  3
*A161
350
233BC
  3
*A162
350
20025
  3
*A163
350
20CA6
  3
*A164
350
173BD
  3
*A165
350
FC91
  3
*A166
350
24BF7
  3
*A167
350
24C1E
  3
*A168
350
1B720
  3
*A169
350
232A6
  3
*A17
350
2002B
  3
*A170
350
1D68E
  3
*A171
350
19A52
  3
*A172
350
24C27
  3
*A173
350
1D6C0
  3
*A174
350
1F918
  3
*A175
350
1B73B
  3
*A176
350
106C6
  3
*A177
350
1A691
  3
*A178
350
22BAB
  3
*A179
350
19A5A
  3
*A18
350
17BFF
  3
*A180
350
20236
  3
*A181
350
1D6B6
  3
*A182
350
19259
  3
*A183
350
1B729
  3
*A184
350
1EB7E
  3
*A185
350
17389
  3
*A186
350
2497A
  3
*A187
350
1EB80
  3
*A188
350
2001F
  3
*A189
350
23027
  3
*A19
350
2020E
  3
*A190
350
232A9
  3
*A191
350
2586C
  3
*A192
350
22BA8
  3
*A193
350
1F8FA
  3
*A2
350
2565E
  3
*A20
350
1D706
  3
*A21
350
1998A
  3
*A22
350
17B11
  3
*A23
350
232AA
  3
*A24
350
106C7
  3
*A25
350
19881
  3
*A26
350
18FA8
  3
*A27
350
ACBD
  3
*A28
350
19255
  3
*A29
350
24C31
  3
*A3
350
1D670
  3
*A30
350
232A8
  3
*A31
350
23887
  3
*A32
350
1EB7D
  3
*A33
350
16058
  3
*A34
350
FC95
  3
*A35
350
1D6DE
  3
*A36
350
238A8
  3
*A37
350
106A5
  3
*A38
350
23FEF
  3
*A39
350
1D6CA
  3
*A4
350
16069
  3
*A40
350
18F1F
  3
*A41
350
2560B
  3
*A42
350
FC9B
  3
*A43
350
20209
  3
*A44
350
1D6D4
  3
*A45
350
215A2
  3
*A46
350
1D698
  3
*A47
350
1B74D
  3
*A48
350
20213
  3
*A49
350
23871
  3
*A5
350
1F8F0
  3
*A50
350
1D6FC
  3
*A51
350
1F909
  3
*A52
350
ACA1
  3
*A53
350
2387C
  3
*A54
350
19794
  3
*A55
350
18F22
  3
*A56
350
1F8FF
  3
*A57
350
20013
  3
*A58
350
1B744
  3
*A59
350
2022C
  3
*A6
350
20227
  3
*A60
350
19989
  3
*A61
350
19F67
  3
*A62
350
169DA
  3
*A63
350
1EB7C
  3
*A64
350
19988
  3
*A65
350
20CA2
  3
*A66
350
1F904
  3
*A67
350
23FF0
  3
*A68
350
24E2F
  3
*A69
350
1D6A2
  3
*A7
350
FB6B
  3
*A70
350
1738A
  3
*A71
350
17901
  3
*A72
350
233BB
  3
*A73
350
252E2
  3
*A74
350
1D67A
  3
*A75
350
19729
  3
*A76
350
16068
  3
*A77
350
1EB7F
  3
*A78
350
20028
  3
*A79
350
2021D
  3
*A8
350
1A692
  3
*A80
350
2338E
  3
*A81
350
106B3
  3
*A82
350
19861
  3
*A83
350
20016
  3
*A84
350
23FEA
  3
*A85
350
18FA6
  3
*A86
350
2338F
  3
*A87
350
1F8F5
  3
*A88
350
24C2E
  3
*A89
350
2339D
  3
*A9
350
FBFF
  3
*A90
350
1606A
  3
*A91
350
1F90E
  3
*A92
350
ACB4
  3
*A93
350
2339E
  3
*A94
350
19787
  3
*A95
350
238A7
  3
*A96
350
23FEC
  3
*A97
350
18F21
  3
*A98
350
AC9A
  3
*A99
350
233AC
1001
ACAD
1000
TREAT_AS_HARD
1070
     0
  0
DICTIONARY
  5
DB2
102
{ACAD_REACTORS
330
C
102
}
330
C
100
AcDbDictionary
1001
ACAD
1000
TREAT_AS_HARD
1070
     0
  0
DICTIONARY
  5
1B
102
{ACAD_REACTORS
330
C
102
}
330
C
100
AcDbDictionary
  3
STANDARD
350
1C
1001
ACAD
1000
TREAT_AS_HARD
1070
     0
  0
DICTIONARY
  5
DB3
102
{ACAD_REACTORS
330
C
102
}
330
C
100
AcDbDictionary
1001
ACAD
1000
TREAT_AS_HARD
1070
     0
  0
ACDBDICTIONARYWDFLT
  5
FB5B
102
{ACAD_REACTORS
330
C
102
}
330
C
100
AcDbDictionary
281
     1
  3
Normal
350
FB5C
100
AcDbDictionaryWithDefault
340
FB5C
  0
XRECORD
  5
22F5B
102
{ACAD_REACTORS
330
C
102
}
330
C
100
AcDbXrecord
 90
   990106
  3

 60
     0
 61
     0
 62
     4
 63
     4
 64
     1
 65
     0
 66
     0
 67
     3
 68
     1
 69
     0
 70
     0
 71
     0
 72
     0
 40
0.0
170
     2
340
0
  0
DICTIONARY
  5
25A78
102
{ACAD_REACTORS
330
C
102
}
330
C
100
AcDbDictionary
  3
CEPSNTYPE
350
25A82
  3
DIMSTYLEDATA
350
25A86
  3
FINGERPRINTGUID
350
25A83
  3
HYPERLINKBASE
350
25A7B
  3
INSUNITS
350
25A81
  3
LAYOUTDICT
350
25A7D
  3
LWETCUNION
350
25A80
  3
PLOTSETDICT
350
25A7E
  3
PLOTSTYLNAMDICT
350
25A7F
  3
PSVPSCALE
350
25A85
  3
PUCSBASE
350
25A89
  3
PUCSORGBACK
350
25A8F
  3
PUCSORGBOTTOM
350
25A8B
  3
PUCSORGFRONT
350
25A8E
  3
PUCSORGLEFT
350
25A8C
  3
PUCSORGRIGHT
350
25A8D
  3
PUCSORGTOP
350
25A8A
  3
PUCSORTHOREF
350
25A87
  3
PUCSORTHOVIEW
350
25A88
  3
STYLESHEET
350
25A7C
  3
TSTACKALIGN
350
25A79
  3
TSTACKSIZE
350
25A7A
  3
UCSBASE
350
25A92
  3
UCSORGBACK
350
25A98
  3
UCSORGBOTTOM
350
25A94
  3
UCSORGFRONT
350
25A97
  3
UCSORGLEFT
350
25A95
  3
UCSORGRIGHT
350
25A96
  3
UCSORGTOP
350
25A93
  3
UCSORTHOREF
350
25A90
  3
UCSORTHOVIEW
350
25A91
  3
VERSIONGUID
350
25A84
  0
DICTIONARY
  5
106A6
102
{ACAD_REACTORS
330
C
102
}
330
C
100
AcDbDictionary
  3
DIMASSOC
350
24517
  3
SORTENTS
350
106A7
  0
DICTIONARY
  5
1A99F
102
{ACAD_REACTORS
330
C
102
}
330
C
100
AcDbDictionary
  3
ASEBLOCKHIERARCHYINDEXRECORD
350
1A9A1
1001
DCO15
1040
1464612067.17
  0
XRECORD
  5
25A77
102
{ACAD_REACTORS
330
C
102
}
330
C
100
AcDbXrecord
  1
DWGPROPS COOKIE
  2

  3

  4

  6

  7

  8

  9

300
=
301
=
302
=
303
=
304
=
305
=
306
=
307
=
308
=
309
=
 40
16.90659603009259
 41
2451224.660162384
 42
2455601.667940173
  1

 90
        0
  0
DICTIONARY
  5
246DB
102
{ACAD_REACTORS
330
246DA
102
}
330
246DA
100
AcDbDictionary
280
     1
  3
0
360
246DC
  3
11
360
246DD
  3
150_
360
246DE
  3
160_
360
246DF
  3
170_
360
246E0
  3
171_
360
246E1
  3
350_
360
246E2
  3
4
360
246E3
  3
5
360
246E4
  3
7
360
246E5
  3
KISEKI
360
246E6
  0
DICTIONARY
  5
246F6
102
{ACAD_REACTORS
330
246DA
102
}
330
246DA
100
AcDbDictionary
  0
XRECORD
  5
25A9A
102
{ACAD_REACTORS
330
EFC6
102
}
330
EFC6
100
AcDbXrecord
340
18
  0
XRECORD
  5
25A99
102
{ACAD_REACTORS
330
EFC4
102
}
330
EFC4
100
AcDbXrecord
340
15
  0
GROUP
  5
AC8A
102
{ACAD_REACTORS
330
D
102
}
330
D
100
AcDbGroup
300

 70
     1
 71
     1
  0
GROUP
  5
ACA2
102
{ACAD_REACTORS
330
D
102
}
330
D
100
AcDbGroup
300

 70
     1
 71
     1
  0
GROUP
  5
23FED
102
{ACAD_REACTORS
330
D
102
}
330
D
100
AcDbGroup
300

 70
     1
 71
     1
  0
GROUP
  5
24BF6
102
{ACAD_REACTORS
330
D
102
}
330
D
100
AcDbGroup
300

 70
     1
 71
     1
340
24ABF
340
24AB4
340
24AB6
340
24AB9
340
24AC2
340
24AC0
340
24ABE
340
24ABD
340
24ABC
340
24ABB
340
24AC1
  0
GROUP
  5
20218
102
{ACAD_REACTORS
330
D
102
}
330
D
100
AcDbGroup
300

 70
     1
 71
     1
  0
GROUP
  5
1606B
102
{ACAD_REACTORS
330
D
102
}
330
D
100
AcDbGroup
300

 70
     1
 71
     1
  0
GROUP
  5
16059
102
{ACAD_REACTORS
330
D
102
}
330
D
100
AcDbGroup
300

 70
     1
 71
     1
  0
GROUP
  5
20019
102
{ACAD_REACTORS
330
D
102
}
330
D
100
AcDbGroup
300

 70
     1
 71
     1
  0
GROUP
  5
23FEE
102
{ACAD_REACTORS
330
D
102
}
330
D
100
AcDbGroup
300

 70
     1
 71
     1
  0
GROUP
  5
22C3E
102
{ACAD_REACTORS
330
D
102
}
330
D
100
AcDbGroup
300

 70
     1
 71
     1
  0
GROUP
  5
198F1
102
{ACAD_REACTORS
330
D
102
}
330
D
100
AcDbGroup
300

 70
     1
 71
     1
  0
GROUP
  5
1F913
102
{ACAD_REACTORS
330
D
102
}
330
D
100
AcDbGroup
300

 70
     1
 71
     1
  0
GROUP
  5
ACAB
102
{ACAD_REACTORS
330
D
102
}
330
D
100
AcDbGroup
300

 70
     1
 71
     1
  0
GROUP
  5
196C2
102
{ACAD_REACTORS
330
D
102
}
330
D
100
AcDbGroup
300

 70
     1
 71
     1
  0
GROUP
  5
2001C
102
{ACAD_REACTORS
330
D
102
}
330
D
100
AcDbGroup
300

 70
     1
 71
     1
  0
GROUP
  5
1B756
102
{ACAD_REACTORS
330
D
102
}
330
D
100
AcDbGroup
300

 70
     1
 71
     1
  0
GROUP
  5
1F91D
102
{ACAD_REACTORS
330
D
102
}
330
D
100
AcDbGroup
300

 70
     1
 71
     1
  0
GROUP
  5
24979
102
{ACAD_REACTORS
330
D
102
}
330
D
100
AcDbGroup
300

 70
     1
 71
     1
340
2494F
340
24941
340
24940
340
2493F
340
2493B
340
2494E
340
2494D
340
24944
340
24943
340
24942
340
2493E
340
24957
340
24956
340
24955
340
24950
340
2494C
340
24954
340
24953
340
24952
340
24951
  0
GROUP
  5
173BF
102
{ACAD_REACTORS
330
D
102
}
330
D
100
AcDbGroup
300

 70
     1
 71
     1
  0
GROUP
  5
18F23
102
{ACAD_REACTORS
330
D
102
}
330
D
100
AcDbGroup
300

 70
     1
 71
     1
  0
GROUP
  5
19786
102
{ACAD_REACTORS
330
D
102
}
330
D
100
AcDbGroup
300

 70
     1
 71
     1
  0
GROUP
  5
18F20
102
{ACAD_REACTORS
330
D
102
}
330
D
100
AcDbGroup
300

 70
     1
 71
     1
  0
GROUP
  5
19F55
102
{ACAD_REACTORS
330
D
102
}
330
D
100
AcDbGroup
300

 70
     1
 71
     1
  0
GROUP
  5
19A86
102
{ACAD_REACTORS
330
D
102
}
330
D
100
AcDbGroup
300

 70
     1
 71
     1
  0
GROUP
  5
20222
102
{ACAD_REACTORS
330
D
102
}
330
D
100
AcDbGroup
300

 70
     1
 71
     1
  0
GROUP
  5
25663
102
{ACAD_REACTORS
330
D
102
}
330
D
100
AcDbGroup
300

 70
     1
 71
     1
340
25660
340
25661
340
2565F
  0
GROUP
  5
1B732
102
{ACAD_REACTORS
330
D
102
}
330
D
100
AcDbGroup
300

 70
     1
 71
     1
  0
GROUP
  5
238E7
102
{ACAD_REACTORS
330
D
102
}
330
D
100
AcDbGroup
300

 70
     1
 71
     1
  0
GROUP
  5
1D6AC
102
{ACAD_REACTORS
330
D
102
}
330
D
100
AcDbGroup
300

 70
     1
 71
     1
  0
GROUP
  5
22BAA
102
{ACAD_REACTORS
330
D
102
}
330
D
100
AcDbGroup
300

 70
     1
 71
     1
  0
GROUP
  5
22BA9
102
{ACAD_REACTORS
330
D
102
}
330
D
100
AcDbGroup
300

 70
     1
 71
     1
  0
GROUP
  5
1D6F2
102
{ACAD_REACTORS
330
D
102
}
330
D
100
AcDbGroup
300

 70
     1
 71
     1
  0
GROUP
  5
24BFD
102
{ACAD_REACTORS
330
D
102
}
330
D
100
AcDbGroup
300

 70
     1
 71
     1
  0
GROUP
  5
1D710
102
{ACAD_REACTORS
330
D
102
}
330
D
100
AcDbGroup
300

 70
     1
 71
     1
  0
GROUP
  5
1A695
102
{ACAD_REACTORS
330
D
102
}
330
D
100
AcDbGroup
300

 70
     1
 71
     1
  0
GROUP
  5
20231
102
{ACAD_REACTORS
330
D
102
}
330
D
100
AcDbGroup
300

 70
     1
 71
     1
  0
GROUP
  5
22F5A
102
{ACAD_REACTORS
330
D
102
}
330
D
100
AcDbGroup
300

 70
     1
 71
     1
  0
GROUP
  5
FC9A
102
{ACAD_REACTORS
330
D
102
}
330
D
100
AcDbGroup
300

 70
     1
 71
     1
  0
GROUP
  5
19A51
102
{ACAD_REACTORS
330
D
102
}
330
D
100
AcDbGroup
300

 70
     1
 71
     1
  0
GROUP
  5
232A7
102
{ACAD_REACTORS
330
D
102
}
330
D
100
AcDbGroup
300

 70
     1
 71
     1
  0
GROUP
  5
19F99
102
{ACAD_REACTORS
330
D
102
}
330
D
100
AcDbGroup
300

 70
     1
 71
     1
  0
GROUP
  5
233AD
102
{ACAD_REACTORS
330
D
102
}
330
D
100
AcDbGroup
300

 70
     1
 71
     1
  0
GROUP
  5
23FEB
102
{ACAD_REACTORS
330
D
102
}
330
D
100
AcDbGroup
300

 70
     1
 71
     1
  0
GROUP
  5
1A09A
102
{ACAD_REACTORS
330
D
102
}
330
D
100
AcDbGroup
300

 70
     1
 71
     1
  0
GROUP
  5
19256
102
{ACAD_REACTORS
330
D
102
}
330
D
100
AcDbGroup
300

 70
     1
 71
     1
  0
GROUP
  5
22982
102
{ACAD_REACTORS
330
D
102
}
330
D
100
AcDbGroup
300

 70
     1
 71
     1
  0
GROUP
  5
19F87
102
{ACAD_REACTORS
330
D
102
}
330
D
100
AcDbGroup
300

 70
     1
 71
     1
  0
GROUP
  5
255CA
102
{ACAD_REACTORS
330
D
102
}
330
D
100
AcDbGroup
300

 70
     1
 71
     1
  0
GROUP
  5
19AA4
102
{ACAD_REACTORS
330
D
102
}
330
D
100
AcDbGroup
300

 70
     1
 71
     1
  0
GROUP
  5
25730
102
{ACAD_REACTORS
330
D
102
}
330
D
100
AcDbGroup
300

 70
     1
 71
     1
340
24C58
340
24C42
340
24C47
340
24C46
340
24C57
340
24C56
340
24C83
340
24C81
340
24C80
  0
GROUP
  5
238A6
102
{ACAD_REACTORS
330
D
102
}
330
D
100
AcDbGroup
300

 70
     1
 71
     1
  0
GROUP
  5
2297E
102
{ACAD_REACTORS
330
D
102
}
330
D
100
AcDbGroup
300

 70
     1
 71
     1
  0
GROUP
  5
20022
102
{ACAD_REACTORS
330
D
102
}
330
D
100
AcDbGroup
300

 70
     1
 71
     1
  0
GROUP
  5
25664
102
{ACAD_REACTORS
330
D
102
}
330
D
100
AcDbGroup
300

 70
     1
 71
     1
340
2565F
340
25660
340
25661
  0
GROUP
  5
20010
102
{ACAD_REACTORS
330
D
102
}
330
D
100
AcDbGroup
300

 70
     1
 71
     1
  0
GROUP
  5
2564B
102
{ACAD_REACTORS
330
D
102
}
330
D
100
AcDbGroup
300

 70
     1
 71
     1
340
2560D
340
2560E
340
2560F
340
25610
340
25611
340
25612
340
25613
340
25614
340
2560C
340
25615
340
25616
340
25617
340
25618
340
25619
340
2561A
340
2561B
340
2561C
340
2561D
340
2561E
340
2561F
340
25620
340
25621
340
25622
340
25623
340
25624
340
25625
340
25626
340
25627
340
25628
340
25629
340
2562A
340
2562B
340
2562C
340
2562D
340
2562E
340
2562F
340
25630
340
25631
340
25632
340
25633
340
25634
340
25635
340
25636
340
25637
340
25638
340
25639
340
2563A
340
2563B
340
2563C
340
2563D
340
2563E
340
2563F
340
25640
340
25641
340
25642
340
25643
340
25644
340
25645
340
25646
340
25647
340
25648
340
25649
340
2564A
  0
GROUP
  5
1D6E8
102
{ACAD_REACTORS
330
D
102
}
330
D
100
AcDbGroup
300

 70
     1
 71
     1
  0
GROUP
  5
1D684
102
{ACAD_REACTORS
330
D
102
}
330
D
100
AcDbGroup
300

 70
     1
 71
     1
  0
GROUP
  5
18FA7
102
{ACAD_REACTORS
330
D
102
}
330
D
100
AcDbGroup
300

 70
     1
 71
     1
  0
GROUP
  5
24E30
102
{ACAD_REACTORS
330
D
102
}
330
D
100
AcDbGroup
300

 70
     1
 71
     1
340
24C51
340
24C4F
  0
GROUP
  5
1AA94
102
{ACAD_REACTORS
330
D
102
}
330
D
100
AcDbGroup
300

 70
     1
 71
     1
  0
GROUP
  5
19FAB
102
{ACAD_REACTORS
330
D
102
}
330
D
100
AcDbGroup
300

 70
     1
 71
     1
  0
GROUP
  5
2297A
102
{ACAD_REACTORS
330
D
102
}
330
D
100
AcDbGroup
300

 70
     1
 71
     1
  0
GROUP
  5
FCB8
102
{ACAD_REACTORS
330
D
102
}
330
D
100
AcDbGroup
300

 70
     1
 71
     1
  0
GROUP
  5
FB6C
102
{ACAD_REACTORS
330
D
102
}
330
D
100
AcDbGroup
300

 70
     1
 71
     1
  0
GROUP
  5
1738B
102
{ACAD_REACTORS
330
D
102
}
330
D
100
AcDbGroup
300

 70
     1
 71
     1
  0
GROUP
  5
22986
102
{ACAD_REACTORS
330
D
102
}
330
D
100
AcDbGroup
300

 70
     1
 71
     1
  0
GROUP
  5
173BE
102
{ACAD_REACTORS
330
D
102
}
330
D
100
AcDbGroup
300

 70
     1
 71
     1
  0
GROUP
  5
24C2B
102
{ACAD_REACTORS
330
D
102
}
330
D
100
AcDbGroup
300

 70
     1
 71
     1
  0
GROUP
  5
233BC
102
{ACAD_REACTORS
330
D
102
}
330
D
100
AcDbGroup
300

 70
     1
 71
     1
  0
GROUP
  5
20025
102
{ACAD_REACTORS
330
D
102
}
330
D
100
AcDbGroup
300

 70
     1
 71
     1
  0
GROUP
  5
20CA6
102
{ACAD_REACTORS
330
D
102
}
330
D
100
AcDbGroup
300

 70
     1
 71
     1
  0
GROUP
  5
173BD
102
{ACAD_REACTORS
330
D
102
}
330
D
100
AcDbGroup
300

 70
     1
 71
     1
  0
GROUP
  5
FC91
102
{ACAD_REACTORS
330
D
102
}
330
D
100
AcDbGroup
300

 70
     1
 71
     1
  0
GROUP
  5
24BF7
102
{ACAD_REACTORS
330
D
102
}
330
D
100
AcDbGroup
300

 70
     1
 71
     1
340
24AD3
340
24AD0
340
24ACD
  0
GROUP
  5
24C1E
102
{ACAD_REACTORS
330
D
102
}
330
D
100
AcDbGroup
300

 70
     1
 71
     1
340
24C1D
340
24C1C
  0
GROUP
  5
1B720
102
{ACAD_REACTORS
330
D
102
}
330
D
100
AcDbGroup
300

 70
     1
 71
     1
  0
GROUP
  5
232A6
102
{ACAD_REACTORS
330
D
102
}
330
D
100
AcDbGroup
300

 70
     1
 71
     1
  0
GROUP
  5
2002B
102
{ACAD_REACTORS
330
D
102
}
330
D
100
AcDbGroup
300

 70
     1
 71
     1
  0
GROUP
  5
1D68E
102
{ACAD_REACTORS
330
D
102
}
330
D
100
AcDbGroup
300

 70
     1
 71
     1
  0
GROUP
  5
19A52
102
{ACAD_REACTORS
330
D
102
}
330
D
100
AcDbGroup
300

 70
     1
 71
     1
  0
GROUP
  5
24C27
102
{ACAD_REACTORS
330
D
102
}
330
D
100
AcDbGroup
300

 70
     1
 71
     1
340
24AC1
340
24ABF
340
24AB4
340
24AB6
340
24AB9
340
24AC2
340
24AC0
340
24ABE
340
24ABD
340
24ABC
340
24ABB
340
24C21
340
24C23
340
24C1F
340
24C25
340
24C26
340
24C24
340
24C20
340
24C22
  0
GROUP
  5
1D6C0
102
{ACAD_REACTORS
330
D
102
}
330
D
100
AcDbGroup
300

 70
     1
 71
     1
  0
GROUP
  5
1F918
102
{ACAD_REACTORS
330
D
102
}
330
D
100
AcDbGroup
300

 70
     1
 71
     1
  0
GROUP
  5
1B73B
102
{ACAD_REACTORS
330
D
102
}
330
D
100
AcDbGroup
300

 70
     1
 71
     1
  0
GROUP
  5
106C6
102
{ACAD_REACTORS
330
D
102
}
330
D
100
AcDbGroup
300

 70
     1
 71
     1
  0
GROUP
  5
1A691
102
{ACAD_REACTORS
330
D
102
}
330
D
100
AcDbGroup
300

 70
     1
 71
     1
  0
GROUP
  5
22BAB
102
{ACAD_REACTORS
330
D
102
}
330
D
100
AcDbGroup
300

 70
     1
 71
     1
  0
GROUP
  5
19A5A
102
{ACAD_REACTORS
330
D
102
}
330
D
100
AcDbGroup
300

 70
     1
 71
     1
  0
GROUP
  5
17BFF
102
{ACAD_REACTORS
330
D
102
}
330
D
100
AcDbGroup
300

 70
     1
 71
     1
  0
GROUP
  5
20236
102
{ACAD_REACTORS
330
D
102
}
330
D
100
AcDbGroup
300

 70
     1
 71
     1
  0
GROUP
  5
1D6B6
102
{ACAD_REACTORS
330
D
102
}
330
D
100
AcDbGroup
300

 70
     1
 71
     1
  0
GROUP
  5
19259
102
{ACAD_REACTORS
330
D
102
}
330
D
100
AcDbGroup
300

 70
     1
 71
     1
  0
GROUP
  5
1B729
102
{ACAD_REACTORS
330
D
102
}
330
D
100
AcDbGroup
300

 70
     1
 71
     1
  0
GROUP
  5
1EB7E
102
{ACAD_REACTORS
330
D
102
}
330
D
100
AcDbGroup
300

 70
     1
 71
     1
  0
GROUP
  5
17389
102
{ACAD_REACTORS
330
D
102
}
330
D
100
AcDbGroup
300

 70
     1
 71
     1
  0
GROUP
  5
2497A
102
{ACAD_REACTORS
330
D
102
}
330
D
100
AcDbGroup
300

 70
     1
 71
     1
  0
GROUP
  5
1EB80
102
{ACAD_REACTORS
330
D
102
}
330
D
100
AcDbGroup
300

 70
     1
 71
     1
  0
GROUP
  5
2001F
102
{ACAD_REACTORS
330
D
102
}
330
D
100
AcDbGroup
300

 70
     1
 71
     1
  0
GROUP
  5
23027
102
{ACAD_REACTORS
330
D
102
}
330
D
100
AcDbGroup
300

 70
     1
 71
     1
  0
GROUP
  5
2020E
102
{ACAD_REACTORS
330
D
102
}
330
D
100
AcDbGroup
300

 70
     1
 71
     1
  0
GROUP
  5
232A9
102
{ACAD_REACTORS
330
D
102
}
330
D
100
AcDbGroup
300

 70
     1
 71
     1
  0
GROUP
  5
2586C
102
{ACAD_REACTORS
330
D
102
}
330
D
100
AcDbGroup
300

 70
     1
 71
     1
  0
GROUP
  5
22BA8
102
{ACAD_REACTORS
330
D
102
}
330
D
100
AcDbGroup
300

 70
     1
 71
     1
  0
GROUP
  5
1F8FA
102
{ACAD_REACTORS
330
D
102
}
330
D
100
AcDbGroup
300

 70
     1
 71
     1
  0
GROUP
  5
2565E
102
{ACAD_REACTORS
330
D
102
}
330
D
100
AcDbGroup
300

 70
     1
 71
     1
340
24ACD
340
24AD3
340
24AD0
  0
GROUP
  5
1D706
102
{ACAD_REACTORS
330
D
102
}
330
D
100
AcDbGroup
300

 70
     1
 71
     1
  0
GROUP
  5
1998A
102
{ACAD_REACTORS
330
D
102
}
330
D
100
AcDbGroup
300

 70
     1
 71
     1
  0
GROUP
  5
17B11
102
{ACAD_REACTORS
330
D
102
}
330
D
100
AcDbGroup
300

 70
     1
 71
     1
  0
GROUP
  5
232AA
102
{ACAD_REACTORS
330
D
102
}
330
D
100
AcDbGroup
300

 70
     1
 71
     1
  0
GROUP
  5
106C7
102
{ACAD_REACTORS
330
D
102
}
330
D
100
AcDbGroup
300

 70
     1
 71
     1
  0
GROUP
  5
19881
102
{ACAD_REACTORS
330
D
102
}
330
D
100
AcDbGroup
300

 70
     1
 71
     1
  0
GROUP
  5
18FA8
102
{ACAD_REACTORS
330
D
102
}
330
D
100
AcDbGroup
300

 70
     1
 71
     1
  0
GROUP
  5
ACBD
102
{ACAD_REACTORS
330
D
102
}
330
D
100
AcDbGroup
300

 70
     1
 71
     1
  0
GROUP
  5
19255
102
{ACAD_REACTORS
330
D
102
}
330
D
100
AcDbGroup
300

 70
     1
 71
     1
  0
GROUP
  5
24C31
102
{ACAD_REACTORS
330
D
102
}
330
D
100
AcDbGroup
300

 70
     1
 71
     1
  0
GROUP
  5
1D670
102
{ACAD_REACTORS
330
D
102
}
330
D
100
AcDbGroup
300

 70
     1
 71
     1
  0
GROUP
  5
232A8
102
{ACAD_REACTORS
330
D
102
}
330
D
100
AcDbGroup
300

 70
     1
 71
     1
  0
GROUP
  5
23887
102
{ACAD_REACTORS
330
D
102
}
330
D
100
AcDbGroup
300

 70
     1
 71
     1
  0
GROUP
  5
1EB7D
102
{ACAD_REACTORS
330
D
102
}
330
D
100
AcDbGroup
300

 70
     1
 71
     1
  0
GROUP
  5
16058
102
{ACAD_REACTORS
330
D
102
}
330
D
100
AcDbGroup
300

 70
     1
 71
     1
  0
GROUP
  5
FC95
102
{ACAD_REACTORS
330
D
102
}
330
D
100
AcDbGroup
300

 70
     1
 71
     1
  0
GROUP
  5
1D6DE
102
{ACAD_REACTORS
330
D
102
}
330
D
100
AcDbGroup
300

 70
     1
 71
     1
  0
GROUP
  5
238A8
102
{ACAD_REACTORS
330
D
102
}
330
D
100
AcDbGroup
300

 70
     1
 71
     1
  0
GROUP
  5
106A5
102
{ACAD_REACTORS
330
D
102
}
330
D
100
AcDbGroup
300

 70
     1
 71
     1
  0
GROUP
  5
23FEF
102
{ACAD_REACTORS
330
D
102
}
330
D
100
AcDbGroup
300

 70
     1
 71
     1
  0
GROUP
  5
1D6CA
102
{ACAD_REACTORS
330
D
102
}
330
D
100
AcDbGroup
300

 70
     1
 71
     1
  0
GROUP
  5
16069
102
{ACAD_REACTORS
330
D
102
}
330
D
100
AcDbGroup
300

 70
     1
 71
     1
  0
GROUP
  5
18F1F
102
{ACAD_REACTORS
330
D
102
}
330
D
100
AcDbGroup
300

 70
     1
 71
     1
  0
GROUP
  5
2560B
102
{ACAD_REACTORS
330
D
102
}
330
D
100
AcDbGroup
300

 70
     1
 71
     1
  0
GROUP
  5
FC9B
102
{ACAD_REACTORS
330
D
102
}
330
D
100
AcDbGroup
300

 70
     1
 71
     1
  0
GROUP
  5
20209
102
{ACAD_REACTORS
330
D
102
}
330
D
100
AcDbGroup
300

 70
     1
 71
     1
  0
GROUP
  5
1D6D4
102
{ACAD_REACTORS
330
D
102
}
330
D
100
AcDbGroup
300

 70
     1
 71
     1
  0
GROUP
  5
215A2
102
{ACAD_REACTORS
330
D
102
}
330
D
100
AcDbGroup
300

 70
     1
 71
     1
  0
GROUP
  5
1D698
102
{ACAD_REACTORS
330
D
102
}
330
D
100
AcDbGroup
300

 70
     1
 71
     1
  0
GROUP
  5
1B74D
102
{ACAD_REACTORS
330
D
102
}
330
D
100
AcDbGroup
300

 70
     1
 71
     1
  0
GROUP
  5
20213
102
{ACAD_REACTORS
330
D
102
}
330
D
100
AcDbGroup
300

 70
     1
 71
     1
  0
GROUP
  5
23871
102
{ACAD_REACTORS
330
D
102
}
330
D
100
AcDbGroup
300

 70
     1
 71
     1
  0
GROUP
  5
1F8F0
102
{ACAD_REACTORS
330
D
102
}
330
D
100
AcDbGroup
300

 70
     1
 71
     1
  0
GROUP
  5
1D6FC
102
{ACAD_REACTORS
330
D
102
}
330
D
100
AcDbGroup
300

 70
     1
 71
     1
  0
GROUP
  5
1F909
102
{ACAD_REACTORS
330
D
102
}
330
D
100
AcDbGroup
300

 70
     1
 71
     1
  0
GROUP
  5
ACA1
102
{ACAD_REACTORS
330
D
102
}
330
D
100
AcDbGroup
300

 70
     1
 71
     1
  0
GROUP
  5
2387C
102
{ACAD_REACTORS
330
D
102
}
330
D
100
AcDbGroup
300

 70
     1
 71
     1
  0
GROUP
  5
19794
102
{ACAD_REACTORS
330
D
102
}
330
D
100
AcDbGroup
300

 70
     1
 71
     1
  0
GROUP
  5
18F22
102
{ACAD_REACTORS
330
D
102
}
330
D
100
AcDbGroup
300

 70
     1
 71
     1
  0
GROUP
  5
1F8FF
102
{ACAD_REACTORS
330
D
102
}
330
D
100
AcDbGroup
300

 70
     1
 71
     1
  0
GROUP
  5
20013
102
{ACAD_REACTORS
330
D
102
}
330
D
100
AcDbGroup
300

 70
     1
 71
     1
  0
GROUP
  5
1B744
102
{ACAD_REACTORS
330
D
102
}
330
D
100
AcDbGroup
300

 70
     1
 71
     1
  0
GROUP
  5
2022C
102
{ACAD_REACTORS
330
D
102
}
330
D
100
AcDbGroup
300

 70
     1
 71
     1
  0
GROUP
  5
20227
102
{ACAD_REACTORS
330
D
102
}
330
D
100
AcDbGroup
300

 70
     1
 71
     1
  0
GROUP
  5
19989
102
{ACAD_REACTORS
330
D
102
}
330
D
100
AcDbGroup
300

 70
     1
 71
     1
  0
GROUP
  5
19F67
102
{ACAD_REACTORS
330
D
102
}
330
D
100
AcDbGroup
300

 70
     1
 71
     1
  0
GROUP
  5
169DA
102
{ACAD_REACTORS
330
D
102
}
330
D
100
AcDbGroup
300

 70
     1
 71
     1
  0
GROUP
  5
1EB7C
102
{ACAD_REACTORS
330
D
102
}
330
D
100
AcDbGroup
300

 70
     1
 71
     1
  0
GROUP
  5
19988
102
{ACAD_REACTORS
330
D
102
}
330
D
100
AcDbGroup
300

 70
     1
 71
     1
  0
GROUP
  5
20CA2
102
{ACAD_REACTORS
330
D
102
}
330
D
100
AcDbGroup
300

 70
     1
 71
     1
  0
GROUP
  5
1F904
102
{ACAD_REACTORS
330
D
102
}
330
D
100
AcDbGroup
300

 70
     1
 71
     1
  0
GROUP
  5
23FF0
102
{ACAD_REACTORS
330
D
102
}
330
D
100
AcDbGroup
300

 70
     1
 71
     1
  0
GROUP
  5
24E2F
102
{ACAD_REACTORS
330
D
102
}
330
D
100
AcDbGroup
300

 70
     1
 71
     1
  0
GROUP
  5
1D6A2
102
{ACAD_REACTORS
330
D
102
}
330
D
100
AcDbGroup
300

 70
     1
 71
     1
  0
GROUP
  5
FB6B
102
{ACAD_REACTORS
330
D
102
}
330
D
100
AcDbGroup
300

 70
     1
 71
     1
  0
GROUP
  5
1738A
102
{ACAD_REACTORS
330
D
102
}
330
D
100
AcDbGroup
300

 70
     1
 71
     1
  0
GROUP
  5
17901
102
{ACAD_REACTORS
330
D
102
}
330
D
100
AcDbGroup
300

 70
     1
 71
     1
  0
GROUP
  5
233BB
102
{ACAD_REACTORS
330
D
102
}
330
D
100
AcDbGroup
300

 70
     1
 71
     1
  0
GROUP
  5
252E2
102
{ACAD_REACTORS
330
D
102
}
330
D
100
AcDbGroup
300

 70
     1
 71
     1
  0
GROUP
  5
1D67A
102
{ACAD_REACTORS
330
D
102
}
330
D
100
AcDbGroup
300

 70
     1
 71
     1
  0
GROUP
  5
19729
102
{ACAD_REACTORS
330
D
102
}
330
D
100
AcDbGroup
300

 70
     1
 71
     1
  0
GROUP
  5
16068
102
{ACAD_REACTORS
330
D
102
}
330
D
100
AcDbGroup
300

 70
     1
 71
     1
  0
GROUP
  5
1EB7F
102
{ACAD_REACTORS
330
D
102
}
330
D
100
AcDbGroup
300

 70
     1
 71
     1
  0
GROUP
  5
20028
102
{ACAD_REACTORS
330
D
102
}
330
D
100
AcDbGroup
300

 70
     1
 71
     1
  0
GROUP
  5
2021D
102
{ACAD_REACTORS
330
D
102
}
330
D
100
AcDbGroup
300

 70
     1
 71
     1
  0
GROUP
  5
1A692
102
{ACAD_REACTORS
330
D
102
}
330
D
100
AcDbGroup
300

 70
     1
 71
     1
  0
GROUP
  5
2338E
102
{ACAD_REACTORS
330
D
102
}
330
D
100
AcDbGroup
300

 70
     1
 71
     1
  0
GROUP
  5
106B3
102
{ACAD_REACTORS
330
D
102
}
330
D
100
AcDbGroup
300

 70
     1
 71
     1
  0
GROUP
  5
19861
102
{ACAD_REACTORS
330
D
102
}
330
D
100
AcDbGroup
300

 70
     1
 71
     1
  0
GROUP
  5
20016
102
{ACAD_REACTORS
330
D
102
}
330
D
100
AcDbGroup
300

 70
     1
 71
     1
  0
GROUP
  5
23FEA
102
{ACAD_REACTORS
330
D
102
}
330
D
100
AcDbGroup
300

 70
     1
 71
     1
  0
GROUP
  5
18FA6
102
{ACAD_REACTORS
330
D
102
}
330
D
100
AcDbGroup
300

 70
     1
 71
     1
  0
GROUP
  5
2338F
102
{ACAD_REACTORS
330
D
102
}
330
D
100
AcDbGroup
300

 70
     1
 71
     1
  0
GROUP
  5
1F8F5
102
{ACAD_REACTORS
330
D
102
}
330
D
100
AcDbGroup
300

 70
     1
 71
     1
  0
GROUP
  5
24C2E
102
{ACAD_REACTORS
330
D
102
}
330
D
100
AcDbGroup
300

 70
     1
 71
     1
340
24C2D
340
24C2C
  0
GROUP
  5
2339D
102
{ACAD_REACTORS
330
D
102
}
330
D
100
AcDbGroup
300

 70
     1
 71
     1
  0
GROUP
  5
FBFF
102
{ACAD_REACTORS
330
D
102
}
330
D
100
AcDbGroup
300

 70
     1
 71
     1
  0
GROUP
  5
1606A
102
{ACAD_REACTORS
330
D
102
}
330
D
100
AcDbGroup
300

 70
     1
 71
     1
  0
GROUP
  5
1F90E
102
{ACAD_REACTORS
330
D
102
}
330
D
100
AcDbGroup
300

 70
     1
 71
     1
  0
GROUP
  5
ACB4
102
{ACAD_REACTORS
330
D
102
}
330
D
100
AcDbGroup
300

 70
     1
 71
     1
  0
GROUP
  5
2339E
102
{ACAD_REACTORS
330
D
102
}
330
D
100
AcDbGroup
300

 70
     1
 71
     1
  0
GROUP
  5
19787
102
{ACAD_REACTORS
330
D
102
}
330
D
100
AcDbGroup
300

 70
     1
 71
     1
  0
GROUP
  5
238A7
102
{ACAD_REACTORS
330
D
102
}
330
D
100
AcDbGroup
300

 70
     1
 71
     1
  0
GROUP
  5
23FEC
102
{ACAD_REACTORS
330
D
102
}
330
D
100
AcDbGroup
300

 70
     1
 71
     1
  0
GROUP
  5
18F21
102
{ACAD_REACTORS
330
D
102
}
330
D
100
AcDbGroup
300

 70
     1
 71
     1
  0
GROUP
  5
AC9A
102
{ACAD_REACTORS
330
D
102
}
330
D
100
AcDbGroup
300

 70
     1
 71
     1
  0
GROUP
  5
233AC
102
{ACAD_REACTORS
330
D
102
}
330
D
100
AcDbGroup
300

 70
     1
 71
     1
  0
MLINESTYLE
  5
1C
102
{ACAD_REACTORS
330
1B
102
}
330
1B
100
AcDbMlineStyle
  2
STANDARD
 70
     0
  3

 62
   256
 51
90.0
 52
90.0
 71
     2
 49
0.5
 62
   256
  6
BYLAYER
 49
-0.5
 62
   256
  6
BYLAYER
  0
ACDBPLACEHOLDER
  5
FB5C
102
{ACAD_REACTORS
330
FB5B
102
}
330
FB5B
100
AcDbPlaceHolder
280
     0
  0
XRECORD
  5
25A82
102
{ACAD_REACTORS
330
25A78
102
}
330
25A78
100
AcDbXrecord
 90
        0
  0
XRECORD
  5
25A86
102
{ACAD_REACTORS
330
25A78
102
}
330
25A78
100
AcDbXrecord
1000
DSTYLE
1002
{
1070
    79
 70
     2
1070
   179
 70
     8
1070
   341
340
1215D
1070
   342
340
1215D
1070
   371
 70
    13
1070
   372
 70
    13
1002
}
  0
XRECORD
  5
25A83
102
{ACAD_REACTORS
330
25A78
102
}
330
25A78
100
AcDbXrecord
  1
{D14EE3FF-941A-415A-9907-344E0A80D794}
  0
XRECORD
  5
25A7B
102
{ACAD_REACTORS
330
25A78
102
}
330
25A78
100
AcDbXrecord
  1

  0
XRECORD
  5
25A81
102
{ACAD_REACTORS
330
25A78
102
}
330
25A78
100
AcDbXrecord
 90
        0
  0
XRECORD
  5
25A7D
102
{ACAD_REACTORS
330
25A78
102
}
330
25A78
100
AcDbXrecord
340
DB2
  0
XRECORD
  5
25A80
102
{ACAD_REACTORS
330
25A78
102
}
330
25A78
100
AcDbXrecord
 90
    10781
  0
XRECORD
  5
25A7E
102
{ACAD_REACTORS
330
25A78
102
}
330
25A78
100
AcDbXrecord
340
DB3
  0
XRECORD
  5
25A7F
102
{ACAD_REACTORS
330
25A78
102
}
330
25A78
100
AcDbXrecord
340
FB5B
  0
XRECORD
  5
25A85
102
{ACAD_REACTORS
330
25A78
102
}
330
25A78
100
AcDbXrecord
 40
0.0
  0
XRECORD
  5
25A89
102
{ACAD_REACTORS
330
25A78
102
}
330
25A78
100
AcDbXrecord
340
0
  0
XRECORD
  5
25A8F
102
{ACAD_REACTORS
330
25A78
102
}
330
25A78
100
AcDbXrecord
 10
0.0
 20
0.0
 30
0.0
  0
XRECORD
  5
25A8B
102
{ACAD_REACTORS
330
25A78
102
}
330
25A78
100
AcDbXrecord
 10
0.0
 20
0.0
 30
0.0
  0
XRECORD
  5
25A8E
102
{ACAD_REACTORS
330
25A78
102
}
330
25A78
100
AcDbXrecord
 10
0.0
 20
0.0
 30
0.0
  0
XRECORD
  5
25A8C
102
{ACAD_REACTORS
330
25A78
102
}
330
25A78
100
AcDbXrecord
 10
0.0
 20
0.0
 30
0.0
  0
XRECORD
  5
25A8D
102
{ACAD_REACTORS
330
25A78
102
}
330
25A78
100
AcDbXrecord
 10
0.0
 20
0.0
 30
0.0
  0
XRECORD
  5
25A8A
102
{ACAD_REACTORS
330
25A78
102
}
330
25A78
100
AcDbXrecord
 10
0.0
 20
0.0
 30
0.0
  0
XRECORD
  5
25A87
102
{ACAD_REACTORS
330
25A78
102
}
330
25A78
100
AcDbXrecord
340
0
  0
XRECORD
  5
25A88
102
{ACAD_REACTORS
330
25A78
102
}
330
25A78
100
AcDbXrecord
 70
     0
  0
XRECORD
  5
25A7C
102
{ACAD_REACTORS
330
25A78
102
}
330
25A78
100
AcDbXrecord
  1
monochrome.ctb
  0
XRECORD
  5
25A79
102
{ACAD_REACTORS
330
25A78
102
}
330
25A78
100
AcDbXrecord
 90
        1
  0
XRECORD
  5
25A7A
102
{ACAD_REACTORS
330
25A78
102
}
330
25A78
100
AcDbXrecord
 90
       70
  0
XRECORD
  5
25A92
102
{ACAD_REACTORS
330
25A78
102
}
330
25A78
100
AcDbXrecord
340
0
  0
XRECORD
  5
25A98
102
{ACAD_REACTORS
330
25A78
102
}
330
25A78
100
AcDbXrecord
 10
0.0
 20
0.0
 30
0.0
  0
XRECORD
  5
25A94
102
{ACAD_REACTORS
330
25A78
102
}
330
25A78
100
AcDbXrecord
 10
0.0
 20
0.0
 30
0.0
  0
XRECORD
  5
25A97
102
{ACAD_REACTORS
330
25A78
102
}
330
25A78
100
AcDbXrecord
 10
0.0
 20
0.0
 30
0.0
  0
XRECORD
  5
25A95
102
{ACAD_REACTORS
330
25A78
102
}
330
25A78
100
AcDbXrecord
 10
0.0
 20
0.0
 30
0.0
  0
XRECORD
  5
25A96
102
{ACAD_REACTORS
330
25A78
102
}
330
25A78
100
AcDbXrecord
 10
0.0
 20
0.0
 30
0.0
  0
XRECORD
  5
25A93
102
{ACAD_REACTORS
330
25A78
102
}
330
25A78
100
AcDbXrecord
 10
0.0
 20
0.0
 30
0.0
  0
XRECORD
  5
25A90
102
{ACAD_REACTORS
330
25A78
102
}
330
25A78
100
AcDbXrecord
340
0
  0
XRECORD
  5
25A91
102
{ACAD_REACTORS
330
25A78
102
}
330
25A78
100
AcDbXrecord
 70
     0
  0
XRECORD
  5
25A84
102
{ACAD_REACTORS
330
25A78
102
}
330
25A78
100
AcDbXrecord
  1
{F6A04D25-B040-4C28-8182-1467E6BA6994}
  0
DICTIONARYVAR
  5
24517
102
{ACAD_REACTORS
330
106A6
102
}
330
106A6
100
DictionaryVariables
280
     0
  1
1
  0
DICTIONARYVAR
  5
106A7
102
{ACAD_REACTORS
330
106A6
102
}
330
106A6
100
DictionaryVariables
280
     0
  1
96
  0
XRECORD
  5
1A9A1
102
{ACAD_REACTORS
330
1A99F
102
}
330
1A99F
100
AcDbXrecord
330
187D7
330
0
330
0
330
0
330
0
330
0
330
0
330
0
330
0
330
0
330
0
330
115F
330
0
330
0
330
0
330
0
330
0
330
0
330
0
330
0
330
0
330
0
330
0
330
0
330
0
330
0
330
0
330
0
330
0
330
0
330
0
330
0
330
0
330
0
330
0
330
0
330
0
330
0
330
0
330
0
330
0
330
0
330
0
330
0
  0
XRECORD
  5
246DC
102
{ACAD_REACTORS
330
246DB
102
}
330
246DB
100
AcDbXrecord
  1
0
  1
*0
  1
*
  1
*
 70
     0
  1
*
  1
*
  0
XRECORD
  5
246DD
102
{ACAD_REACTORS
330
246DB
102
}
330
246DB
100
AcDbXrecord
  1
11
  1
*11
  1
*
  1
*
 70
     0
  1
*
  1
*
  0
XRECORD
  5
246DE
102
{ACAD_REACTORS
330
246DB
102
}
330
246DB
100
AcDbXrecord
  1
150_
  1
150_*
  1
*
  1
*
 70
     0
  1
*
  1
*
  0
XRECORD
  5
246DF
102
{ACAD_REACTORS
330
246DB
102
}
330
246DB
100
AcDbXrecord
  1
160_
  1
160_*
  1
*
  1
*
 70
     0
  1
*
  1
*
  0
XRECORD
  5
246E0
102
{ACAD_REACTORS
330
246DB
102
}
330
246DB
100
AcDbXrecord
  1
170_
  1
170_*
  1
*
  1
*
 70
     0
  1
*
  1
*
  0
XRECORD
  5
246E1
102
{ACAD_REACTORS
330
246DB
102
}
330
246DB
100
AcDbXrecord
  1
171_
  1
171_*
  1
*
  1
*
 70
     0
  1
*
  1
*
  0
XRECORD
  5
246E2
102
{ACAD_REACTORS
330
246DB
102
}
330
246DB
100
AcDbXrecord
  1
350_
  1
350_*
  1
*
  1
*
 70
     0
  1
*
  1
*
  0
XRECORD
  5
246E3
102
{ACAD_REACTORS
330
246DB
102
}
330
246DB
100
AcDbXrecord
  1
4
  1
*4
  1
*
  1
*
 70
     0
  1
*
  1
*
  0
XRECORD
  5
246E4
102
{ACAD_REACTORS
330
246DB
102
}
330
246DB
100
AcDbXrecord
  1
5
  1
*5
  1
*
  1
*
 70
     0
  1
*
  1
*
  0
XRECORD
  5
246E5
102
{ACAD_REACTORS
330
246DB
102
}
330
246DB
100
AcDbXrecord
  1
7
  1
*7
  1
*
  1
*
 70
     0
  1
*
  1
*
  0
XRECORD
  5
246E6
102
{ACAD_REACTORS
330
246DB
102
}
330
246DB
100
AcDbXrecord
  1
kiseki
  1
kiseki*
  1
*
  1
*
 70
     0
  1
*
  1
*
  0
ENDSEC
  0
EOF
