  0
SECTION
  2
HEADER
  9
$ACADVER
  1
AC1015
  9
$ACADMAINTVER
 70
    10
  9
$DWGCODEPAGE
  3
ANSI_932
  9
$INSBASE
 10
0.0
 20
0.0
 30
0.0
  9
$EXTMIN
 10
114.0981453413597
 20
-58.42977974080738
 30
0.0
  9
$EXTMAX
 10
536.9293314358255
 20
242.82601005137
 30
0.0
  9
$LIMMIN
 10
0.0
 20
0.0
  9
$LIMMAX
 10
420.0
 20
297.0
  9
$ORTHOMODE
 70
     1
  9
$REGENMODE
 70
     1
  9
$FILLMODE
 70
     1
  9
$QTEXTMODE
 70
     0
  9
$MIRRTEXT
 70
     1
  9
$LTSCALE
 40
1.0
  9
$ATTMODE
 70
     1
  9
$TEXTSIZE
 40
3.0
  9
$TRACEWID
 40
1.0
  9
$TEXTSTYLE
  7
STANDARD
  9
$CLAYER
  8
0
  9
$CELTYPE
  6
BYLAYER
  9
$CECOLOR
 62
   256
  9
$CELTSCALE
 40
1.0
  9
$DISPSILH
 70
     0
  9
$DIMSCALE
 40
1.0
  9
$DIMASZ
 40
3.0
  9
$DIMEXO
 40
1.0
  9
$DIMDLI
 40
6.0
  9
$DIMRND
 40
0.0
  9
$DIMDLE
 40
0.0
  9
$DIMEXE
 40
0.75
  9
$DIMTP
 40
0.0
  9
$DIMTM
 40
0.0
  9
$DIMTXT
 40
6.0
  9
$DIMCEN
 40
3.0
  9
$DIMTSZ
 40
0.0
  9
$DIMTOL
 70
     0
  9
$DIMLIM
 70
     0
  9
$DIMTIH
 70
     0
  9
$DIMTOH
 70
     0
  9
$DIMSE1
 70
     0
  9
$DIMSE2
 70
     0
  9
$DIMTAD
 70
     1
  9
$DIMZIN
 70
     9
  9
$DIMBLK
  1

  9
$DIMASO
 70
     1
  9
$DIMSHO
 70
     1
  9
$DIMPOST
  1

  9
$DIMAPOST
  1

  9
$DIMALT
 70
     0
  9
$DIMALTD
 70
     4
  9
$DIMALTF
 40
0.0394
  9
$DIMLFAC
 40
1.0
  9
$DIMTOFL
 70
     1
  9
$DIMTVP
 40
0.0
  9
$DIMTIX
 70
     0
  9
$DIMSOXD
 70
     0
  9
$DIMSAH
 70
     1
  9
$DIMBLK1
  1
OPEN
  9
$DIMBLK2
  1
OPEN
  9
$DIMSTYLE
  2
STANDARD
  9
$DIMCLRD
 70
     0
  9
$DIMCLRE
 70
     0
  9
$DIMCLRT
 70
     7
  9
$DIMTFAC
 40
1.0
  9
$DIMGAP
 40
1.0
  9
$DIMJUST
 70
     0
  9
$DIMSD1
 70
     0
  9
$DIMSD2
 70
     0
  9
$DIMTOLJ
 70
     1
  9
$DIMTZIN
 70
     9
  9
$DIMALTZ
 70
     0
  9
$DIMALTTZ
 70
     0
  9
$DIMUPT
 70
     0
  9
$DIMDEC
 70
     4
  9
$DIMTDEC
 70
     4
  9
$DIMALTU
 70
     8
  9
$DIMALTTD
 70
     4
  9
$DIMTXSTY
  7
STANDARD
  9
$DIMAUNIT
 70
     0
  9
$DIMADEC
 70
     0
  9
$DIMALTRND
 40
0.0
  9
$DIMAZIN
 70
     2
  9
$DIMDSEP
 70
    46
  9
$DIMATFIT
 70
     3
  9
$DIMFRAC
 70
     0
  9
$DIMLDRBLK
  1
OPEN
  9
$DIMLUNIT
 70
     2
  9
$DIMLWD
 70
    -2
  9
$DIMLWE
 70
    -2
  9
$DIMTMOVE
 70
     2
  9
$LUNITS
 70
     2
  9
$LUPREC
 70
     4
  9
$SKETCHINC
 40
1.0
  9
$FILLETRAD
 40
10.0
  9
$AUNITS
 70
     0
  9
$AUPREC
 70
     0
  9
$MENU
  1
.
  9
$ELEVATION
 40
0.0
  9
$PELEVATION
 40
0.0
  9
$THICKNESS
 40
0.0
  9
$LIMCHECK
 70
     0
  9
$CHAMFERA
 40
0.0
  9
$CHAMFERB
 40
0.0
  9
$CHAMFERC
 40
20.0
  9
$CHAMFERD
 40
0.0
  9
$SKPOLY
 70
     0
  9
$TDCREATE
 40
2451224.660162384
  9
$TDUCREATE
 40
2451224.285162384
  9
$TDUPDATE
 40
2457366.478459733
  9
$TDUUPDATE
 40
2457366.103459734
  9
$TDINDWG
 40
0.8965476736
  9
$TDUSRTIMER
 40
2457315.192348622
  9
$USRTIMER
 70
     1
  9
$ANGBASE
 50
0.0
  9
$ANGDIR
 70
     0
  9
$PDMODE
 70
     0
  9
$PDSIZE
 40
0.0
  9
$PLINEWID
 40
0.0
  9
$SPLFRAME
 70
     0
  9
$SPLINETYPE
 70
     6
  9
$SPLINESEGS
 70
     8
  9
$HANDSEED
  5
855A
  9
$SURFTAB1
 70
     6
  9
$SURFTAB2
 70
     6
  9
$SURFTYPE
 70
     6
  9
$SURFU
 70
     6
  9
$SURFV
 70
     6
  9
$UCSBASE
  2

  9
$UCSNAME
  2

  9
$UCSORG
 10
0.0
 20
0.0
 30
0.0
  9
$UCSXDIR
 10
1.0
 20
0.0
 30
0.0
  9
$UCSYDIR
 10
0.0
 20
1.0
 30
0.0
  9
$UCSORTHOREF
  2

  9
$UCSORTHOVIEW
 70
     0
  9
$UCSORGTOP
 10
0.0
 20
0.0
 30
0.0
  9
$UCSORGBOTTOM
 10
0.0
 20
0.0
 30
0.0
  9
$UCSORGLEFT
 10
0.0
 20
0.0
 30
0.0
  9
$UCSORGRIGHT
 10
0.0
 20
0.0
 30
0.0
  9
$UCSORGFRONT
 10
0.0
 20
0.0
 30
0.0
  9
$UCSORGBACK
 10
0.0
 20
0.0
 30
0.0
  9
$PUCSBASE
  2

  9
$PUCSNAME
  2

  9
$PUCSORG
 10
0.0
 20
0.0
 30
0.0
  9
$PUCSXDIR
 10
1.0
 20
0.0
 30
0.0
  9
$PUCSYDIR
 10
0.0
 20
1.0
 30
0.0
  9
$PUCSORTHOREF
  2

  9
$PUCSORTHOVIEW
 70
     0
  9
$PUCSORGTOP
 10
0.0
 20
0.0
 30
0.0
  9
$PUCSORGBOTTOM
 10
0.0
 20
0.0
 30
0.0
  9
$PUCSORGLEFT
 10
0.0
 20
0.0
 30
0.0
  9
$PUCSORGRIGHT
 10
0.0
 20
0.0
 30
0.0
  9
$PUCSORGFRONT
 10
0.0
 20
0.0
 30
0.0
  9
$PUCSORGBACK
 10
0.0
 20
0.0
 30
0.0
  9
$USERI1
 70
     0
  9
$USERI2
 70
     0
  9
$USERI3
 70
     0
  9
$USERI4
 70
     0
  9
$USERI5
 70
     0
  9
$USERR1
 40
0.0
  9
$USERR2
 40
0.0
  9
$USERR3
 40
0.0
  9
$USERR4
 40
0.0
  9
$USERR5
 40
0.0
  9
$WORLDVIEW
 70
     1
  9
$SHADEDGE
 70
     3
  9
$SHADEDIF
 70
    70
  9
$TILEMODE
 70
     1
  9
$MAXACTVP
 70
    48
  9
$PINSBASE
 10
0.0
 20
0.0
 30
0.0
  9
$PLIMCHECK
 70
     0
  9
$PEXTMIN
 10
40.49999999999999
 20
25.69999999999998
 30
0.0
  9
$PEXTMAX
 10
364.5
 20
231.3
 30
0.0
  9
$PLIMMIN
 10
0.0
 20
0.0
  9
$PLIMMAX
 10
0.0
 20
0.0
  9
$UNITMODE
 70
     0
  9
$VISRETAIN
 70
     1
  9
$PLINEGEN
 70
     0
  9
$PSLTSCALE
 70
     1
  9
$TREEDEPTH
 70
  3020
  9
$CMLSTYLE
  2
STANDARD
  9
$CMLJUST
 70
     0
  9
$CMLSCALE
 40
20.0
  9
$PROXYGRAPHICS
 70
     1
  9
$MEASUREMENT
 70
     1
  9
$CELWEIGHT
370
    -1
  9
$ENDCAPS
280
     0
  9
$JOINSTYLE
280
     0
  9
$LWDISPLAY
290
     1
  9
$INSUNITS
 70
     0
  9
$HYPERLINKBASE
  1

  9
$STYLESHEET
  1

  9
$XEDIT
290
     1
  9
$CEPSNTYPE
380
     0
  9
$PSTYLEMODE
290
     1
  9
$FINGERPRINTGUID
  2
{6B368F64-F7EB-11D4-BFBA-00004C030E53}
  9
$VERSIONGUID
  2
{758A26D9-3DEC-42CD-8865-6585FA05DFCD}
  9
$EXTNAMES
290
     1
  9
$PSVPSCALE
 40
0.0
  9
$OLESTARTUP
290
     0
  0
ENDSEC
  0
SECTION
  2
CLASSES
  0
CLASS
  1
HATCH
  2
AcDbHatch
  3
AutoCAD 2000
 90
    32768
280
     0
281
     1
  0
CLASS
  1
LWPOLYLINE
  2
AcDbPolyline
  3
AutoCAD 2000
 90
    32768
280
     0
281
     1
  0
CLASS
  1
ACDBDICTIONARYWDFLT
  2
AcDbDictionaryWithDefault
  3
AutoCAD 2000
 90
        0
280
     0
281
     0
  0
CLASS
  1
ACDBPLACEHOLDER
  2
AcDbPlaceHolder
  3
AutoCAD 2000
 90
        0
280
     0
281
     0
  0
CLASS
  1
LAYOUT
  2
AcDbLayout
  3
AutoCAD 2000
 90
        0
280
     0
281
     0
  0
CLASS
  1
DICTIONARYVAR
  2
AcDbDictionaryVar
  3
AutoCAD 2000
 90
        0
280
     0
281
     0
  0
CLASS
  1
VISUALSTYLE
  2
AcDbVisualStyle
  3
ObjectDBX Classes
 90
    36863
280
     0
281
     0
  0
CLASS
  1
SCALE
  2
AcDbScale
  3
ObjectDBX Classes
 90
     1153
280
     0
281
     0
  0
CLASS
  1
MATERIAL
  2
AcDbMaterial
  3
ObjectDBX Classes
 90
    33921
280
     0
281
     0
  0
CLASS
  1
TABLESTYLE
  2
AcDbTableStyle
  3
ObjectDBX Classes
 90
    36863
280
     0
281
     0
  0
CLASS
  1
MLEADERSTYLE
  2
AcDbMLeaderStyle
  3
ACDB_MLEADERSTYLE_CLASS
 90
    36863
280
     0
281
     0
  0
CLASS
  1
SUN
  2
AcDbSun
  3
SCENEOE
 90
     1153
280
     0
281
     0
  0
CLASS
  1
RASTERVARIABLES
  2
AcDbRasterVariables
  3
ISM
 90
        0
280
     0
281
     0
  0
ENDSEC
  0
SECTION
  2
TABLES
  0
TABLE
  2
VPORT
  5
8
330
0
100
AcDbSymbolTable
 70
     2
  0
VPORT
  5
8559
330
8
100
AcDbSymbolTableRecord
100
AcDbViewportTableRecord
  2
*Active
 70
     0
 10
0.0
 20
0.0
 11
1.0
 21
1.0
 12
290.2578975483263
 22
123.2874511925422
 13
0.0
 23
0.0
 14
10.0
 24
10.0
 15
10.0
 25
10.0
 16
0.0
 26
0.0
 36
1.0
 17
0.0
 27
0.0
 37
0.0
 40
335.6273432627023
 41
1.562182741116751
 42
50.0
 43
0.0
 44
0.0
 50
0.0
 51
0.0
 71
    16
 72
   100
 73
     1
 74
     0
 75
     0
 76
     0
 77
     0
 78
     0
281
     0
 65
     1
110
0.0
120
0.0
130
0.0
111
1.0
121
0.0
131
0.0
112
0.0
122
1.0
132
0.0
 79
     0
146
0.0
  0
ENDTAB
  0
TABLE
  2
LTYPE
  5
5
330
0
100
AcDbSymbolTable
 70
     1
  0
LTYPE
  5
12
330
5
100
AcDbSymbolTableRecord
100
AcDbLinetypeTableRecord
  2
BYBLOCK
 70
     0
  3

 72
    65
 73
     0
 40
0.0
  0
LTYPE
  5
13
330
5
100
AcDbSymbolTableRecord
100
AcDbLinetypeTableRecord
  2
BYLAYER
 70
     0
  3

 72
    65
 73
     0
 40
0.0
  0
LTYPE
  5
14
330
5
100
AcDbSymbolTableRecord
100
AcDbLinetypeTableRecord
  2
CONTINUOUS
 70
     0
  3
Solid line
 72
    65
 73
     0
 40
0.0
  0
ENDTAB
  0
TABLE
  2
LAYER
  5
2
330
0
100
AcDbSymbolTable
 70
     1
  0
LAYER
  5
E
330
2
100
AcDbSymbolTableRecord
100
AcDbLayerTableRecord
  2
0
 70
     0
 62
     7
  6
CONTINUOUS
370
    -3
390
73E
  0
ENDTAB
  0
TABLE
  2
STYLE
  5
3
330
0
100
AcDbSymbolTable
 70
     2
  0
STYLE
  5
F
330
3
100
AcDbSymbolTableRecord
100
AcDbTextStyleTableRecord
  2
STANDARD
 70
     0
 40
0.0
 41
1.0
 50
0.0
 71
     0
 42
3.0
  3
isocp.shx
  4
bigfont.shx
  0
STYLE
  5
35
330
3
100
AcDbSymbolTableRecord
100
AcDbTextStyleTableRecord
  2
MSｺﾞｼｯｸ
 70
     0
 40
0.0
 41
1.0
 50
0.0
 71
     0
 42
5.0
  3
MS Gothic.ttf
  4

1001
ACAD
1000
MS Gothic
1071
    32817
  0
ENDTAB
  0
TABLE
  2
VIEW
  5
6
330
0
100
AcDbSymbolTable
 70
     0
  0
ENDTAB
  0
TABLE
  2
UCS
  5
7
330
0
100
AcDbSymbolTable
 70
     0
  0
ENDTAB
  0
TABLE
  2
APPID
  5
9
330
0
100
AcDbSymbolTable
 70
     1
  0
APPID
  5
10
330
9
100
AcDbSymbolTableRecord
100
AcDbRegAppTableRecord
  2
ACAD
 70
     0
  0
ENDTAB
  0
TABLE
  2
DIMSTYLE
  5
A
330
0
100
AcDbSymbolTable
 70
     1
100
AcDbDimStyleTable
 71
     0
  0
DIMSTYLE
105
1D
330
A
100
AcDbSymbolTableRecord
100
AcDbDimStyleTableRecord
  2
STANDARD
 70
     0
 78
     8
 79
     2
140
3.0
340
F
341
89E
342
89E
  0
ENDTAB
  0
TABLE
  2
BLOCK_RECORD
  5
1
330
0
100
AcDbSymbolTable
 70
     2
  0
BLOCK_RECORD
  5
18
330
1
100
AcDbSymbolTableRecord
100
AcDbBlockTableRecord
  2
*MODEL_SPACE
340
741
  0
BLOCK_RECORD
  5
8549
330
1
100
AcDbSymbolTableRecord
100
AcDbBlockTableRecord
  2
*Paper_Space
340
854A
  0
BLOCK_RECORD
  5
24
330
1
100
AcDbSymbolTableRecord
100
AcDbBlockTableRecord
  2
_OPEN
340
0
102
{BLKREFS
331
83EA
331
83EC
331
83F7
331
83F9
102
}
  0
BLOCK_RECORD
  5
89E
330
1
100
AcDbSymbolTableRecord
100
AcDbBlockTableRecord
  2
_Open30
340
0
  0
ENDTAB
  0
ENDSEC
  0
SECTION
  2
BLOCKS
  0
BLOCK
  5
19
330
18
100
AcDbEntity
  8
0
100
AcDbBlockBegin
  2
*MODEL_SPACE
 70
     0
 10
0.0
 20
0.0
 30
0.0
  3
*MODEL_SPACE
  1

  0
ENDBLK
  5
1A
330
18
100
AcDbEntity
  8
0
100
AcDbBlockEnd
  0
BLOCK
  5
854B
330
8549
100
AcDbEntity
 67
     1
  8
0
100
AcDbBlockBegin
  2
*Paper_Space
 70
     0
 10
0.0
 20
0.0
 30
0.0
  3
*Paper_Space
  1

  0
ENDBLK
  5
854C
330
8549
100
AcDbEntity
 67
     1
  8
0
100
AcDbBlockEnd
  0
BLOCK
  5
25
330
24
100
AcDbEntity
  8
0
100
AcDbBlockBegin
  2
_OPEN
 70
     0
 10
0.0
 20
0.0
 30
0.0
  3
_OPEN
  1

  0
LINE
  5
26
330
24
100
AcDbEntity
  8
0
  6
ByBlock
 62
     0
100
AcDbLine
 10
-1.0
 20
0.1666666666666666
 30
0.0
 11
0.0
 21
0.0
 31
0.0
  0
LINE
  5
27
330
24
100
AcDbEntity
  8
0
  6
ByBlock
 62
     0
100
AcDbLine
 10
0.0
 20
0.0
 30
0.0
 11
-1.0
 21
-0.1666666666666666
 31
0.0
  0
LINE
  5
28
330
24
100
AcDbEntity
  8
0
  6
ByBlock
 62
     0
100
AcDbLine
 10
0.0
 20
0.0
 30
0.0
 11
-1.0
 21
0.0
 31
0.0
  0
ENDBLK
  5
29
330
24
100
AcDbEntity
  8
0
100
AcDbBlockEnd
  0
BLOCK
  5
8A2
330
89E
100
AcDbEntity
  8
0
100
AcDbBlockBegin
  2
_Open30
 70
     0
 10
0.0
 20
0.0
 30
0.0
  3
_Open30
  1

  0
LINE
  5
89F
330
89E
100
AcDbEntity
  8
0
  6
ByBlock
 62
     0
370
    -2
100
AcDbLine
 10
-1.0
 20
0.26794919
 30
0.0
 11
0.0
 21
0.0
 31
0.0
  0
LINE
  5
8A0
330
89E
100
AcDbEntity
  8
0
  6
ByBlock
 62
     0
370
    -2
100
AcDbLine
 10
0.0
 20
0.0
 30
0.0
 11
-1.0
 21
-0.26794919
 31
0.0
  0
LINE
  5
8A1
330
89E
100
AcDbEntity
  8
0
  6
ByBlock
 62
     0
370
    -2
100
AcDbLine
 10
0.0
 20
0.0
 30
0.0
 11
-1.0
 21
0.0
 31
0.0
  0
ENDBLK
  5
8A3
330
89E
100
AcDbEntity
  8
0
100
AcDbBlockEnd
  0
ENDSEC
  0
SECTION
  2
ENTITIES
  0
LINE
  5
760A
330
18
100
AcDbEntity
  8
0
100
AcDbLine
 10
190.5981453413597
 20
171.0760100513699
 30
0.0
 11
190.5981453413597
 21
217.3260100513699
 31
0.0
  0
LINE
  5
760B
330
18
100
AcDbEntity
  8
0
100
AcDbLine
 10
209.0981453413597
 20
227.8260100513699
 30
0.0
 11
209.0981453413597
 21
67.82601005136996
 31
0.0
  0
LINE
  5
760C
330
18
100
AcDbEntity
  8
0
100
AcDbLine
 10
209.0981453413597
 20
53.82601005136973
 30
0.0
 11
209.0981453413598
 21
241.8260100513701
 31
0.0
  0
LINE
  5
760F
330
18
100
AcDbEntity
  8
0
100
AcDbLine
 10
154.0981453413597
 20
227.8260100513699
 30
0.0
 11
154.0981453413597
 21
67.82601005136996
 31
0.0
  0
LINE
  5
7610
330
18
100
AcDbEntity
  8
0
100
AcDbLine
 10
154.0981453413597
 20
227.8260100513699
 30
0.0
 11
154.0981453413597
 21
67.82601005136996
 31
0.0
  0
LINE
  5
7611
330
18
100
AcDbEntity
  8
0
100
AcDbLine
 10
114.0981453413597
 20
227.82601005137
 30
0.0
 11
114.0981453413597
 21
67.82601005137007
 31
0.0
  0
LINE
  5
7612
330
18
100
AcDbEntity
  8
0
100
AcDbLine
 10
205.0981453413598
 20
212.8260100513699
 30
0.0
 11
205.0981453413597
 21
82.82601005136996
 31
0.0
  0
LINE
  5
7613
330
18
100
AcDbEntity
  8
0
100
AcDbLine
 10
205.0981453413597
 20
217.3260100513699
 30
0.0
 11
205.0981453413597
 21
77.32601005136996
 31
0.0
  0
LINE
  5
7614
330
18
100
AcDbEntity
  8
0
100
AcDbLine
 10
154.0981453413599
 20
67.82601005136996
 30
0.0
 11
114.0981453413597
 21
67.82601005137007
 31
0.0
  0
LINE
  5
7617
330
18
100
AcDbEntity
  8
0
100
AcDbLine
 10
190.5981453413596
 20
155.5760100513699
 30
0.0
 11
190.5981453413595
 21
77.32601005136996
 31
0.0
  0
LINE
  5
7618
330
18
100
AcDbEntity
  8
0
100
AcDbLine
 10
205.0981453413597
 20
77.32601005136996
 30
0.0
 11
190.5981453413595
 21
77.32601005136996
 31
0.0
  0
LINE
  5
7619
330
18
100
AcDbEntity
  8
0
100
AcDbLine
 10
154.0981453413599
 20
67.82601005136996
 30
0.0
 11
209.0981453413597
 21
67.82601005136996
 31
0.0
  0
LINE
  5
761A
330
18
100
AcDbEntity
  8
0
100
AcDbLine
 10
171.8481453413597
 20
52.82601005136985
 30
0.0
 11
195.3481453413597
 21
52.82601005136985
 31
0.0
  0
ARC
  5
761C
330
18
100
AcDbEntity
  8
0
100
AcDbCircle
 10
168.0981453413597
 20
57.82601005137002
 30
0.0
 40
2.75
100
AcDbArc
 50
0.0
 51
180.0
  0
LINE
  5
761D
330
18
100
AcDbEntity
  8
0
370
    40
100
AcDbLine
 10
163.0981453413597
 20
76.82601005137001
 30
0.0
 11
163.0981453413597
 21
75.22601005136983
 31
0.0
  0
CIRCLE
  5
761E
330
18
100
AcDbEntity
  8
0
370
    40
100
AcDbCircle
 10
163.0981453413597
 20
74.82601005136996
 30
0.0
 40
3.0
  0
LINE
  5
761F
330
18
100
AcDbEntity
  8
0
370
    40
100
AcDbLine
 10
163.5981453413597
 20
72.8260100513699
 30
0.0
 11
162.5981453413597
 21
72.8260100513699
 31
0.0
  0
LINE
  5
7620
330
18
100
AcDbEntity
  8
0
370
    40
100
AcDbLine
 10
164.3481453413597
 20
74.0260100513699
 30
0.0
 11
161.8481453413597
 21
74.0260100513699
 31
0.0
  0
LINE
  5
7621
330
18
100
AcDbEntity
  8
0
370
    40
100
AcDbLine
 10
165.0981453413597
 20
75.22601005136983
 30
0.0
 11
161.0981453413597
 21
75.22601005136988
 31
0.0
  0
ARC
  5
7622
330
18
100
AcDbEntity
  8
0
100
AcDbCircle
 10
162.5981453413596
 20
69.07601005136985
 30
0.0
 40
3.249999999999876
100
AcDbArc
 50
202.6198649480369
 51
337.380135051963
  0
LINE
  5
7623
330
18
100
AcDbEntity
  8
0
100
AcDbLine
 10
165.3481453413597
 20
57.82601005136996
 30
0.0
 11
165.3481453413597
 21
53.82601005136996
 31
0.0
  0
LINE
  5
7624
330
18
100
AcDbEntity
  8
0
100
AcDbLine
 10
165.3481453413597
 20
53.82601005136996
 30
0.0
 11
164.3481453413597
 21
52.82601005136996
 31
0.0
  0
LINE
  5
7625
330
18
100
AcDbEntity
  8
0
100
AcDbLine
 10
159.0981453413597
 20
52.82601005136996
 30
0.0
 11
158.0981453413597
 21
53.82601005136996
 31
0.0
  0
LINE
  5
7626
330
18
100
AcDbEntity
  8
0
100
AcDbLine
 10
159.0981453413597
 20
52.82601005136996
 30
0.0
 11
164.3481453413597
 21
52.82601005136996
 31
0.0
  0
LINE
  5
7627
330
18
100
AcDbEntity
  8
0
100
AcDbLine
 10
158.0981453413597
 20
67.82601005136996
 30
0.0
 11
158.0981453413597
 21
53.82601005136996
 31
0.0
  0
LINE
  5
7629
330
18
100
AcDbEntity
  8
0
100
AcDbLine
 10
170.8481453413597
 20
57.82601005136996
 30
0.0
 11
170.8481453413597
 21
53.82601005136985
 31
0.0
  0
LINE
  5
762A
330
18
100
AcDbEntity
  8
0
100
AcDbLine
 10
171.8481453413597
 20
52.82601005136985
 30
0.0
 11
170.8481453413597
 21
53.82601005136985
 31
0.0
  0
LINE
  5
762C
330
18
100
AcDbEntity
  8
0
100
AcDbLine
 10
202.8481453413597
 20
52.82601005136985
 30
0.0
 11
208.0981453413597
 21
52.82601005136985
 31
0.0
  0
LINE
  5
762D
330
18
100
AcDbEntity
  8
0
100
AcDbLine
 10
201.8481453413597
 20
57.82601005136996
 30
0.0
 11
201.8481453413597
 21
53.82601005136985
 31
0.0
  0
LINE
  5
762E
330
18
100
AcDbEntity
  8
0
100
AcDbLine
 10
202.8481453413597
 20
52.82601005136985
 30
0.0
 11
201.8481453413597
 21
53.82601005136985
 31
0.0
  0
LINE
  5
762F
330
18
100
AcDbEntity
  8
0
100
AcDbLine
 10
196.3481453413597
 20
57.82601005136996
 30
0.0
 11
196.3481453413597
 21
53.82601005136996
 31
0.0
  0
LINE
  5
7630
330
18
100
AcDbEntity
  8
0
100
AcDbLine
 10
196.3481453413597
 20
53.82601005136996
 30
0.0
 11
195.3481453413597
 21
52.82601005136996
 31
0.0
  0
ARC
  5
7631
330
18
100
AcDbEntity
  8
0
100
AcDbCircle
 10
199.0981453413597
 20
57.82601005137002
 30
0.0
 40
2.75
100
AcDbArc
 50
0.0
 51
180.0
  0
LINE
  5
7632
330
18
100
AcDbEntity
  8
0
100
AcDbLine
 10
208.0981453413597
 20
52.82601005136985
 30
0.0
 11
209.0981453413597
 21
53.82601005136985
 31
0.0
  0
LINE
  5
7635
330
18
100
AcDbEntity
  8
0
100
AcDbLine
 10
176.6981453413599
 20
149.9060100513698
 30
0.0
 11
176.6981453413599
 21
145.8260100513697
 31
0.0
  0
LINE
  5
7636
330
18
100
AcDbEntity
  8
0
100
AcDbLine
 10
182.6981453413599
 20
170.72601005137
 30
0.0
 11
182.6981453413598
 21
119.92601005137
 31
0.0
  0
LINE
  5
7637
330
18
100
AcDbEntity
  8
0
100
AcDbLine
 10
177.1981453413599
 20
170.7260100513698
 30
0.0
 11
177.1981453413599
 21
119.92601005137
 31
0.0
  0
LINE
  5
7638
330
18
100
AcDbEntity
  8
0
100
AcDbLine
 10
182.1981453413599
 20
170.72601005137
 30
0.0
 11
182.1981453413598
 21
119.92601005137
 31
0.0
  0
LINE
  5
7639
330
18
100
AcDbEntity
  8
0
100
AcDbLine
 10
174.0981453413597
 20
149.1660100513696
 30
0.0
 11
174.0981453413597
 21
146.5660100513696
 31
0.0
  0
LINE
  5
763A
330
18
100
AcDbEntity
  8
0
100
AcDbLine
 10
170.1981453413598
 20
149.1660100513693
 30
0.0
 11
170.1981453413599
 21
146.5660100513696
 31
0.0
  0
LINE
  5
763B
330
18
100
AcDbEntity
  8
0
100
AcDbLine
 10
169.6981453413599
 20
149.9060100513698
 30
0.0
 11
169.6981453413599
 21
145.8260100513696
 31
0.0
  0
LINE
  5
763C
330
18
100
AcDbEntity
  8
0
100
AcDbLine
 10
167.6981453413599
 20
170.7260100513698
 30
0.0
 11
167.6981453413599
 21
119.9260100513699
 31
0.0
  0
LINE
  5
763D
330
18
100
AcDbEntity
  8
0
100
AcDbLine
 10
167.6981453413599
 20
118.3260100513699
 30
0.0
 11
167.6981453413599
 21
172.3260100513698
 31
0.0
  0
LINE
  5
763E
330
18
100
AcDbEntity
  8
0
100
AcDbLine
 10
175.9981453413597
 20
171.8260100513699
 30
0.0
 11
175.9981453413598
 21
118.8260100513699
 31
0.0
  0
LINE
  5
763F
330
18
100
AcDbEntity
  8
0
100
AcDbLine
 10
167.6981453413599
 20
171.8260100513699
 30
0.0
 11
167.6981453413598
 21
118.8260100513699
 31
0.0
  0
LINE
  5
7640
330
18
100
AcDbEntity
  8
0
100
AcDbLine
 10
167.0981453413597
 20
118.3260100513699
 30
0.0
 11
167.0981453413597
 21
172.3260100513698
 31
0.0
  0
LINE
  5
7641
330
18
100
AcDbEntity
  8
0
100
AcDbLine
 10
180.5981453413597
 20
172.3260100513698
 30
0.0
 11
180.5981453413597
 21
170.7260100513699
 31
0.0
  0
LINE
  5
7642
330
18
100
AcDbEntity
  8
0
100
AcDbLine
 10
167.6981453413599
 20
119.9260100513699
 30
0.0
 11
182.6981453413598
 21
119.92601005137
 31
0.0
  0
LINE
  5
7643
330
18
100
AcDbEntity
  8
0
100
AcDbLine
 10
180.5981453413597
 20
118.3260100513699
 30
0.0
 11
167.0981453413597
 21
118.3260100513699
 31
0.0
  0
LINE
  5
7644
330
18
100
AcDbEntity
  8
0
100
AcDbLine
 10
175.9981453413598
 20
118.8260100513699
 30
0.0
 11
167.6981453413596
 21
118.8260100513699
 31
0.0
  0
LINE
  5
764D
330
18
100
AcDbEntity
  8
0
100
AcDbLine
 10
176.6981453413599
 20
144.8260100513697
 30
0.0
 11
176.6981453413599
 21
140.7460100513697
 31
0.0
  0
LINE
  5
764E
330
18
100
AcDbEntity
  8
0
100
AcDbLine
 10
176.6981453413599
 20
134.6660100513697
 30
0.0
 11
176.6981453413599
 21
130.5860100513696
 31
0.0
  0
LINE
  5
764F
330
18
100
AcDbEntity
  8
0
100
AcDbLine
 10
176.6981453413599
 20
124.5060100513696
 30
0.0
 11
176.6981453413599
 21
120.4260100513695
 31
0.0
  0
LINE
  5
7650
330
18
100
AcDbEntity
  8
0
100
AcDbLine
 10
176.6981453413599
 20
129.5860100513696
 30
0.0
 11
176.6981453413599
 21
125.5060100513696
 31
0.0
  0
LINE
  5
7651
330
18
100
AcDbEntity
  8
0
100
AcDbLine
 10
176.6981453413599
 20
139.7460100513697
 30
0.0
 11
176.6981453413599
 21
135.6660100513697
 31
0.0
  0
LINE
  5
7652
330
18
100
AcDbEntity
  8
0
100
AcDbLine
 10
174.0981453413597
 20
144.0860100513695
 30
0.0
 11
174.0981453413597
 21
141.4860100513696
 31
0.0
  0
LINE
  5
7653
330
18
100
AcDbEntity
  8
0
100
AcDbLine
 10
170.1981453413598
 20
144.0860100513693
 30
0.0
 11
170.1981453413599
 21
141.4860100513696
 31
0.0
  0
LINE
  5
7654
330
18
100
AcDbEntity
  8
0
100
AcDbLine
 10
169.6981453413599
 20
144.8260100513697
 30
0.0
 11
169.6981453413599
 21
140.7460100513696
 31
0.0
  0
LINE
  5
7655
330
18
100
AcDbEntity
  8
0
100
AcDbLine
 10
170.1981453413599
 20
141.4860100513696
 30
0.0
 11
169.6981453413599
 21
140.7460100513696
 31
0.0
  0
LINE
  5
7656
330
18
100
AcDbEntity
  8
0
100
AcDbLine
 10
169.6981453413599
 20
139.7460100513696
 30
0.0
 11
170.1981453413598
 21
139.0060100513692
 31
0.0
  0
LINE
  5
7657
330
18
100
AcDbEntity
  8
0
100
AcDbLine
 10
170.1981453413599
 20
141.4860100513696
 30
0.0
 11
174.0981453413597
 21
141.4860100513695
 31
0.0
  0
LINE
  5
7658
330
18
100
AcDbEntity
  8
0
100
AcDbLine
 10
170.1981453413598
 20
139.0060100513692
 30
0.0
 11
174.0981453413597
 21
139.0060100513696
 31
0.0
  0
LINE
  5
7659
330
18
100
AcDbEntity
  8
0
100
AcDbLine
 10
170.1981453413599
 20
146.5660100513696
 30
0.0
 11
169.6981453413599
 21
145.8260100513696
 31
0.0
  0
LINE
  5
765A
330
18
100
AcDbEntity
  8
0
100
AcDbLine
 10
169.6981453413599
 20
144.8260100513696
 30
0.0
 11
170.1981453413598
 21
144.0860100513693
 31
0.0
  0
LINE
  5
765B
330
18
100
AcDbEntity
  8
0
100
AcDbLine
 10
170.1981453413599
 20
146.5660100513696
 30
0.0
 11
174.0981453413597
 21
146.5660100513695
 31
0.0
  0
LINE
  5
765C
330
18
100
AcDbEntity
  8
0
100
AcDbLine
 10
170.1981453413598
 20
144.0860100513693
 30
0.0
 11
174.0981453413597
 21
144.0860100513696
 31
0.0
  0
LINE
  5
765D
330
18
100
AcDbEntity
  8
0
100
AcDbLine
 10
174.0981453413597
 20
133.9260100513694
 30
0.0
 11
174.0981453413597
 21
131.3260100513695
 31
0.0
  0
LINE
  5
765E
330
18
100
AcDbEntity
  8
0
100
AcDbLine
 10
170.1981453413599
 20
131.3260100513695
 30
0.0
 11
169.6981453413599
 21
130.5860100513695
 31
0.0
  0
LINE
  5
765F
330
18
100
AcDbEntity
  8
0
100
AcDbLine
 10
169.6981453413599
 20
134.6660100513697
 30
0.0
 11
169.6981453413599
 21
130.5860100513695
 31
0.0
  0
LINE
  5
7660
330
18
100
AcDbEntity
  8
0
100
AcDbLine
 10
170.1981453413598
 20
133.9260100513692
 30
0.0
 11
170.1981453413599
 21
131.3260100513695
 31
0.0
  0
LINE
  5
7661
330
18
100
AcDbEntity
  8
0
100
AcDbLine
 10
169.6981453413599
 20
134.6660100513696
 30
0.0
 11
170.1981453413598
 21
133.9260100513692
 31
0.0
  0
LINE
  5
7662
330
18
100
AcDbEntity
  8
0
100
AcDbLine
 10
170.1981453413599
 20
131.3260100513695
 30
0.0
 11
174.0981453413597
 21
131.3260100513694
 31
0.0
  0
LINE
  5
7663
330
18
100
AcDbEntity
  8
0
100
AcDbLine
 10
170.1981453413598
 20
133.9260100513692
 30
0.0
 11
174.0981453413597
 21
133.9260100513695
 31
0.0
  0
LINE
  5
7664
330
18
100
AcDbEntity
  8
0
100
AcDbLine
 10
170.1981453413599
 20
136.4060100513696
 30
0.0
 11
169.6981453413599
 21
135.6660100513696
 31
0.0
  0
LINE
  5
7665
330
18
100
AcDbEntity
  8
0
100
AcDbLine
 10
170.1981453413599
 20
136.4060100513696
 30
0.0
 11
174.0981453413597
 21
136.4060100513694
 31
0.0
  0
LINE
  5
7666
330
18
100
AcDbEntity
  8
0
100
AcDbLine
 10
174.0981453413597
 20
128.8460100513694
 30
0.0
 11
174.0981453413597
 21
126.2460100513695
 31
0.0
  0
LINE
  5
7667
330
18
100
AcDbEntity
  8
0
100
AcDbLine
 10
170.1981453413598
 20
128.8460100513691
 30
0.0
 11
170.1981453413599
 21
126.2460100513695
 31
0.0
  0
LINE
  5
7668
330
18
100
AcDbEntity
  8
0
100
AcDbLine
 10
174.0981453413597
 20
123.7660100513694
 30
0.0
 11
174.0981453413597
 21
121.1660100513694
 31
0.0
  0
LINE
  5
7669
330
18
100
AcDbEntity
  8
0
100
AcDbLine
 10
170.1981453413599
 20
126.2460100513695
 30
0.0
 11
169.6981453413599
 21
125.5060100513695
 31
0.0
  0
LINE
  5
766A
330
18
100
AcDbEntity
  8
0
100
AcDbLine
 10
170.1981453413598
 20
123.7660100513691
 30
0.0
 11
170.1981453413599
 21
121.1660100513694
 31
0.0
  0
LINE
  5
766B
330
18
100
AcDbEntity
  8
0
100
AcDbLine
 10
169.6981453413599
 20
124.5060100513695
 30
0.0
 11
170.1981453413598
 21
123.7660100513691
 31
0.0
  0
LINE
  5
766C
330
18
100
AcDbEntity
  8
0
100
AcDbLine
 10
170.1981453413599
 20
121.1660100513694
 30
0.0
 11
169.6981453413599
 21
120.4260100513694
 31
0.0
  0
LINE
  5
766D
330
18
100
AcDbEntity
  8
0
100
AcDbLine
 10
169.6981453413599
 20
124.5060100513696
 30
0.0
 11
169.6981453413599
 21
120.4260100513694
 31
0.0
  0
LINE
  5
766E
330
18
100
AcDbEntity
  8
0
100
AcDbLine
 10
170.1981453413599
 20
126.2460100513695
 30
0.0
 11
174.0981453413597
 21
126.2460100513694
 31
0.0
  0
LINE
  5
766F
330
18
100
AcDbEntity
  8
0
100
AcDbLine
 10
170.1981453413599
 20
121.1660100513694
 30
0.0
 11
174.0981453413597
 21
121.1660100513693
 31
0.0
  0
LINE
  5
7670
330
18
100
AcDbEntity
  8
0
100
AcDbLine
 10
170.1981453413598
 20
123.7660100513691
 30
0.0
 11
174.0981453413597
 21
123.7660100513695
 31
0.0
  0
LINE
  5
7671
330
18
100
AcDbEntity
  8
0
100
AcDbLine
 10
170.1981453413598
 20
128.8460100513691
 30
0.0
 11
174.0981453413597
 21
128.8460100513695
 31
0.0
  0
LINE
  5
7672
330
18
100
AcDbEntity
  8
0
100
AcDbLine
 10
169.6981453413599
 20
129.5860100513696
 30
0.0
 11
169.6981453413599
 21
125.5060100513695
 31
0.0
  0
LINE
  5
7673
330
18
100
AcDbEntity
  8
0
100
AcDbLine
 10
169.6981453413599
 20
129.5860100513695
 30
0.0
 11
170.1981453413598
 21
128.8460100513691
 31
0.0
  0
LINE
  5
7674
330
18
100
AcDbEntity
  8
0
100
AcDbLine
 10
174.0981453413597
 20
139.0060100513695
 30
0.0
 11
174.0981453413597
 21
136.4060100513696
 31
0.0
  0
LINE
  5
7675
330
18
100
AcDbEntity
  8
0
100
AcDbLine
 10
170.1981453413598
 20
139.0060100513692
 30
0.0
 11
170.1981453413599
 21
136.4060100513696
 31
0.0
  0
LINE
  5
7676
330
18
100
AcDbEntity
  8
0
100
AcDbLine
 10
169.6981453413599
 20
139.7460100513697
 30
0.0
 11
169.6981453413599
 21
135.6660100513696
 31
0.0
  0
LINE
  5
7677
330
18
100
AcDbEntity
  8
0
100
AcDbLine
 10
174.0981453413597
 20
126.2460100513694
 30
0.0
 11
176.6981453413599
 21
125.5060100513696
 31
0.0
  0
LINE
  5
7678
330
18
100
AcDbEntity
  8
0
100
AcDbLine
 10
174.0981453413597
 20
123.7660100513694
 30
0.0
 11
176.6981453413599
 21
124.5060100513696
 31
0.0
  0
LINE
  5
7679
330
18
100
AcDbEntity
  8
0
100
AcDbLine
 10
174.0981453413597
 20
121.1660100513693
 30
0.0
 11
176.6981453413599
 21
120.4260100513695
 31
0.0
  0
LINE
  5
767A
330
18
100
AcDbEntity
  8
0
100
AcDbLine
 10
169.6981453413599
 20
125.5060100513695
 30
0.0
 11
176.6981453413599
 21
125.5060100513696
 31
0.0
  0
LINE
  5
767B
330
18
100
AcDbEntity
  8
0
100
AcDbLine
 10
169.6981453413599
 20
124.5060100513696
 30
0.0
 11
176.6981453413599
 21
124.5060100513696
 31
0.0
  0
LINE
  5
767C
330
18
100
AcDbEntity
  8
0
100
AcDbLine
 10
169.6981453413599
 20
120.4260100513694
 30
0.0
 11
176.6981453413599
 21
120.4260100513695
 31
0.0
  0
LINE
  5
767D
330
18
100
AcDbEntity
  8
0
100
AcDbLine
 10
174.0981453413597
 20
131.3260100513694
 30
0.0
 11
176.6981453413599
 21
130.5860100513696
 31
0.0
  0
LINE
  5
767E
330
18
100
AcDbEntity
  8
0
100
AcDbLine
 10
174.0981453413597
 20
128.8460100513694
 30
0.0
 11
176.6981453413599
 21
129.5860100513696
 31
0.0
  0
LINE
  5
767F
330
18
100
AcDbEntity
  8
0
100
AcDbLine
 10
174.0981453413597
 20
133.9260100513694
 30
0.0
 11
176.6981453413599
 21
134.6660100513697
 31
0.0
  0
LINE
  5
7680
330
18
100
AcDbEntity
  8
0
100
AcDbLine
 10
169.6981453413599
 20
130.5860100513695
 30
0.0
 11
176.6981453413599
 21
130.5860100513696
 31
0.0
  0
LINE
  5
7681
330
18
100
AcDbEntity
  8
0
100
AcDbLine
 10
169.6981453413599
 20
129.5860100513696
 30
0.0
 11
176.6981453413599
 21
129.5860100513696
 31
0.0
  0
LINE
  5
7682
330
18
100
AcDbEntity
  8
0
100
AcDbLine
 10
169.6981453413599
 20
134.6660100513697
 30
0.0
 11
176.6981453413599
 21
134.6660100513697
 31
0.0
  0
LINE
  5
7683
330
18
100
AcDbEntity
  8
0
100
AcDbLine
 10
174.0981453413597
 20
141.4860100513695
 30
0.0
 11
176.6981453413599
 21
140.7460100513697
 31
0.0
  0
LINE
  5
7684
330
18
100
AcDbEntity
  8
0
100
AcDbLine
 10
174.0981453413597
 20
139.0060100513695
 30
0.0
 11
176.6981453413599
 21
139.7460100513697
 31
0.0
  0
LINE
  5
7685
330
18
100
AcDbEntity
  8
0
100
AcDbLine
 10
174.0981453413597
 20
136.4060100513694
 30
0.0
 11
176.6981453413599
 21
135.6660100513697
 31
0.0
  0
LINE
  5
7686
330
18
100
AcDbEntity
  8
0
100
AcDbLine
 10
169.6981453413599
 20
140.7460100513696
 30
0.0
 11
176.6981453413599
 21
140.7460100513697
 31
0.0
  0
LINE
  5
7687
330
18
100
AcDbEntity
  8
0
100
AcDbLine
 10
169.6981453413599
 20
139.7460100513697
 30
0.0
 11
176.6981453413599
 21
139.7460100513697
 31
0.0
  0
LINE
  5
7688
330
18
100
AcDbEntity
  8
0
100
AcDbLine
 10
169.6981453413599
 20
135.6660100513696
 30
0.0
 11
176.6981453413599
 21
135.6660100513697
 31
0.0
  0
LINE
  5
7689
330
18
100
AcDbEntity
  8
0
100
AcDbLine
 10
174.0981453413597
 20
146.5660100513695
 30
0.0
 11
176.6981453413599
 21
145.8260100513697
 31
0.0
  0
LINE
  5
768A
330
18
100
AcDbEntity
  8
0
100
AcDbLine
 10
174.0981453413597
 20
144.0860100513695
 30
0.0
 11
176.6981453413599
 21
144.8260100513697
 31
0.0
  0
LINE
  5
768B
330
18
100
AcDbEntity
  8
0
100
AcDbLine
 10
169.6981453413599
 20
145.8260100513696
 30
0.0
 11
176.6981453413599
 21
145.8260100513697
 31
0.0
  0
LINE
  5
768C
330
18
100
AcDbEntity
  8
0
100
AcDbLine
 10
169.6981453413599
 20
144.8260100513697
 30
0.0
 11
176.6981453413599
 21
144.8260100513697
 31
0.0
  0
LINE
  5
768E
330
18
100
AcDbEntity
  8
0
100
AcDbLine
 10
167.6981453413596
 20
205.44601005137
 30
0.0
 11
182.6981453413598
 21
205.4460100513701
 31
0.0
  0
LINE
  5
768F
330
18
100
AcDbEntity
  8
0
100
AcDbLine
 10
180.5981453413597
 20
206.8260100513701
 30
0.0
 11
167.0981453413597
 21
206.8260100513699
 31
0.0
  0
LINE
  5
7690
330
18
100
AcDbEntity
  8
0
100
AcDbLine
 10
175.9981453413598
 20
206.3260100513701
 30
0.0
 11
167.6981453413598
 21
206.3260100513699
 31
0.0
  0
LINE
  5
7691
330
18
100
AcDbEntity
  8
0
100
AcDbLine
 10
180.5981453413597
 20
172.3260100513698
 30
0.0
 11
167.0981453413597
 21
172.3260100513698
 31
0.0
  0
LINE
  5
7692
330
18
100
AcDbEntity
  8
0
100
AcDbLine
 10
175.9981453413597
 20
171.8260100513699
 30
0.0
 11
167.6981453413599
 21
171.8260100513699
 31
0.0
  0
LINE
  5
7693
330
18
100
AcDbEntity
  8
0
100
AcDbLine
 10
167.6981453413599
 20
170.7260100513698
 30
0.0
 11
182.6981453413599
 21
170.72601005137
 31
0.0
  0
LINE
  5
7694
330
18
100
AcDbEntity
  8
0
100
AcDbLine
 10
180.5981453413597
 20
188.8260100513699
 30
0.0
 11
167.0981453413597
 21
188.8260100513699
 31
0.0
  0
LINE
  5
7695
330
18
100
AcDbEntity
  8
0
100
AcDbLine
 10
175.9981453413598
 20
189.3260100513699
 30
0.0
 11
167.6981453413598
 21
189.3260100513699
 31
0.0
  0
LINE
  5
7696
330
18
100
AcDbEntity
  8
0
100
AcDbLine
 10
167.6981453413599
 20
190.2060100513699
 30
0.0
 11
182.69814534136
 21
190.20601005137
 31
0.0
  0
LINE
  5
769D
330
18
100
AcDbEntity
  8
0
100
AcDbLine
 10
167.6981453413596
 20
205.44601005137
 30
0.0
 11
167.6981453413598
 21
190.2060100513699
 31
0.0
  0
LINE
  5
769E
330
18
100
AcDbEntity
  8
0
100
AcDbLine
 10
167.6981453413598
 20
206.3260100513699
 30
0.0
 11
167.6981453413598
 21
189.3260100513699
 31
0.0
  0
LINE
  5
769F
330
18
100
AcDbEntity
  8
0
100
AcDbLine
 10
167.0981453413597
 20
206.8260100513699
 30
0.0
 11
167.0981453413597
 21
188.8260100513699
 31
0.0
  0
LINE
  5
76A1
330
18
100
AcDbEntity
  8
0
100
AcDbLine
 10
176.6981453413599
 20
165.1460100513699
 30
0.0
 11
176.6981453413599
 21
161.0660100513699
 31
0.0
  0
LINE
  5
76A2
330
18
100
AcDbEntity
  8
0
100
AcDbLine
 10
176.6981453413599
 20
170.2260100513699
 30
0.0
 11
176.6981453413599
 21
166.1460100513699
 31
0.0
  0
LINE
  5
76A3
330
18
100
AcDbEntity
  8
0
100
AcDbLine
 10
176.6981453413599
 20
154.9860100513698
 30
0.0
 11
176.6981453413599
 21
150.9060100513698
 31
0.0
  0
LINE
  5
76A4
330
18
100
AcDbEntity
  8
0
100
AcDbLine
 10
176.6981453413599
 20
160.0660100513699
 30
0.0
 11
176.6981453413599
 21
155.9860100513698
 31
0.0
  0
LINE
  5
76A5
330
18
100
AcDbEntity
  8
0
100
AcDbLine
 10
169.6981453413599
 20
170.2260100513698
 30
0.0
 11
170.1981453413598
 21
169.4860100513695
 31
0.0
  0
LINE
  5
76A6
330
18
100
AcDbEntity
  8
0
100
AcDbLine
 10
170.1981453413598
 20
169.4860100513695
 30
0.0
 11
174.0981453413597
 21
169.4860100513698
 31
0.0
  0
LINE
  5
76A7
330
18
100
AcDbEntity
  8
0
100
AcDbLine
 10
170.1981453413599
 20
166.8860100513698
 30
0.0
 11
169.6981453413599
 21
166.1460100513698
 31
0.0
  0
LINE
  5
76A8
330
18
100
AcDbEntity
  8
0
100
AcDbLine
 10
174.0981453413597
 20
164.4060100513697
 30
0.0
 11
174.0981453413597
 21
161.8060100513698
 31
0.0
  0
LINE
  5
76A9
330
18
100
AcDbEntity
  8
0
100
AcDbLine
 10
169.6981453413599
 20
165.1460100513699
 30
0.0
 11
169.6981453413599
 21
161.0660100513698
 31
0.0
  0
LINE
  5
76AA
330
18
100
AcDbEntity
  8
0
100
AcDbLine
 10
170.1981453413599
 20
161.8060100513698
 30
0.0
 11
169.6981453413599
 21
161.0660100513698
 31
0.0
  0
LINE
  5
76AB
330
18
100
AcDbEntity
  8
0
100
AcDbLine
 10
169.6981453413599
 20
165.1460100513698
 30
0.0
 11
170.1981453413598
 21
164.4060100513694
 31
0.0
  0
LINE
  5
76AC
330
18
100
AcDbEntity
  8
0
100
AcDbLine
 10
170.1981453413598
 20
164.4060100513694
 30
0.0
 11
170.1981453413599
 21
161.8060100513698
 31
0.0
  0
LINE
  5
76AD
330
18
100
AcDbEntity
  8
0
100
AcDbLine
 10
169.6981453413599
 20
160.0660100513698
 30
0.0
 11
170.1981453413598
 21
159.3260100513694
 31
0.0
  0
LINE
  5
76AE
330
18
100
AcDbEntity
  8
0
100
AcDbLine
 10
170.1981453413598
 20
164.4060100513694
 30
0.0
 11
174.0981453413597
 21
164.4060100513698
 31
0.0
  0
LINE
  5
76AF
330
18
100
AcDbEntity
  8
0
100
AcDbLine
 10
170.1981453413599
 20
161.8060100513698
 30
0.0
 11
174.0981453413597
 21
161.8060100513696
 31
0.0
  0
LINE
  5
76B0
330
18
100
AcDbEntity
  8
0
100
AcDbLine
 10
170.1981453413598
 20
159.3260100513694
 30
0.0
 11
174.0981453413597
 21
159.3260100513697
 31
0.0
  0
LINE
  5
76B1
330
18
100
AcDbEntity
  8
0
100
AcDbLine
 10
170.1981453413599
 20
166.8860100513698
 30
0.0
 11
174.0981453413597
 21
166.8860100513697
 31
0.0
  0
LINE
  5
76B2
330
18
100
AcDbEntity
  8
0
100
AcDbLine
 10
169.6981453413599
 20
170.2260100513699
 30
0.0
 11
169.6981453413599
 21
166.1460100513698
 31
0.0
  0
LINE
  5
76B3
330
18
100
AcDbEntity
  8
0
100
AcDbLine
 10
174.0981453413597
 20
169.4860100513697
 30
0.0
 11
174.0981453413597
 21
166.8860100513698
 31
0.0
  0
LINE
  5
76B4
330
18
100
AcDbEntity
  8
0
100
AcDbLine
 10
170.1981453413598
 20
169.4860100513695
 30
0.0
 11
170.1981453413599
 21
166.8860100513698
 31
0.0
  0
LINE
  5
76B5
330
18
100
AcDbEntity
  8
0
100
AcDbLine
 10
169.6981453413599
 20
149.9060100513697
 30
0.0
 11
170.1981453413598
 21
149.1660100513693
 31
0.0
  0
LINE
  5
76B6
330
18
100
AcDbEntity
  8
0
100
AcDbLine
 10
170.1981453413598
 20
149.1660100513693
 30
0.0
 11
174.0981453413597
 21
149.1660100513697
 31
0.0
  0
LINE
  5
76B7
330
18
100
AcDbEntity
  8
0
100
AcDbLine
 10
174.0981453413597
 20
154.2460100513696
 30
0.0
 11
174.0981453413597
 21
151.6460100513697
 31
0.0
  0
LINE
  5
76B8
330
18
100
AcDbEntity
  8
0
100
AcDbLine
 10
170.1981453413599
 20
151.6460100513697
 30
0.0
 11
169.6981453413599
 21
150.9060100513697
 31
0.0
  0
LINE
  5
76B9
330
18
100
AcDbEntity
  8
0
100
AcDbLine
 10
170.1981453413599
 20
156.7260100513697
 30
0.0
 11
169.6981453413599
 21
155.9860100513697
 31
0.0
  0
LINE
  5
76BA
330
18
100
AcDbEntity
  8
0
100
AcDbLine
 10
169.6981453413599
 20
154.9860100513697
 30
0.0
 11
170.1981453413598
 21
154.2460100513694
 31
0.0
  0
LINE
  5
76BB
330
18
100
AcDbEntity
  8
0
100
AcDbLine
 10
170.1981453413598
 20
154.2460100513694
 30
0.0
 11
170.1981453413599
 21
151.6460100513697
 31
0.0
  0
LINE
  5
76BC
330
18
100
AcDbEntity
  8
0
100
AcDbLine
 10
169.6981453413599
 20
154.9860100513698
 30
0.0
 11
169.6981453413599
 21
150.9060100513697
 31
0.0
  0
LINE
  5
76BD
330
18
100
AcDbEntity
  8
0
100
AcDbLine
 10
170.1981453413599
 20
151.6460100513697
 30
0.0
 11
174.0981453413597
 21
151.6460100513696
 31
0.0
  0
LINE
  5
76BE
330
18
100
AcDbEntity
  8
0
100
AcDbLine
 10
170.1981453413599
 20
156.7260100513697
 30
0.0
 11
174.0981453413597
 21
156.7260100513696
 31
0.0
  0
LINE
  5
76BF
330
18
100
AcDbEntity
  8
0
100
AcDbLine
 10
170.1981453413598
 20
154.2460100513694
 30
0.0
 11
174.0981453413597
 21
154.2460100513697
 31
0.0
  0
LINE
  5
76C0
330
18
100
AcDbEntity
  8
0
100
AcDbLine
 10
174.0981453413597
 20
159.3260100513696
 30
0.0
 11
174.0981453413597
 21
156.7260100513697
 31
0.0
  0
LINE
  5
76C1
330
18
100
AcDbEntity
  8
0
100
AcDbLine
 10
170.1981453413598
 20
159.3260100513694
 30
0.0
 11
170.1981453413599
 21
156.7260100513697
 31
0.0
  0
LINE
  5
76C2
330
18
100
AcDbEntity
  8
0
100
AcDbLine
 10
169.6981453413599
 20
160.0660100513699
 30
0.0
 11
169.6981453413599
 21
155.9860100513697
 31
0.0
  0
LINE
  5
76C3
330
18
100
AcDbEntity
  8
0
100
AcDbLine
 10
174.0981453413597
 20
166.8860100513697
 30
0.0
 11
176.6981453413599
 21
166.1460100513699
 31
0.0
  0
LINE
  5
76C4
330
18
100
AcDbEntity
  8
0
100
AcDbLine
 10
174.0981453413597
 20
149.1660100513696
 30
0.0
 11
176.6981453413599
 21
149.9060100513698
 31
0.0
  0
LINE
  5
76C5
330
18
100
AcDbEntity
  8
0
100
AcDbLine
 10
169.6981453413599
 20
149.9060100513698
 30
0.0
 11
176.6981453413599
 21
149.9060100513698
 31
0.0
  0
LINE
  5
76C6
330
18
100
AcDbEntity
  8
0
100
AcDbLine
 10
174.0981453413597
 20
151.6460100513696
 30
0.0
 11
176.6981453413599
 21
150.9060100513698
 31
0.0
  0
LINE
  5
76C7
330
18
100
AcDbEntity
  8
0
100
AcDbLine
 10
174.0981453413597
 20
156.7260100513696
 30
0.0
 11
176.6981453413599
 21
155.9860100513698
 31
0.0
  0
LINE
  5
76C8
330
18
100
AcDbEntity
  8
0
100
AcDbLine
 10
174.0981453413597
 20
154.2460100513696
 30
0.0
 11
176.6981453413599
 21
154.9860100513698
 31
0.0
  0
LINE
  5
76C9
330
18
100
AcDbEntity
  8
0
100
AcDbLine
 10
169.6981453413599
 20
150.9060100513697
 30
0.0
 11
176.6981453413599
 21
150.9060100513698
 31
0.0
  0
LINE
  5
76CA
330
18
100
AcDbEntity
  8
0
100
AcDbLine
 10
169.6981453413599
 20
155.9860100513697
 30
0.0
 11
176.6981453413599
 21
155.9860100513698
 31
0.0
  0
LINE
  5
76CB
330
18
100
AcDbEntity
  8
0
100
AcDbLine
 10
169.6981453413599
 20
154.9860100513698
 30
0.0
 11
176.6981453413599
 21
154.9860100513698
 31
0.0
  0
LINE
  5
76CC
330
18
100
AcDbEntity
  8
0
100
AcDbLine
 10
174.0981453413597
 20
161.8060100513696
 30
0.0
 11
176.6981453413599
 21
161.0660100513699
 31
0.0
  0
LINE
  5
76CD
330
18
100
AcDbEntity
  8
0
100
AcDbLine
 10
174.0981453413597
 20
164.4060100513697
 30
0.0
 11
176.6981453413599
 21
165.1460100513699
 31
0.0
  0
LINE
  5
76CE
330
18
100
AcDbEntity
  8
0
100
AcDbLine
 10
174.0981453413597
 20
159.3260100513696
 30
0.0
 11
176.6981453413599
 21
160.0660100513699
 31
0.0
  0
LINE
  5
76CF
330
18
100
AcDbEntity
  8
0
100
AcDbLine
 10
169.6981453413599
 20
166.1460100513698
 30
0.0
 11
176.6981453413599
 21
166.1460100513699
 31
0.0
  0
LINE
  5
76D0
330
18
100
AcDbEntity
  8
0
100
AcDbLine
 10
169.6981453413599
 20
161.0660100513698
 30
0.0
 11
176.6981453413599
 21
161.0660100513699
 31
0.0
  0
LINE
  5
76D1
330
18
100
AcDbEntity
  8
0
100
AcDbLine
 10
169.6981453413599
 20
165.1460100513699
 30
0.0
 11
176.6981453413599
 21
165.1460100513699
 31
0.0
  0
LINE
  5
76D2
330
18
100
AcDbEntity
  8
0
100
AcDbLine
 10
169.6981453413599
 20
160.0660100513699
 30
0.0
 11
176.6981453413599
 21
160.0660100513699
 31
0.0
  0
LINE
  5
76D3
330
18
100
AcDbEntity
  8
0
100
AcDbLine
 10
174.0981453413597
 20
169.4860100513697
 30
0.0
 11
176.6981453413599
 21
170.2260100513699
 31
0.0
  0
LINE
  5
76D4
330
18
100
AcDbEntity
  8
0
100
AcDbLine
 10
169.6981453413599
 20
170.2260100513699
 30
0.0
 11
176.6981453413599
 21
170.2260100513699
 31
0.0
  0
LINE
  5
76D6
330
18
100
AcDbEntity
  8
0
100
AcDbLine
 10
190.5981453413597
 20
171.0760100513699
 30
0.0
 11
184.5981453413597
 21
171.0760100513699
 31
0.0
  0
LINE
  5
76D7
330
18
100
AcDbEntity
  8
0
100
AcDbLine
 10
190.5981453413596
 20
155.5760100513699
 30
0.0
 11
184.5981453413597
 21
155.5760100513699
 31
0.0
  0
LINE
  5
76D8
330
18
100
AcDbEntity
  8
0
100
AcDbLine
 10
184.5981453413597
 20
155.5760100513699
 30
0.0
 11
184.5981453413597
 21
171.0760100513699
 31
0.0
  0
LINE
  5
76D9
330
18
100
AcDbEntity
  8
0
100
AcDbLine
 10
176.6981453413598
 20
204.9460100513701
 30
0.0
 11
176.6981453413598
 21
200.86601005137
 31
0.0
  0
LINE
  5
76DA
330
18
100
AcDbEntity
  8
0
100
AcDbLine
 10
174.0981453413596
 20
204.2060100513698
 30
0.0
 11
174.0981453413596
 21
201.6060100513699
 31
0.0
  0
LINE
  5
76DB
330
18
100
AcDbEntity
  8
0
100
AcDbLine
 10
169.6981453413596
 20
204.94601005137
 30
0.0
 11
170.1981453413596
 21
204.2060100513696
 31
0.0
  0
LINE
  5
76DC
330
18
100
AcDbEntity
  8
0
100
AcDbLine
 10
169.6981453413596
 20
199.8660100513699
 30
0.0
 11
170.1981453413596
 21
199.1260100513696
 31
0.0
  0
LINE
  5
76DD
330
18
100
AcDbEntity
  8
0
100
AcDbLine
 10
170.1981453413596
 20
201.6060100513699
 30
0.0
 11
169.6981453413596
 21
200.8660100513699
 31
0.0
  0
LINE
  5
76DE
330
18
100
AcDbEntity
  8
0
100
AcDbLine
 10
170.1981453413596
 20
204.2060100513696
 30
0.0
 11
170.1981453413596
 21
201.6060100513699
 31
0.0
  0
LINE
  5
76DF
330
18
100
AcDbEntity
  8
0
100
AcDbLine
 10
169.6981453413596
 20
204.9460100513701
 30
0.0
 11
169.6981453413596
 21
200.8660100513699
 31
0.0
  0
LINE
  5
76E0
330
18
100
AcDbEntity
  8
0
100
AcDbLine
 10
170.1981453413596
 20
199.1260100513696
 30
0.0
 11
174.0981453413596
 21
199.1260100513699
 31
0.0
  0
LINE
  5
76E1
330
18
100
AcDbEntity
  8
0
100
AcDbLine
 10
170.1981453413596
 20
204.2060100513696
 30
0.0
 11
174.0981453413596
 21
204.20601005137
 31
0.0
  0
LINE
  5
76E2
330
18
100
AcDbEntity
  8
0
100
AcDbLine
 10
170.1981453413596
 20
201.6060100513699
 30
0.0
 11
174.0981453413596
 21
201.6060100513698
 31
0.0
  0
LINE
  5
76E3
330
18
100
AcDbEntity
  8
0
100
AcDbLine
 10
174.0981453413596
 20
204.2060100513698
 30
0.0
 11
176.6981453413598
 21
204.9460100513701
 31
0.0
  0
LINE
  5
76E4
330
18
100
AcDbEntity
  8
0
100
AcDbLine
 10
174.0981453413596
 20
199.1260100513698
 30
0.0
 11
176.6981453413598
 21
199.8660100513701
 31
0.0
  0
LINE
  5
76E5
330
18
100
AcDbEntity
  8
0
100
AcDbLine
 10
174.0981453413596
 20
201.6060100513698
 30
0.0
 11
176.6981453413598
 21
200.86601005137
 31
0.0
  0
LINE
  5
76E6
330
18
100
AcDbEntity
  8
0
100
AcDbLine
 10
169.6981453413596
 20
199.8660100513701
 30
0.0
 11
176.6981453413598
 21
199.8660100513701
 31
0.0
  0
LINE
  5
76E7
330
18
100
AcDbEntity
  8
0
100
AcDbLine
 10
169.6981453413596
 20
200.8660100513699
 30
0.0
 11
176.6981453413598
 21
200.86601005137
 31
0.0
  0
LINE
  5
76E8
330
18
100
AcDbEntity
  8
0
100
AcDbLine
 10
169.6981453413596
 20
204.9460100513701
 30
0.0
 11
176.6981453413598
 21
204.9460100513701
 31
0.0
  0
LINE
  5
76E9
330
18
100
AcDbEntity
  8
0
100
AcDbLine
 10
176.6981453413598
 20
194.78601005137
 30
0.0
 11
176.6981453413598
 21
190.70601005137
 31
0.0
  0
LINE
  5
76EA
330
18
100
AcDbEntity
  8
0
100
AcDbLine
 10
174.0981453413596
 20
194.0460100513698
 30
0.0
 11
174.0981453413596
 21
191.4460100513699
 31
0.0
  0
LINE
  5
76EB
330
18
100
AcDbEntity
  8
0
100
AcDbLine
 10
170.1981453413596
 20
196.5260100513699
 30
0.0
 11
169.6981453413596
 21
195.7860100513699
 31
0.0
  0
LINE
  5
76EC
330
18
100
AcDbEntity
  8
0
100
AcDbLine
 10
170.1981453413596
 20
194.0460100513695
 30
0.0
 11
170.1981453413596
 21
191.4460100513699
 31
0.0
  0
LINE
  5
76ED
330
18
100
AcDbEntity
  8
0
100
AcDbLine
 10
169.6981453413596
 20
194.78601005137
 30
0.0
 11
169.6981453413596
 21
190.7060100513699
 31
0.0
  0
LINE
  5
76EE
330
18
100
AcDbEntity
  8
0
100
AcDbLine
 10
170.1981453413596
 20
191.4460100513699
 30
0.0
 11
169.6981453413596
 21
190.7060100513699
 31
0.0
  0
LINE
  5
76EF
330
18
100
AcDbEntity
  8
0
100
AcDbLine
 10
169.6981453413596
 20
194.7860100513699
 30
0.0
 11
170.1981453413596
 21
194.0460100513695
 31
0.0
  0
LINE
  5
76F0
330
18
100
AcDbEntity
  8
0
100
AcDbLine
 10
170.1981453413596
 20
196.5260100513699
 30
0.0
 11
174.0981453413596
 21
196.5260100513698
 31
0.0
  0
LINE
  5
76F1
330
18
100
AcDbEntity
  8
0
100
AcDbLine
 10
170.1981453413596
 20
194.0460100513695
 30
0.0
 11
174.0981453413596
 21
194.0460100513699
 31
0.0
  0
LINE
  5
76F2
330
18
100
AcDbEntity
  8
0
100
AcDbLine
 10
170.1981453413596
 20
191.4460100513699
 30
0.0
 11
174.0981453413596
 21
191.4460100513698
 31
0.0
  0
LINE
  5
76F3
330
18
100
AcDbEntity
  8
0
100
AcDbLine
 10
174.0981453413596
 20
196.5260100513698
 30
0.0
 11
176.6981453413598
 21
195.78601005137
 31
0.0
  0
LINE
  5
76F4
330
18
100
AcDbEntity
  8
0
100
AcDbLine
 10
174.0981453413596
 20
191.4460100513698
 30
0.0
 11
176.6981453413598
 21
190.70601005137
 31
0.0
  0
LINE
  5
76F5
330
18
100
AcDbEntity
  8
0
100
AcDbLine
 10
174.0981453413596
 20
194.0460100513698
 30
0.0
 11
176.6981453413598
 21
194.78601005137
 31
0.0
  0
LINE
  5
76F6
330
18
100
AcDbEntity
  8
0
100
AcDbLine
 10
169.6981453413596
 20
195.7860100513699
 30
0.0
 11
176.6981453413598
 21
195.78601005137
 31
0.0
  0
LINE
  5
76F7
330
18
100
AcDbEntity
  8
0
100
AcDbLine
 10
169.6981453413596
 20
190.7060100513699
 30
0.0
 11
176.6981453413598
 21
190.70601005137
 31
0.0
  0
LINE
  5
76F8
330
18
100
AcDbEntity
  8
0
100
AcDbLine
 10
169.6981453413596
 20
194.78601005137
 30
0.0
 11
176.6981453413598
 21
194.78601005137
 31
0.0
  0
LINE
  5
76F9
330
18
100
AcDbEntity
  8
0
100
AcDbLine
 10
176.6981453413598
 20
199.8660100513701
 30
0.0
 11
176.6981453413598
 21
195.78601005137
 31
0.0
  0
LINE
  5
76FA
330
18
100
AcDbEntity
  8
0
100
AcDbLine
 10
174.0981453413596
 20
199.1260100513698
 30
0.0
 11
174.0981453413596
 21
196.5260100513699
 31
0.0
  0
LINE
  5
76FB
330
18
100
AcDbEntity
  8
0
100
AcDbLine
 10
170.1981453413596
 20
199.1260100513696
 30
0.0
 11
170.1981453413596
 21
196.5260100513699
 31
0.0
  0
LINE
  5
76FC
330
18
100
AcDbEntity
  8
0
100
AcDbLine
 10
169.6981453413596
 20
199.8660100513701
 30
0.0
 11
169.6981453413596
 21
195.7860100513699
 31
0.0
  0
LINE
  5
76FD
330
18
100
AcDbEntity
  8
0
100
AcDbLine
 10
177.1981453413598
 20
205.44601005137
 30
0.0
 11
177.1981453413598
 21
190.2060100513701
 31
0.0
  0
LINE
  5
76FE
330
18
100
AcDbEntity
  8
0
100
AcDbLine
 10
175.9981453413597
 20
206.3260100513699
 30
0.0
 11
175.9981453413597
 21
189.3260100513699
 31
0.0
  0
LINE
  5
7700
330
18
100
AcDbEntity
  8
0
100
AcDbLine
 10
182.6981453413598
 20
205.4460100513701
 30
0.0
 11
182.6981453413598
 21
190.2060100513701
 31
0.0
  0
LINE
  5
7701
330
18
100
AcDbEntity
  8
0
100
AcDbLine
 10
182.1981453413598
 20
205.4460100513701
 30
0.0
 11
182.1981453413598
 21
190.2060100513701
 31
0.0
  0
LINE
  5
7702
330
18
100
AcDbEntity
  8
0
100
AcDbLine
 10
180.5981453413597
 20
206.8260100513701
 30
0.0
 11
180.5981453413598
 21
205.4460100513701
 31
0.0
  0
LINE
  5
7705
330
18
100
AcDbEntity
  8
0
100
AcDbLine
 10
154.09814534136
 20
227.8260100513699
 30
0.0
 11
114.0981453413597
 21
227.82601005137
 31
0.0
  0
LINE
  5
7706
330
18
100
AcDbEntity
  8
0
100
AcDbLine
 10
205.0981453413597
 20
217.3260100513699
 30
0.0
 11
190.5981453413597
 21
217.32601005137
 31
0.0
  0
LINE
  5
7708
330
18
100
AcDbEntity
  8
0
100
AcDbLine
 10
154.0981453413597
 20
227.8260100513699
 30
0.0
 11
233.0981453413599
 21
227.8260100513699
 31
0.0
  0
LINE
  5
7709
330
18
100
AcDbEntity
  8
0
100
AcDbLine
 10
171.8481453413597
 20
242.82601005137
 30
0.0
 11
195.3481453413597
 21
242.82601005137
 31
0.0
  0
ARC
  5
770B
330
18
100
AcDbEntity
  8
0
100
AcDbCircle
 10
168.0981453413597
 20
237.82601005137
 30
0.0
 40
2.75
100
AcDbArc
 50
180.0
 51
0.0
  0
LINE
  5
770D
330
18
100
AcDbEntity
  8
0
100
AcDbLine
 10
165.3481453413597
 20
237.8260100513699
 30
0.0
 11
165.3481453413597
 21
241.8260100513699
 31
0.0
  0
LINE
  5
770E
330
18
100
AcDbEntity
  8
0
100
AcDbLine
 10
165.3481453413597
 20
241.8260100513699
 30
0.0
 11
164.3481453413597
 21
242.8260100513699
 31
0.0
  0
LINE
  5
770F
330
18
100
AcDbEntity
  8
0
100
AcDbLine
 10
159.0981453413597
 20
242.8260100513699
 30
0.0
 11
158.0981453413597
 21
241.8260100513699
 31
0.0
  0
LINE
  5
7710
330
18
100
AcDbEntity
  8
0
100
AcDbLine
 10
159.0981453413597
 20
242.8260100513699
 30
0.0
 11
164.3481453413597
 21
242.8260100513699
 31
0.0
  0
ARC
  5
7711
330
18
100
AcDbEntity
  8
0
100
AcDbCircle
 10
162.5981453413597
 20
226.57601005137
 30
0.0
 40
3.249999999999876
100
AcDbArc
 50
22.61986494803698
 51
157.380135051963
  0
LINE
  5
7712
330
18
100
AcDbEntity
  8
0
100
AcDbLine
 10
158.0981453413597
 20
227.8260100513699
 30
0.0
 11
158.0981453413597
 21
241.8260100513699
 31
0.0
  0
LINE
  5
7713
330
18
100
AcDbEntity
  8
0
100
AcDbLine
 10
170.8481453413597
 20
237.8260100513699
 30
0.0
 11
170.8481453413597
 21
241.82601005137
 31
0.0
  0
LINE
  5
7714
330
18
100
AcDbEntity
  8
0
100
AcDbLine
 10
171.8481453413597
 20
242.82601005137
 30
0.0
 11
170.8481453413597
 21
241.82601005137
 31
0.0
  0
LINE
  5
7718
330
18
100
AcDbEntity
  8
0
100
AcDbLine
 10
202.8481453413597
 20
242.82601005137
 30
0.0
 11
208.0981453413599
 21
242.82601005137
 31
0.0
  0
LINE
  5
7719
330
18
100
AcDbEntity
  8
0
100
AcDbLine
 10
202.8481453413597
 20
242.82601005137
 30
0.0
 11
201.8481453413597
 21
241.82601005137
 31
0.0
  0
LINE
  5
771A
330
18
100
AcDbEntity
  8
0
100
AcDbLine
 10
201.8481453413597
 20
237.8260100513699
 30
0.0
 11
201.8481453413597
 21
241.82601005137
 31
0.0
  0
LINE
  5
771B
330
18
100
AcDbEntity
  8
0
100
AcDbLine
 10
196.3481453413597
 20
241.8260100513699
 30
0.0
 11
195.3481453413597
 21
242.8260100513699
 31
0.0
  0
LINE
  5
771C
330
18
100
AcDbEntity
  8
0
100
AcDbLine
 10
196.3481453413597
 20
237.8260100513699
 30
0.0
 11
196.3481453413597
 21
241.8260100513699
 31
0.0
  0
ARC
  5
771D
330
18
100
AcDbEntity
  8
0
100
AcDbCircle
 10
199.0981453413597
 20
237.82601005137
 30
0.0
 40
2.75
100
AcDbArc
 50
180.0
 51
0.0
  0
LINE
  5
771E
330
18
100
AcDbEntity
  8
0
100
AcDbLine
 10
208.0981453413599
 20
242.82601005137
 30
0.0
 11
209.0981453413598
 21
241.82601005137
 31
0.0
  0
ARC
  5
771F
330
18
100
AcDbEntity
  8
0
100
AcDbCircle
 10
494.6327400244818
 20
213.0760100513699
 30
0.0
 40
1.75
100
AcDbArc
 50
270.0
 51
90.0
  0
ARC
  5
7720
330
18
100
AcDbEntity
  8
0
100
AcDbCircle
 10
483.1327400244819
 20
213.0760100513699
 30
0.0
 40
1.75
100
AcDbArc
 50
90.0
 51
270.0
  0
ARC
  5
7721
330
18
100
AcDbEntity
  8
0
100
AcDbCircle
 10
472.6327400244819
 20
213.0760100513699
 30
0.0
 40
1.75
100
AcDbArc
 50
270.0
 51
90.0
  0
ARC
  5
7722
330
18
100
AcDbEntity
  8
0
100
AcDbCircle
 10
461.1327400244818
 20
213.0760100513699
 30
0.0
 40
1.75
100
AcDbArc
 50
90.0
 51
270.0
  0
ARC
  5
7723
330
18
100
AcDbEntity
  8
0
100
AcDbCircle
 10
450.6327400244819
 20
213.0760100513699
 30
0.0
 40
1.75
100
AcDbArc
 50
270.0
 51
90.0
  0
ARC
  5
7724
330
18
100
AcDbEntity
  8
0
100
AcDbCircle
 10
439.1327400244819
 20
213.0760100513699
 30
0.0
 40
1.75
100
AcDbArc
 50
90.0
 51
270.0
  0
ARC
  5
7725
330
18
100
AcDbEntity
  8
0
100
AcDbCircle
 10
428.6327400244819
 20
213.0760100513699
 30
0.0
 40
1.75
100
AcDbArc
 50
270.0
 51
90.0
  0
ARC
  5
7726
330
18
100
AcDbEntity
  8
0
100
AcDbCircle
 10
417.1327400244819
 20
213.0760100513699
 30
0.0
 40
1.75
100
AcDbArc
 50
90.0
 51
270.0
  0
ARC
  5
7727
330
18
100
AcDbEntity
  8
0
100
AcDbCircle
 10
406.6327400244818
 20
213.0760100513699
 30
0.0
 40
1.75
100
AcDbArc
 50
270.0
 51
90.0
  0
ARC
  5
7728
330
18
100
AcDbEntity
  8
0
100
AcDbCircle
 10
395.1327400244819
 20
213.0760100513699
 30
0.0
 40
1.75
100
AcDbArc
 50
90.0
 51
270.0
  0
ARC
  5
7729
330
18
100
AcDbEntity
  8
0
100
AcDbCircle
 10
384.6327400244819
 20
213.0760100513699
 30
0.0
 40
1.75
100
AcDbArc
 50
270.0
 51
90.0
  0
ARC
  5
772A
330
18
100
AcDbEntity
  8
0
100
AcDbCircle
 10
373.1327400244818
 20
213.0760100513699
 30
0.0
 40
1.75
100
AcDbArc
 50
90.0
 51
270.0
  0
ARC
  5
772B
330
18
100
AcDbEntity
  8
0
100
AcDbCircle
 10
362.6327400244818
 20
213.0760100513699
 30
0.0
 40
1.75
100
AcDbArc
 50
270.0
 51
90.0
  0
ARC
  5
772C
330
18
100
AcDbEntity
  8
0
100
AcDbCircle
 10
351.1327400244819
 20
213.0760100513699
 30
0.0
 40
1.75
100
AcDbArc
 50
90.0
 51
270.0
  0
LINE
  5
772E
330
18
100
AcDbEntity
  8
0
100
AcDbLine
 10
342.3827400244819
 20
227.8260100513699
 30
0.0
 11
342.3827400244819
 21
67.82601005136996
 31
0.0
  0
LINE
  5
772F
330
18
100
AcDbEntity
  8
0
100
AcDbLine
 10
344.3827400244819
 20
227.8260100513699
 30
0.0
 11
344.3827400244819
 21
67.82601005136996
 31
0.0
  0
LINE
  5
7730
330
18
100
AcDbEntity
  8
0
100
AcDbLine
 10
502.3827400244819
 20
242.8260100513699
 30
0.0
 11
502.3827400244819
 21
52.82601005136996
 31
0.0
  0
LINE
  5
7731
330
18
100
AcDbEntity
  8
0
100
AcDbLine
 10
500.3827400244818
 20
242.8260100513699
 30
0.0
 11
500.3827400244818
 21
52.82601005136996
 31
0.0
  0
LINE
  5
7732
330
18
100
AcDbEntity
  8
0
100
AcDbLine
 10
429.3827400244818
 20
67.82601005136985
 30
0.0
 11
500.3827400244818
 21
67.82601005136996
 31
0.0
  0
LINE
  5
7733
330
18
100
AcDbEntity
  8
0
100
AcDbLine
 10
500.3827400244818
 20
67.82601005136996
 30
0.0
 11
344.3827400244819
 21
67.82601005136996
 31
0.0
  0
LINE
  5
7734
330
18
100
AcDbEntity
  8
0
100
AcDbLine
 10
351.1327400244819
 20
204.8260100513699
 30
0.0
 11
362.6327400244818
 21
204.8260100513699
 31
0.0
  0
LINE
  5
7735
330
18
100
AcDbEntity
  8
0
100
AcDbLine
 10
351.1327400244819
 20
211.3260100513699
 30
0.0
 11
362.6327400244818
 21
211.3260100513699
 31
0.0
  0
LINE
  5
7736
330
18
100
AcDbEntity
  8
0
100
AcDbLine
 10
351.1327400244819
 20
208.32601005137
 30
0.0
 11
362.6327400244818
 21
208.3260100513699
 31
0.0
  0
LINE
  5
7737
330
18
100
AcDbEntity
  8
0
100
AcDbLine
 10
351.1327400244819
 20
81.32601005136995
 30
0.0
 11
362.6327400244818
 21
81.32601005136995
 31
0.0
  0
LINE
  5
7738
330
18
100
AcDbEntity
  8
0
100
AcDbLine
 10
351.1327400244819
 20
84.82601005137007
 30
0.0
 11
362.6327400244818
 21
84.82601005136997
 31
0.0
  0
LINE
  5
7739
330
18
100
AcDbEntity
  8
0
100
AcDbLine
 10
351.1327400244819
 20
91.32601005137008
 30
0.0
 11
362.6327400244818
 21
91.32601005136995
 31
0.0
  0
LINE
  5
773A
330
18
100
AcDbEntity
  8
0
100
AcDbLine
 10
351.1327400244819
 20
87.82601005136996
 30
0.0
 11
362.6327400244818
 21
87.82601005136996
 31
0.0
  0
LINE
  5
773B
330
18
100
AcDbEntity
  8
0
100
AcDbLine
 10
351.1327400244819
 20
74.82601005136996
 30
0.0
 11
362.6327400244818
 21
74.82601005136996
 31
0.0
  0
LINE
  5
773C
330
18
100
AcDbEntity
  8
0
100
AcDbLine
 10
351.1327400244819
 20
78.32601005137007
 30
0.0
 11
362.6327400244818
 21
78.32601005136996
 31
0.0
  0
LINE
  5
773D
330
18
100
AcDbEntity
  8
0
100
AcDbLine
 10
344.3827400244819
 20
67.82601005136996
 30
0.0
 11
415.3827400244819
 21
67.82601005136996
 31
0.0
  0
ARC
  5
773E
330
18
100
AcDbEntity
  8
0
100
AcDbCircle
 10
351.1327400244819
 20
83.07601005137
 30
0.0
 40
1.75
100
AcDbArc
 50
90.0
 51
270.0
  0
ARC
  5
773F
330
18
100
AcDbEntity
  8
0
100
AcDbCircle
 10
351.1327400244819
 20
76.57601005136999
 30
0.0
 40
1.75
100
AcDbArc
 50
90.0
 51
270.0
  0
LINE
  5
7740
330
18
100
AcDbEntity
  8
0
100
AcDbLine
 10
342.3827400244819
 20
67.82601005136996
 30
0.0
 11
344.3827400244819
 21
67.82601005136996
 31
0.0
  0
LINE
  5
7741
330
18
100
AcDbEntity
  8
0
 48
0.2
100
AcDbLine
 10
327.3827400244815
 20
147.4760100513698
 30
0.0
 11
306.3827400244815
 21
147.4760100513698
 31
0.0
  0
LINE
  5
7742
330
18
100
AcDbEntity
  8
0
 48
0.2
100
AcDbLine
 10
327.3827400244817
 20
131.6760100513701
 30
0.0
 11
306.3827400244818
 21
131.6760100513698
 31
0.0
  0
LINE
  5
7743
330
18
100
AcDbEntity
  8
0
 48
0.2
100
AcDbLine
 10
306.3827400244818
 20
131.6760100513701
 30
0.0
 11
306.3827400244815
 21
147.4760100513698
 31
0.0
  0
LINE
  5
7744
330
18
100
AcDbEntity
  8
0
 48
0.2
100
AcDbLine
 10
313.5827400244818
 20
131.6760100513701
 30
0.0
 11
311.8266424635062
 21
129.6471873986141
 31
0.0
  0
ARC
  5
7745
330
18
100
AcDbEntity
  8
0
 48
0.2
100
AcDbCircle
 10
309.4827400244819
 20
131.6760100513701
 30
0.0
 40
3.100000000000022
100
AcDbArc
 50
180.0
 51
319.1213648534843
  0
LINE
  5
7746
330
18
100
AcDbEntity
  8
0
 48
0.2
100
AcDbLine
 10
313.5827400244816
 20
147.4760100513698
 30
0.0
 11
311.8266424635062
 21
149.5048327041257
 31
0.0
  0
ARC
  5
7747
330
18
100
AcDbEntity
  8
0
 48
0.2
100
AcDbCircle
 10
309.4827400244817
 20
147.4760100513698
 30
0.0
 40
3.100000000000022
100
AcDbArc
 50
40.87863514651568
 51
180.0
  0
LINE
  5
7748
330
18
100
AcDbEntity
  8
0
100
AcDbLine
 10
336.5723948447148
 20
146.679928940315
 30
0.0
 11
339.3688211355367
 21
149.4763552311369
 31
0.0
  0
LINE
  5
7749
330
18
100
AcDbEntity
  8
0
100
AcDbLine
 10
336.9966589134266
 20
146.2556648716031
 30
0.0
 11
339.7930852042486
 21
149.052091162425
 31
0.0
  0
CIRCLE
  5
774A
330
18
100
AcDbEntity
  8
0
100
AcDbCircle
 10
338.1827400244817
 20
147.86601005137
 30
0.0
 40
2.0
  0
LINE
  5
774C
330
18
100
AcDbEntity
  8
0
 48
0.2
100
AcDbLine
 10
322.3827400244818
 20
131.6760100513701
 30
0.0
 11
322.3827400244815
 21
147.4760100513698
 31
0.0
  0
LINE
  5
774D
330
18
100
AcDbEntity
  8
0
 48
0.2
100
AcDbLine
 10
327.3827400244817
 20
131.6760100513701
 30
0.0
 11
327.3827400244815
 21
147.4760100513698
 31
0.0
  0
LINE
  5
774E
330
18
100
AcDbEntity
  8
0
100
AcDbLine
 10
332.8827400244818
 20
170.7260100513701
 30
0.0
 11
332.8827400244818
 21
119.9260100513701
 31
0.0
  0
LINE
  5
774F
330
18
100
AcDbEntity
  8
0
100
AcDbLine
 10
334.3827400244819
 20
170.72601005137
 30
0.0
 11
334.3827400244817
 21
119.9260100513701
 31
0.0
  0
LINE
  5
7750
330
18
100
AcDbEntity
  8
0
100
AcDbLine
 10
342.3827400244819
 20
170.7260100513699
 30
0.0
 11
342.3827400244819
 21
119.9260100513699
 31
0.0
  0
LINE
  5
7751
330
18
100
AcDbEntity
  8
0
100
AcDbLine
 10
341.6827400244817
 20
170.7260100513699
 30
0.0
 11
341.6827400244816
 21
119.9260100513699
 31
0.0
  0
LINE
  5
7752
330
18
100
AcDbEntity
  8
0
100
AcDbLine
 10
336.5723948447147
 20
141.599928940315
 30
0.0
 11
339.3688211355365
 21
144.3963552311369
 31
0.0
  0
LINE
  5
7753
330
18
100
AcDbEntity
  8
0
100
AcDbLine
 10
336.9966589134266
 20
141.1756648716031
 30
0.0
 11
339.7930852042485
 21
143.972091162425
 31
0.0
  0
CIRCLE
  5
7754
330
18
100
AcDbEntity
  8
0
100
AcDbCircle
 10
338.1827400244816
 20
142.78601005137
 30
0.0
 40
2.0
  0
CIRCLE
  5
7755
330
18
100
AcDbEntity
  8
0
100
AcDbCircle
 10
338.1827400244816
 20
132.62601005137
 30
0.0
 40
2.0
  0
LINE
  5
7756
330
18
100
AcDbEntity
  8
0
100
AcDbLine
 10
336.5723948447147
 20
131.439928940315
 30
0.0
 11
339.3688211355365
 21
134.2363552311369
 31
0.0
  0
LINE
  5
7757
330
18
100
AcDbEntity
  8
0
100
AcDbLine
 10
336.9966589134266
 20
131.0156648716031
 30
0.0
 11
339.7930852042485
 21
133.812091162425
 31
0.0
  0
LINE
  5
7758
330
18
100
AcDbEntity
  8
0
100
AcDbLine
 10
336.9966589134266
 20
136.0956648716031
 30
0.0
 11
339.7930852042485
 21
138.892091162425
 31
0.0
  0
LINE
  5
7759
330
18
100
AcDbEntity
  8
0
100
AcDbLine
 10
336.5723948447147
 20
126.359928940315
 30
0.0
 11
339.3688211355365
 21
129.156355231137
 31
0.0
  0
LINE
  5
775A
330
18
100
AcDbEntity
  8
0
100
AcDbLine
 10
336.9966589134266
 20
125.9356648716031
 30
0.0
 11
339.7930852042485
 21
128.732091162425
 31
0.0
  0
CIRCLE
  5
775B
330
18
100
AcDbEntity
  8
0
100
AcDbCircle
 10
338.1827400244816
 20
122.4660100513701
 30
0.0
 40
2.0
  0
LINE
  5
775C
330
18
100
AcDbEntity
  8
0
100
AcDbLine
 10
336.9966589134266
 20
120.8556648716032
 30
0.0
 11
339.7930852042485
 21
123.6520911624251
 31
0.0
  0
LINE
  5
775D
330
18
100
AcDbEntity
  8
0
100
AcDbLine
 10
336.5723948447147
 20
121.279928940315
 30
0.0
 11
339.3688211355365
 21
124.076355231137
 31
0.0
  0
CIRCLE
  5
775E
330
18
100
AcDbEntity
  8
0
100
AcDbCircle
 10
338.1827400244816
 20
127.54601005137
 30
0.0
 40
2.0
  0
LINE
  5
775F
330
18
100
AcDbEntity
  8
0
100
AcDbLine
 10
336.5723948447147
 20
136.519928940315
 30
0.0
 11
339.3688211355365
 21
139.3163552311369
 31
0.0
  0
CIRCLE
  5
7760
330
18
100
AcDbEntity
  8
0
100
AcDbCircle
 10
338.1827400244816
 20
137.70601005137
 30
0.0
 40
2.0
  0
LINE
  5
7761
330
18
100
AcDbEntity
  8
0
 48
0.2
100
AcDbLine
 10
342.3827400244818
 20
122.9260100513699
 30
0.0
 11
321.5827400244815
 21
122.92601005137
 31
0.0
  0
LINE
  5
7762
330
18
100
AcDbEntity
  8
0
100
AcDbLine
 10
342.3827400244819
 20
119.9260100513699
 30
0.0
 11
332.8827400244818
 21
119.9260100513701
 31
0.0
  0
ARC
  5
7763
330
18
100
AcDbEntity
  8
0
 48
0.2
100
AcDbCircle
 10
322.7527400244817
 20
125.52601005137
 30
0.0
 40
2.669999999999886
100
AcDbArc
 50
115.9892335838277
 51
244.0107664161721
  0
LINE
  5
7764
330
18
100
AcDbEntity
  8
0
 48
0.2
100
AcDbLine
 10
321.5827400244815
 20
122.92601005137
 30
0.0
 11
321.5827400244815
 21
128.5760100513699
 31
0.0
  0
LINE
  5
7765
330
18
100
AcDbEntity
  8
0
 48
0.2
100
AcDbLine
 10
317.5827400244818
 20
131.6760100513701
 30
0.0
 11
321.5827400244818
 21
128.5760100513699
 31
0.0
  0
LINE
  5
7766
330
18
100
AcDbEntity
  8
0
 48
0.2
100
AcDbLine
 10
329.6327400244817
 20
131.8410735608312
 30
0.0
 11
332.1327400244817
 21
131.8410735608312
 31
0.0
  0
LINE
  5
7767
330
18
100
AcDbEntity
  8
0
 48
0.2
100
AcDbLine
 10
329.4884024571842
 20
132.0910735608312
 30
0.0
 11
332.2770775917792
 21
132.0910735608312
 31
0.0
  0
LINE
  5
7768
330
18
100
AcDbEntity
  8
0
 48
0.2
100
AcDbLine
 10
328.3827400244817
 20
129.6760100513701
 30
0.0
 11
329.6327400244817
 21
131.8410735608312
 31
0.0
  0
LINE
  5
7769
330
18
100
AcDbEntity
  8
0
 48
0.2
100
AcDbLine
 10
328.094064889887
 20
129.6760100513701
 30
0.0
 11
329.4884024571842
 21
132.0910735608312
 31
0.0
  0
LINE
  5
776A
330
18
100
AcDbEntity
  8
0
 48
0.2
100
AcDbLine
 10
333.3827400244818
 20
129.6760100513701
 30
0.0
 11
332.1327400244817
 21
131.8410735608312
 31
0.0
  0
LINE
  5
776B
330
18
100
AcDbEntity
  8
0
 48
0.2
100
AcDbLine
 10
333.6714151590765
 20
129.6760100513701
 30
0.0
 11
332.2770775917792
 21
132.0910735608312
 31
0.0
  0
LINE
  5
776C
330
18
100
AcDbEntity
  8
0
 48
0.2
100
AcDbLine
 10
329.6327400244817
 20
127.5109465419089
 30
0.0
 11
332.1327400244817
 21
127.5109465419089
 31
0.0
  0
LINE
  5
776D
330
18
100
AcDbEntity
  8
0
 48
0.2
100
AcDbLine
 10
329.4884024571842
 20
127.260946541909
 30
0.0
 11
332.2770775917792
 21
127.260946541909
 31
0.0
  0
CIRCLE
  5
776E
330
18
100
AcDbEntity
  8
0
 48
0.2
100
AcDbCircle
 10
330.8827400244818
 20
129.6760100513701
 30
0.0
 40
1.5
  0
LINE
  5
776F
330
18
100
AcDbEntity
  8
0
 48
0.2
100
AcDbLine
 10
328.3827400244817
 20
129.6760100513701
 30
0.0
 11
329.6327400244817
 21
127.5109465419089
 31
0.0
  0
LINE
  5
7770
330
18
100
AcDbEntity
  8
0
 48
0.2
100
AcDbLine
 10
328.094064889887
 20
129.6760100513701
 30
0.0
 11
329.4884024571842
 21
127.260946541909
 31
0.0
  0
LINE
  5
7771
330
18
100
AcDbEntity
  8
0
 48
0.2
100
AcDbLine
 10
332.1327400244817
 20
127.5109465419089
 30
0.0
 11
333.3827400244818
 21
129.6760100513701
 31
0.0
  0
LINE
  5
7772
330
18
100
AcDbEntity
  8
0
 48
0.2
100
AcDbLine
 10
332.2770775917792
 20
127.260946541909
 30
0.0
 11
333.6714151590765
 21
129.6760100513701
 31
0.0
  0
ARC
  5
7774
330
18
100
AcDbEntity
  8
0
100
AcDbCircle
 10
351.1327400244819
 20
89.57601005137002
 30
0.0
 40
1.75
100
AcDbArc
 50
90.0
 51
270.0
  0
CIRCLE
  5
7775
330
18
100
AcDbEntity
  8
0
100
AcDbCircle
 10
338.1827400244817
 20
202.88601005137
 30
0.0
 40
2.0
  0
LINE
  5
7776
330
18
100
AcDbEntity
  8
0
100
AcDbLine
 10
336.9966589134266
 20
201.2756648716031
 30
0.0
 11
339.7930852042486
 21
204.0720911624249
 31
0.0
  0
LINE
  5
7777
330
18
100
AcDbEntity
  8
0
100
AcDbLine
 10
336.5723948447148
 20
201.6999289403149
 30
0.0
 11
339.3688211355367
 21
204.4963552311369
 31
0.0
  0
LINE
  5
7778
330
18
100
AcDbEntity
  8
0
100
AcDbLine
 10
342.3827400244819
 20
205.4260100513699
 30
0.0
 11
332.8827400244818
 21
205.4260100513701
 31
0.0
  0
CIRCLE
  5
7779
330
18
100
AcDbEntity
  8
0
100
AcDbCircle
 10
338.1827400244817
 20
192.72601005137
 30
0.0
 40
2.0
  0
LINE
  5
777A
330
18
100
AcDbEntity
  8
0
100
AcDbLine
 10
336.9966589134266
 20
191.1156648716031
 30
0.0
 11
339.7930852042486
 21
193.9120911624249
 31
0.0
  0
LINE
  5
777B
330
18
100
AcDbEntity
  8
0
100
AcDbLine
 10
336.5723948447148
 20
191.539928940315
 30
0.0
 11
339.3688211355367
 21
194.3363552311369
 31
0.0
  0
LINE
  5
777C
330
18
100
AcDbEntity
  8
0
100
AcDbLine
 10
336.5723948447148
 20
161.9199289403149
 30
0.0
 11
339.3688211355367
 21
164.7163552311369
 31
0.0
  0
LINE
  5
777D
330
18
100
AcDbEntity
  8
0
100
AcDbLine
 10
336.9966589134266
 20
161.495664871603
 30
0.0
 11
339.7930852042486
 21
164.2920911624249
 31
0.0
  0
CIRCLE
  5
777E
330
18
100
AcDbEntity
  8
0
100
AcDbCircle
 10
338.1827400244817
 20
163.10601005137
 30
0.0
 40
2.0
  0
LINE
  5
777F
330
18
100
AcDbEntity
  8
0
100
AcDbLine
 10
336.9966589134266
 20
166.575664871603
 30
0.0
 11
339.7930852042486
 21
169.3720911624249
 31
0.0
  0
CIRCLE
  5
7780
330
18
100
AcDbEntity
  8
0
100
AcDbCircle
 10
338.1827400244817
 20
168.1860100513699
 30
0.0
 40
2.0
  0
LINE
  5
7781
330
18
100
AcDbEntity
  8
0
100
AcDbLine
 10
336.5723948447148
 20
166.9999289403149
 30
0.0
 11
339.3688211355367
 21
169.7963552311368
 31
0.0
  0
LINE
  5
7782
330
18
100
AcDbEntity
  8
0
100
AcDbLine
 10
342.3827400244819
 20
170.7260100513699
 30
0.0
 11
332.8827400244818
 21
170.7260100513701
 31
0.0
  0
LINE
  5
7783
330
18
100
AcDbEntity
  8
0
100
AcDbLine
 10
342.3827400244817
 20
190.2260100513699
 30
0.0
 11
332.8827400244815
 21
190.2260100513701
 31
0.0
  0
LINE
  5
7784
330
18
100
AcDbEntity
  8
0
100
AcDbLine
 10
336.5723948447148
 20
151.7599289403149
 30
0.0
 11
339.3688211355367
 21
154.5563552311369
 31
0.0
  0
LINE
  5
7785
330
18
100
AcDbEntity
  8
0
100
AcDbLine
 10
336.9966589134266
 20
151.3356648716031
 30
0.0
 11
339.7930852042486
 21
154.132091162425
 31
0.0
  0
CIRCLE
  5
7786
330
18
100
AcDbEntity
  8
0
100
AcDbCircle
 10
338.1827400244817
 20
152.94601005137
 30
0.0
 40
2.0
  0
LINE
  5
7787
330
18
100
AcDbEntity
  8
0
 48
0.2
100
AcDbLine
 10
342.3827400244818
 20
156.2260100513698
 30
0.0
 11
321.5827400244815
 21
156.2260100513698
 31
0.0
  0
LINE
  5
7788
330
18
100
AcDbEntity
  8
0
100
AcDbLine
 10
336.5723948447148
 20
156.8399289403149
 30
0.0
 11
339.3688211355367
 21
159.6363552311369
 31
0.0
  0
LINE
  5
7789
330
18
100
AcDbEntity
  8
0
100
AcDbLine
 10
336.9966589134266
 20
156.415664871603
 30
0.0
 11
339.7930852042486
 21
159.212091162425
 31
0.0
  0
CIRCLE
  5
778A
330
18
100
AcDbEntity
  8
0
100
AcDbCircle
 10
338.1827400244817
 20
158.02601005137
 30
0.0
 40
2.0
  0
CIRCLE
  5
778B
330
18
100
AcDbEntity
  8
0
100
AcDbCircle
 10
338.1827400244817
 20
197.8060100513699
 30
0.0
 40
2.0
  0
LINE
  5
778C
330
18
100
AcDbEntity
  8
0
100
AcDbLine
 10
336.9966589134266
 20
196.195664871603
 30
0.0
 11
339.7930852042486
 21
198.992091162425
 31
0.0
  0
LINE
  5
778D
330
18
100
AcDbEntity
  8
0
100
AcDbLine
 10
336.5723948447148
 20
196.6199289403149
 30
0.0
 11
339.3688211355367
 21
199.4163552311368
 31
0.0
  0
LINE
  5
778E
330
18
100
AcDbEntity
  8
0
 48
0.2
100
AcDbLine
 10
321.5827400244815
 20
150.5760100513699
 30
0.0
 11
321.5827400244815
 21
156.2260100513698
 31
0.0
  0
ARC
  5
778F
330
18
100
AcDbEntity
  8
0
 48
0.2
100
AcDbCircle
 10
322.7527400244814
 20
153.6260100513699
 30
0.0
 40
2.669999999999886
100
AcDbArc
 50
115.9892335838277
 51
244.0107664161721
  0
LINE
  5
7790
330
18
100
AcDbEntity
  8
0
 48
0.2
100
AcDbLine
 10
317.5827400244816
 20
147.4760100513698
 30
0.0
 11
321.5827400244815
 21
150.5760100513697
 31
0.0
  0
LINE
  5
7791
330
18
100
AcDbEntity
  8
0
 48
0.2
100
AcDbLine
 10
332.2770775917792
 20
151.8910735608309
 30
0.0
 11
333.6714151590765
 21
149.4760100513698
 31
0.0
  0
LINE
  5
7792
330
18
100
AcDbEntity
  8
0
 48
0.2
100
AcDbLine
 10
332.1327400244817
 20
151.6410735608309
 30
0.0
 11
333.3827400244818
 21
149.4760100513698
 31
0.0
  0
LINE
  5
7793
330
18
100
AcDbEntity
  8
0
 48
0.2
100
AcDbLine
 10
328.094064889887
 20
149.4760100513698
 30
0.0
 11
329.4884024571842
 21
151.8910735608309
 31
0.0
  0
LINE
  5
7794
330
18
100
AcDbEntity
  8
0
 48
0.2
100
AcDbLine
 10
328.3827400244817
 20
149.4760100513698
 30
0.0
 11
329.6327400244817
 21
151.6410735608309
 31
0.0
  0
LINE
  5
7795
330
18
100
AcDbEntity
  8
0
 48
0.2
100
AcDbLine
 10
329.4884024571842
 20
151.8910735608309
 30
0.0
 11
332.2770775917792
 21
151.8910735608309
 31
0.0
  0
LINE
  5
7796
330
18
100
AcDbEntity
  8
0
 48
0.2
100
AcDbLine
 10
329.6327400244817
 20
151.6410735608309
 30
0.0
 11
332.1327400244817
 21
151.6410735608309
 31
0.0
  0
LINE
  5
7797
330
18
100
AcDbEntity
  8
0
 48
0.2
100
AcDbLine
 10
329.4884024571842
 20
147.0609465419087
 30
0.0
 11
332.2770775917792
 21
147.0609465419087
 31
0.0
  0
LINE
  5
7798
330
18
100
AcDbEntity
  8
0
 48
0.2
100
AcDbLine
 10
329.6327400244817
 20
147.3109465419087
 30
0.0
 11
332.1327400244817
 21
147.3109465419087
 31
0.0
  0
CIRCLE
  5
7799
330
18
100
AcDbEntity
  8
0
 48
0.2
100
AcDbCircle
 10
330.8827400244818
 20
149.4760100513698
 30
0.0
 40
1.5
  0
LINE
  5
779A
330
18
100
AcDbEntity
  8
0
 48
0.2
100
AcDbLine
 10
328.094064889887
 20
149.4760100513698
 30
0.0
 11
329.4884024571842
 21
147.0609465419087
 31
0.0
  0
LINE
  5
779B
330
18
100
AcDbEntity
  8
0
 48
0.2
100
AcDbLine
 10
328.3827400244817
 20
149.4760100513698
 30
0.0
 11
329.6327400244817
 21
147.3109465419087
 31
0.0
  0
LINE
  5
779C
330
18
100
AcDbEntity
  8
0
 48
0.2
100
AcDbLine
 10
333.6714151590765
 20
149.4760100513698
 30
0.0
 11
332.2770775917792
 21
147.0609465419087
 31
0.0
  0
LINE
  5
779D
330
18
100
AcDbEntity
  8
0
 48
0.2
100
AcDbLine
 10
333.3827400244818
 20
149.4760100513698
 30
0.0
 11
332.1327400244817
 21
147.3109465419087
 31
0.0
  0
LINE
  5
779E
330
18
100
AcDbEntity
  8
0
100
AcDbLine
 10
332.8827400244818
 20
205.4260100513701
 30
0.0
 11
332.8827400244818
 21
190.2260100513701
 31
0.0
  0
LINE
  5
779F
330
18
100
AcDbEntity
  8
0
100
AcDbLine
 10
334.3827400244819
 20
205.4260100513701
 30
0.0
 11
334.382740024482
 21
190.2260100513701
 31
0.0
  0
ARC
  5
77A0
330
18
100
AcDbEntity
  8
0
100
AcDbCircle
 10
351.1327400244819
 20
206.5760100513699
 30
0.0
 40
1.75
100
AcDbArc
 50
90.0
 51
270.0
  0
LINE
  5
77A1
330
18
100
AcDbEntity
  8
0
100
AcDbLine
 10
341.6827400244817
 20
205.4260100513699
 30
0.0
 11
341.6827400244817
 21
190.2260100513699
 31
0.0
  0
LINE
  5
77A2
330
18
100
AcDbEntity
  8
0
100
AcDbLine
 10
342.3827400244819
 20
205.4260100513699
 30
0.0
 11
342.3827400244819
 21
190.2260100513699
 31
0.0
  0
ARC
  5
77A3
330
18
100
AcDbEntity
  8
0
100
AcDbCircle
 10
450.6327400244819
 20
83.07601005137
 30
0.0
 40
1.75
100
AcDbArc
 50
270.0
 51
90.0
  0
ARC
  5
77A4
330
18
100
AcDbEntity
  8
0
100
AcDbCircle
 10
439.1327400244819
 20
83.07601005137
 30
0.0
 40
1.75
100
AcDbArc
 50
90.0
 51
270.0
  0
ARC
  5
77A5
330
18
100
AcDbEntity
  8
0
100
AcDbCircle
 10
428.6327400244819
 20
83.07601005137
 30
0.0
 40
1.75
100
AcDbArc
 50
270.0
 51
90.0
  0
ARC
  5
77A6
330
18
100
AcDbEntity
  8
0
100
AcDbCircle
 10
417.1327400244819
 20
83.07601005137
 30
0.0
 40
1.75
100
AcDbArc
 50
90.0
 51
270.0
  0
ARC
  5
77A7
330
18
100
AcDbEntity
  8
0
100
AcDbCircle
 10
406.6327400244818
 20
83.07601005137
 30
0.0
 40
1.75
100
AcDbArc
 50
270.0
 51
90.0
  0
ARC
  5
77A8
330
18
100
AcDbEntity
  8
0
100
AcDbCircle
 10
395.1327400244819
 20
83.07601005137
 30
0.0
 40
1.75
100
AcDbArc
 50
90.0
 51
270.0
  0
ARC
  5
77A9
330
18
100
AcDbEntity
  8
0
100
AcDbCircle
 10
384.6327400244819
 20
83.07601005137
 30
0.0
 40
1.75
100
AcDbArc
 50
270.0
 51
90.0
  0
ARC
  5
77AA
330
18
100
AcDbEntity
  8
0
100
AcDbCircle
 10
373.1327400244818
 20
83.07601005137
 30
0.0
 40
1.75
100
AcDbArc
 50
90.0
 51
270.0
  0
ARC
  5
77AB
330
18
100
AcDbEntity
  8
0
100
AcDbCircle
 10
362.6327400244818
 20
83.07601005137
 30
0.0
 40
1.75
100
AcDbArc
 50
270.0
 51
90.0
  0
ARC
  5
77AC
330
18
100
AcDbEntity
  8
0
100
AcDbCircle
 10
384.6327400244819
 20
76.57601005136999
 30
0.0
 40
1.75
100
AcDbArc
 50
270.0
 51
90.0
  0
LINE
  5
77AD
330
18
100
AcDbEntity
  8
0
100
AcDbLine
 10
373.1327400244818
 20
74.82601005136996
 30
0.0
 11
384.6327400244819
 21
74.82601005136996
 31
0.0
  0
LINE
  5
77AE
330
18
100
AcDbEntity
  8
0
100
AcDbLine
 10
373.1327400244818
 20
78.32601005137007
 30
0.0
 11
384.6327400244819
 21
78.32601005136996
 31
0.0
  0
LINE
  5
77AF
330
18
100
AcDbEntity
  8
0
100
AcDbLine
 10
373.1327400244818
 20
81.32601005136995
 30
0.0
 11
384.6327400244819
 21
81.32601005136995
 31
0.0
  0
ARC
  5
77B0
330
18
100
AcDbEntity
  8
0
100
AcDbCircle
 10
373.1327400244818
 20
76.57601005136999
 30
0.0
 40
1.75
100
AcDbArc
 50
90.0
 51
270.0
  0
ARC
  5
77B1
330
18
100
AcDbEntity
  8
0
100
AcDbCircle
 10
362.6327400244818
 20
76.57601005136999
 30
0.0
 40
1.75
100
AcDbArc
 50
270.0
 51
90.0
  0
LINE
  5
77B2
330
18
100
AcDbEntity
  8
0
100
AcDbLine
 10
395.1327400244819
 20
81.32601005136995
 30
0.0
 11
406.6327400244818
 21
81.32601005136995
 31
0.0
  0
LINE
  5
77B3
330
18
100
AcDbEntity
  8
0
100
AcDbLine
 10
395.1327400244819
 20
74.82601005136996
 30
0.0
 11
406.6327400244818
 21
74.82601005136996
 31
0.0
  0
LINE
  5
77B4
330
18
100
AcDbEntity
  8
0
100
AcDbLine
 10
395.1327400244819
 20
78.32601005137007
 30
0.0
 11
406.6327400244818
 21
78.32601005136996
 31
0.0
  0
ARC
  5
77B5
330
18
100
AcDbEntity
  8
0
100
AcDbCircle
 10
395.1327400244819
 20
76.57601005136999
 30
0.0
 40
1.75
100
AcDbArc
 50
90.0
 51
270.0
  0
ARC
  5
77B6
330
18
100
AcDbEntity
  8
0
100
AcDbCircle
 10
406.6327400244818
 20
76.57601005136999
 30
0.0
 40
1.75
100
AcDbArc
 50
270.0
 51
90.0
  0
LINE
  5
77B7
330
18
100
AcDbEntity
  8
0
100
AcDbLine
 10
417.1327400244819
 20
81.32601005136995
 30
0.0
 11
428.6327400244819
 21
81.32601005136995
 31
0.0
  0
ARC
  5
77B8
330
18
100
AcDbEntity
  8
0
100
AcDbCircle
 10
422.3827400244819
 20
69.07601005136965
 30
0.0
 40
3.249999999999876
100
AcDbArc
 50
202.6198649480369
 51
337.380135051963
  0
LINE
  5
77B9
330
18
100
AcDbEntity
  8
0
100
AcDbLine
 10
417.1327400244819
 20
74.82601005136996
 30
0.0
 11
428.6327400244819
 21
74.82601005136996
 31
0.0
  0
LINE
  5
77BA
330
18
100
AcDbEntity
  8
0
100
AcDbLine
 10
417.1327400244819
 20
78.32601005137007
 30
0.0
 11
428.6327400244819
 21
78.32601005136996
 31
0.0
  0
ARC
  5
77BB
330
18
100
AcDbEntity
  8
0
100
AcDbCircle
 10
417.1327400244819
 20
76.57601005136999
 30
0.0
 40
1.75
100
AcDbArc
 50
90.0
 51
270.0
  0
ARC
  5
77BC
330
18
100
AcDbEntity
  8
0
100
AcDbCircle
 10
428.6327400244819
 20
76.57601005136999
 30
0.0
 40
1.75
100
AcDbArc
 50
270.0
 51
90.0
  0
LINE
  5
77BD
330
18
100
AcDbEntity
  8
0
100
AcDbLine
 10
439.1327400244819
 20
81.32601005136995
 30
0.0
 11
450.6327400244819
 21
81.32601005136995
 31
0.0
  0
LINE
  5
77BE
330
18
100
AcDbEntity
  8
0
100
AcDbLine
 10
439.1327400244819
 20
74.82601005136996
 30
0.0
 11
450.6327400244819
 21
74.82601005136996
 31
0.0
  0
LINE
  5
77BF
330
18
100
AcDbEntity
  8
0
100
AcDbLine
 10
439.1327400244819
 20
78.32601005137007
 30
0.0
 11
450.6327400244819
 21
78.32601005136996
 31
0.0
  0
ARC
  5
77C0
330
18
100
AcDbEntity
  8
0
100
AcDbCircle
 10
439.1327400244819
 20
76.57601005136999
 30
0.0
 40
1.75
100
AcDbArc
 50
90.0
 51
270.0
  0
ARC
  5
77C1
330
18
100
AcDbEntity
  8
0
100
AcDbCircle
 10
450.6327400244819
 20
76.57601005136999
 30
0.0
 40
1.75
100
AcDbArc
 50
270.0
 51
90.0
  0
ARC
  5
77C2
330
18
100
AcDbEntity
  8
0
100
AcDbCircle
 10
384.6327400244819
 20
89.57601005136998
 30
0.0
 40
1.75
100
AcDbArc
 50
270.0
 51
90.0
  0
LINE
  5
77C3
330
18
100
AcDbEntity
  8
0
100
AcDbLine
 10
373.1327400244818
 20
84.82601005137007
 30
0.0
 11
384.6327400244819
 21
84.82601005136997
 31
0.0
  0
LINE
  5
77C4
330
18
100
AcDbEntity
  8
0
100
AcDbLine
 10
373.1327400244818
 20
91.32601005137008
 30
0.0
 11
384.6327400244819
 21
91.32601005136995
 31
0.0
  0
LINE
  5
77C5
330
18
100
AcDbEntity
  8
0
100
AcDbLine
 10
373.1327400244818
 20
87.82601005136996
 30
0.0
 11
384.6327400244819
 21
87.82601005136996
 31
0.0
  0
ARC
  5
77C6
330
18
100
AcDbEntity
  8
0
100
AcDbCircle
 10
362.6327400244818
 20
89.57601005136998
 30
0.0
 40
1.75
100
AcDbArc
 50
270.0
 51
90.0
  0
ARC
  5
77C7
330
18
100
AcDbEntity
  8
0
100
AcDbCircle
 10
373.1327400244818
 20
89.57601005136998
 30
0.0
 40
1.75
100
AcDbArc
 50
90.0
 51
270.0
  0
LINE
  5
77C8
330
18
100
AcDbEntity
  8
0
100
AcDbLine
 10
395.1327400244819
 20
84.82601005137007
 30
0.0
 11
406.6327400244818
 21
84.82601005136997
 31
0.0
  0
LINE
  5
77C9
330
18
100
AcDbEntity
  8
0
100
AcDbLine
 10
395.1327400244819
 20
87.82601005136996
 30
0.0
 11
406.6327400244818
 21
87.82601005136996
 31
0.0
  0
LINE
  5
77CA
330
18
100
AcDbEntity
  8
0
100
AcDbLine
 10
395.1327400244819
 20
91.32601005137008
 30
0.0
 11
406.6327400244818
 21
91.32601005136995
 31
0.0
  0
ARC
  5
77CB
330
18
100
AcDbEntity
  8
0
100
AcDbCircle
 10
395.1327400244819
 20
89.57601005136998
 30
0.0
 40
1.75
100
AcDbArc
 50
90.0
 51
270.0
  0
ARC
  5
77CC
330
18
100
AcDbEntity
  8
0
100
AcDbCircle
 10
406.6327400244818
 20
89.57601005136998
 30
0.0
 40
1.75
100
AcDbArc
 50
270.0
 51
90.0
  0
ARC
  5
77CD
330
18
100
AcDbEntity
  8
0
100
AcDbCircle
 10
384.6327400244819
 20
206.5760100513699
 30
0.0
 40
1.75
100
AcDbArc
 50
270.0
 51
90.0
  0
LINE
  5
77CE
330
18
100
AcDbEntity
  8
0
100
AcDbLine
 10
373.1327400244818
 20
204.8260100513699
 30
0.0
 11
384.6327400244819
 21
204.8260100513699
 31
0.0
  0
LINE
  5
77CF
330
18
100
AcDbEntity
  8
0
100
AcDbLine
 10
373.1327400244818
 20
211.3260100513699
 30
0.0
 11
384.6327400244819
 21
211.3260100513699
 31
0.0
  0
LINE
  5
77D0
330
18
100
AcDbEntity
  8
0
100
AcDbLine
 10
373.1327400244818
 20
208.32601005137
 30
0.0
 11
384.6327400244819
 21
208.3260100513699
 31
0.0
  0
ARC
  5
77D1
330
18
100
AcDbEntity
  8
0
100
AcDbCircle
 10
362.6327400244818
 20
206.5760100513699
 30
0.0
 40
1.75
100
AcDbArc
 50
270.0
 51
90.0
  0
ARC
  5
77D2
330
18
100
AcDbEntity
  8
0
100
AcDbCircle
 10
373.1327400244818
 20
206.5760100513699
 30
0.0
 40
1.75
100
AcDbArc
 50
90.0
 51
270.0
  0
LINE
  5
77D3
330
18
100
AcDbEntity
  8
0
100
AcDbLine
 10
395.1327400244819
 20
204.8260100513699
 30
0.0
 11
406.6327400244818
 21
204.8260100513699
 31
0.0
  0
LINE
  5
77D4
330
18
100
AcDbEntity
  8
0
100
AcDbLine
 10
395.1327400244819
 20
211.3260100513699
 30
0.0
 11
406.6327400244818
 21
211.3260100513699
 31
0.0
  0
LINE
  5
77D5
330
18
100
AcDbEntity
  8
0
100
AcDbLine
 10
395.1327400244819
 20
208.32601005137
 30
0.0
 11
406.6327400244818
 21
208.3260100513699
 31
0.0
  0
ARC
  5
77D6
330
18
100
AcDbEntity
  8
0
100
AcDbCircle
 10
395.1327400244819
 20
206.5760100513699
 30
0.0
 40
1.75
100
AcDbArc
 50
90.0
 51
270.0
  0
ARC
  5
77D7
330
18
100
AcDbEntity
  8
0
100
AcDbCircle
 10
406.6327400244818
 20
206.5760100513699
 30
0.0
 40
1.75
100
AcDbArc
 50
270.0
 51
90.0
  0
LINE
  5
77D8
330
18
100
AcDbEntity
  8
0
100
AcDbLine
 10
417.1327400244819
 20
84.82601005137007
 30
0.0
 11
428.6327400244819
 21
84.82601005136997
 31
0.0
  0
LINE
  5
77D9
330
18
100
AcDbEntity
  8
0
100
AcDbLine
 10
417.1327400244819
 20
91.32601005137008
 30
0.0
 11
428.6327400244819
 21
91.32601005136995
 31
0.0
  0
LINE
  5
77DA
330
18
100
AcDbEntity
  8
0
100
AcDbLine
 10
417.1327400244819
 20
87.82601005136996
 30
0.0
 11
428.6327400244819
 21
87.82601005136996
 31
0.0
  0
ARC
  5
77DB
330
18
100
AcDbEntity
  8
0
100
AcDbCircle
 10
417.1327400244819
 20
89.57601005136998
 30
0.0
 40
1.75
100
AcDbArc
 50
90.0
 51
270.0
  0
ARC
  5
77DC
330
18
100
AcDbEntity
  8
0
100
AcDbCircle
 10
428.6327400244819
 20
89.57601005136998
 30
0.0
 40
1.75
100
AcDbArc
 50
270.0
 51
90.0
  0
LINE
  5
77DD
330
18
100
AcDbEntity
  8
0
100
AcDbLine
 10
439.1327400244819
 20
84.82601005137007
 30
0.0
 11
450.6327400244819
 21
84.82601005136997
 31
0.0
  0
LINE
  5
77DE
330
18
100
AcDbEntity
  8
0
100
AcDbLine
 10
439.1327400244819
 20
91.32601005137008
 30
0.0
 11
450.6327400244819
 21
91.32601005136995
 31
0.0
  0
LINE
  5
77DF
330
18
100
AcDbEntity
  8
0
100
AcDbLine
 10
439.1327400244819
 20
87.82601005136996
 30
0.0
 11
450.6327400244819
 21
87.82601005136996
 31
0.0
  0
ARC
  5
77E0
330
18
100
AcDbEntity
  8
0
100
AcDbCircle
 10
439.1327400244819
 20
89.57601005136996
 30
0.0
 40
1.75
100
AcDbArc
 50
90.0
 51
270.0
  0
ARC
  5
77E1
330
18
100
AcDbEntity
  8
0
100
AcDbCircle
 10
450.6327400244819
 20
89.57601005136996
 30
0.0
 40
1.75
100
AcDbArc
 50
270.0
 51
90.0
  0
LINE
  5
77E2
330
18
100
AcDbEntity
  8
0
100
AcDbLine
 10
417.1327400244819
 20
204.8260100513699
 30
0.0
 11
428.6327400244819
 21
204.8260100513699
 31
0.0
  0
LINE
  5
77E3
330
18
100
AcDbEntity
  8
0
100
AcDbLine
 10
417.1327400244819
 20
211.3260100513699
 30
0.0
 11
428.6327400244819
 21
211.3260100513699
 31
0.0
  0
LINE
  5
77E4
330
18
100
AcDbEntity
  8
0
100
AcDbLine
 10
417.1327400244819
 20
208.32601005137
 30
0.0
 11
428.6327400244819
 21
208.3260100513699
 31
0.0
  0
ARC
  5
77E5
330
18
100
AcDbEntity
  8
0
100
AcDbCircle
 10
417.1327400244819
 20
206.5760100513699
 30
0.0
 40
1.75
100
AcDbArc
 50
90.0
 51
270.0
  0
ARC
  5
77E6
330
18
100
AcDbEntity
  8
0
100
AcDbCircle
 10
428.6327400244819
 20
206.5760100513699
 30
0.0
 40
1.75
100
AcDbArc
 50
270.0
 51
90.0
  0
LINE
  5
77E7
330
18
100
AcDbEntity
  8
0
100
AcDbLine
 10
439.1327400244819
 20
204.8260100513699
 30
0.0
 11
450.6327400244819
 21
204.8260100513699
 31
0.0
  0
LINE
  5
77E8
330
18
100
AcDbEntity
  8
0
100
AcDbLine
 10
439.1327400244819
 20
211.3260100513699
 30
0.0
 11
450.6327400244819
 21
211.3260100513699
 31
0.0
  0
LINE
  5
77E9
330
18
100
AcDbEntity
  8
0
100
AcDbLine
 10
439.1327400244819
 20
208.32601005137
 30
0.0
 11
450.6327400244819
 21
208.3260100513699
 31
0.0
  0
ARC
  5
77EA
330
18
100
AcDbEntity
  8
0
100
AcDbCircle
 10
439.1327400244819
 20
206.5760100513699
 30
0.0
 40
1.75
100
AcDbArc
 50
90.0
 51
270.0
  0
ARC
  5
77EB
330
18
100
AcDbEntity
  8
0
100
AcDbCircle
 10
450.6327400244819
 20
206.5760100513699
 30
0.0
 40
1.75
100
AcDbArc
 50
270.0
 51
90.0
  0
ARC
  5
77EC
330
18
100
AcDbEntity
  8
0
100
AcDbCircle
 10
494.6327400244818
 20
83.07601005136996
 30
0.0
 40
1.75
100
AcDbArc
 50
270.0
 51
90.0
  0
ARC
  5
77ED
330
18
100
AcDbEntity
  8
0
100
AcDbCircle
 10
483.1327400244819
 20
83.07601005136996
 30
0.0
 40
1.75
100
AcDbArc
 50
90.0
 51
270.0
  0
ARC
  5
77EE
330
18
100
AcDbEntity
  8
0
100
AcDbCircle
 10
472.6327400244819
 20
83.07601005136996
 30
0.0
 40
1.75
100
AcDbArc
 50
270.0
 51
90.0
  0
ARC
  5
77EF
330
18
100
AcDbEntity
  8
0
100
AcDbCircle
 10
461.1327400244818
 20
83.07601005136996
 30
0.0
 40
1.75
100
AcDbArc
 50
90.0
 51
270.0
  0
LINE
  5
77F0
330
18
100
AcDbEntity
  8
0
100
AcDbLine
 10
461.1327400244818
 20
74.82601005136996
 30
0.0
 11
472.6327400244819
 21
74.82601005136996
 31
0.0
  0
LINE
  5
77F1
330
18
100
AcDbEntity
  8
0
100
AcDbLine
 10
461.1327400244818
 20
78.32601005137007
 30
0.0
 11
472.6327400244819
 21
78.32601005136996
 31
0.0
  0
LINE
  5
77F2
330
18
100
AcDbEntity
  8
0
100
AcDbLine
 10
461.1327400244818
 20
81.32601005136995
 30
0.0
 11
472.6327400244819
 21
81.32601005136995
 31
0.0
  0
ARC
  5
77F3
330
18
100
AcDbEntity
  8
0
100
AcDbCircle
 10
461.1327400244818
 20
76.57601005136996
 30
0.0
 40
1.75
100
AcDbArc
 50
90.0
 51
270.0
  0
ARC
  5
77F4
330
18
100
AcDbEntity
  8
0
100
AcDbCircle
 10
472.6327400244819
 20
76.57601005136996
 30
0.0
 40
1.75
100
AcDbArc
 50
270.0
 51
90.0
  0
LINE
  5
77F5
330
18
100
AcDbEntity
  8
0
100
AcDbLine
 10
483.1327400244819
 20
81.32601005136995
 30
0.0
 11
494.6327400244818
 21
81.32601005136995
 31
0.0
  0
LINE
  5
77F6
330
18
100
AcDbEntity
  8
0
100
AcDbLine
 10
483.1327400244819
 20
74.82601005136996
 30
0.0
 11
494.6327400244818
 21
74.82601005136996
 31
0.0
  0
LINE
  5
77F7
330
18
100
AcDbEntity
  8
0
100
AcDbLine
 10
483.1327400244819
 20
78.32601005137007
 30
0.0
 11
494.6327400244818
 21
78.32601005136996
 31
0.0
  0
ARC
  5
77F8
330
18
100
AcDbEntity
  8
0
100
AcDbCircle
 10
483.1327400244819
 20
76.57601005136996
 30
0.0
 40
1.75
100
AcDbArc
 50
90.0
 51
270.0
  0
ARC
  5
77F9
330
18
100
AcDbEntity
  8
0
100
AcDbCircle
 10
494.6327400244818
 20
76.57601005136996
 30
0.0
 40
1.75
100
AcDbArc
 50
270.0
 51
90.0
  0
LINE
  5
77FA
330
18
100
AcDbEntity
  8
0
100
AcDbLine
 10
500.3827400244818
 20
52.82601005136996
 30
0.0
 11
502.3827400244819
 21
52.82601005136996
 31
0.0
  0
ARC
  5
77FB
330
18
100
AcDbEntity
  8
0
100
AcDbCircle
 10
494.6327400244818
 20
148.0760100513699
 30
0.0
 40
1.75
100
AcDbArc
 50
270.0
 51
90.0
  0
ARC
  5
77FC
330
18
100
AcDbEntity
  8
0
100
AcDbCircle
 10
472.6327400244819
 20
148.0760100513699
 30
0.0
 40
1.75
100
AcDbArc
 50
270.0
 51
90.0
  0
ARC
  5
77FD
330
18
100
AcDbEntity
  8
0
100
AcDbCircle
 10
483.1327400244819
 20
148.0760100513699
 30
0.0
 40
1.75
100
AcDbArc
 50
90.0
 51
270.0
  0
ARC
  5
77FE
330
18
100
AcDbEntity
  8
0
100
AcDbCircle
 10
461.1327400244818
 20
148.0760100513699
 30
0.0
 40
1.75
100
AcDbArc
 50
90.0
 51
270.0
  0
ARC
  5
77FF
330
18
100
AcDbEntity
  8
0
100
AcDbCircle
 10
472.6327400244819
 20
115.5760100513699
 30
0.0
 40
1.75
100
AcDbArc
 50
270.0
 51
90.0
  0
ARC
  5
7800
330
18
100
AcDbEntity
  8
0
100
AcDbCircle
 10
461.1327400244818
 20
115.5760100513699
 30
0.0
 40
1.75
100
AcDbArc
 50
90.0
 51
270.0
  0
LINE
  5
7801
330
18
100
AcDbEntity
  8
0
100
AcDbLine
 10
461.1327400244818
 20
84.82601005137007
 30
0.0
 11
472.6327400244819
 21
84.82601005136997
 31
0.0
  0
LINE
  5
7802
330
18
100
AcDbEntity
  8
0
100
AcDbLine
 10
461.1327400244818
 20
94.32601005136996
 30
0.0
 11
472.6327400244819
 21
94.32601005136996
 31
0.0
  0
LINE
  5
7803
330
18
100
AcDbEntity
  8
0
100
AcDbLine
 10
461.1327400244818
 20
91.32601005137008
 30
0.0
 11
472.6327400244819
 21
91.32601005136995
 31
0.0
  0
LINE
  5
7804
330
18
100
AcDbEntity
  8
0
100
AcDbLine
 10
461.1327400244818
 20
87.82601005136996
 30
0.0
 11
472.6327400244819
 21
87.82601005136996
 31
0.0
  0
LINE
  5
7805
330
18
100
AcDbEntity
  8
0
100
AcDbLine
 10
461.1327400244818
 20
97.82601005137008
 30
0.0
 11
472.6327400244819
 21
97.82601005136996
 31
0.0
  0
LINE
  5
7806
330
18
100
AcDbEntity
  8
0
100
AcDbLine
 10
461.1327400244818
 20
100.8260100513699
 30
0.0
 11
472.6327400244819
 21
100.8260100513699
 31
0.0
  0
LINE
  5
7807
330
18
100
AcDbEntity
  8
0
100
AcDbLine
 10
461.1327400244818
 20
107.3260100513699
 30
0.0
 11
472.6327400244819
 21
107.3260100513699
 31
0.0
  0
LINE
  5
7808
330
18
100
AcDbEntity
  8
0
100
AcDbLine
 10
461.1327400244818
 20
110.82601005137
 30
0.0
 11
472.6327400244819
 21
110.8260100513699
 31
0.0
  0
LINE
  5
7809
330
18
100
AcDbEntity
  8
0
100
AcDbLine
 10
461.1327400244818
 20
104.32601005137
 30
0.0
 11
472.6327400244819
 21
104.3260100513699
 31
0.0
  0
LINE
  5
780A
330
18
100
AcDbEntity
  8
0
100
AcDbLine
 10
461.1327400244818
 20
113.8260100513699
 30
0.0
 11
472.6327400244819
 21
113.8260100513699
 31
0.0
  0
ARC
  5
780B
330
18
100
AcDbEntity
  8
0
100
AcDbCircle
 10
461.1327400244818
 20
102.5760100513699
 30
0.0
 40
1.75
100
AcDbArc
 50
90.0
 51
270.0
  0
ARC
  5
780C
330
18
100
AcDbEntity
  8
0
100
AcDbCircle
 10
461.1327400244818
 20
109.0760100513699
 30
0.0
 40
1.75
100
AcDbArc
 50
90.0
 51
270.0
  0
ARC
  5
780D
330
18
100
AcDbEntity
  8
0
100
AcDbCircle
 10
461.1327400244818
 20
96.07601005136997
 30
0.0
 40
1.75
100
AcDbArc
 50
90.0
 51
270.0
  0
ARC
  5
780E
330
18
100
AcDbEntity
  8
0
100
AcDbCircle
 10
461.1327400244818
 20
89.57601005136996
 30
0.0
 40
1.75
100
AcDbArc
 50
90.0
 51
270.0
  0
ARC
  5
780F
330
18
100
AcDbEntity
  8
0
100
AcDbCircle
 10
472.6327400244819
 20
102.5760100513699
 30
0.0
 40
1.75
100
AcDbArc
 50
270.0
 51
90.0
  0
ARC
  5
7810
330
18
100
AcDbEntity
  8
0
100
AcDbCircle
 10
472.6327400244819
 20
109.0760100513699
 30
0.0
 40
1.75
100
AcDbArc
 50
270.0
 51
90.0
  0
ARC
  5
7811
330
18
100
AcDbEntity
  8
0
100
AcDbCircle
 10
472.6327400244819
 20
96.07601005136997
 30
0.0
 40
1.75
100
AcDbArc
 50
270.0
 51
90.0
  0
ARC
  5
7812
330
18
100
AcDbEntity
  8
0
100
AcDbCircle
 10
472.6327400244819
 20
89.57601005136996
 30
0.0
 40
1.75
100
AcDbArc
 50
270.0
 51
90.0
  0
LINE
  5
7813
330
18
100
AcDbEntity
  8
0
100
AcDbLine
 10
461.1327400244818
 20
120.3260100513699
 30
0.0
 11
472.6327400244819
 21
120.3260100513699
 31
0.0
  0
LINE
  5
7814
330
18
100
AcDbEntity
  8
0
100
AcDbLine
 10
461.1327400244818
 20
123.82601005137
 30
0.0
 11
472.6327400244819
 21
123.8260100513699
 31
0.0
  0
LINE
  5
7815
330
18
100
AcDbEntity
  8
0
100
AcDbLine
 10
461.1327400244818
 20
126.8260100513699
 30
0.0
 11
472.6327400244819
 21
126.8260100513699
 31
0.0
  0
LINE
  5
7816
330
18
100
AcDbEntity
  8
0
100
AcDbLine
 10
461.1327400244818
 20
130.32601005137
 30
0.0
 11
472.6327400244819
 21
130.3260100513699
 31
0.0
  0
LINE
  5
7817
330
18
100
AcDbEntity
  8
0
100
AcDbLine
 10
461.1327400244818
 20
133.3260100513699
 30
0.0
 11
472.6327400244819
 21
133.3260100513699
 31
0.0
  0
LINE
  5
7818
330
18
100
AcDbEntity
  8
0
100
AcDbLine
 10
461.1327400244818
 20
139.8260100513699
 30
0.0
 11
472.6327400244819
 21
139.8260100513699
 31
0.0
  0
LINE
  5
7819
330
18
100
AcDbEntity
  8
0
100
AcDbLine
 10
461.1327400244818
 20
136.82601005137
 30
0.0
 11
472.6327400244819
 21
136.8260100513699
 31
0.0
  0
LINE
  5
781A
330
18
100
AcDbEntity
  8
0
100
AcDbLine
 10
461.1327400244818
 20
146.3260100513699
 30
0.0
 11
472.6327400244819
 21
146.3260100513699
 31
0.0
  0
LINE
  5
781B
330
18
100
AcDbEntity
  8
0
100
AcDbLine
 10
461.1327400244818
 20
143.32601005137
 30
0.0
 11
472.6327400244819
 21
143.3260100513699
 31
0.0
  0
LINE
  5
781C
330
18
100
AcDbEntity
  8
0
100
AcDbLine
 10
461.1327400244818
 20
117.32601005137
 30
0.0
 11
472.6327400244819
 21
117.3260100513699
 31
0.0
  0
ARC
  5
781D
330
18
100
AcDbEntity
  8
0
100
AcDbCircle
 10
461.1327400244818
 20
141.5760100513699
 30
0.0
 40
1.75
100
AcDbArc
 50
90.0
 51
270.0
  0
ARC
  5
781E
330
18
100
AcDbEntity
  8
0
100
AcDbCircle
 10
461.1327400244818
 20
135.0760100513699
 30
0.0
 40
1.75
100
AcDbArc
 50
90.0
 51
270.0
  0
ARC
  5
781F
330
18
100
AcDbEntity
  8
0
100
AcDbCircle
 10
461.1327400244818
 20
122.0760100513699
 30
0.0
 40
1.75
100
AcDbArc
 50
90.0
 51
270.0
  0
ARC
  5
7820
330
18
100
AcDbEntity
  8
0
100
AcDbCircle
 10
461.1327400244818
 20
128.5760100513699
 30
0.0
 40
1.75
100
AcDbArc
 50
90.0
 51
270.0
  0
ARC
  5
7821
330
18
100
AcDbEntity
  8
0
100
AcDbCircle
 10
472.6327400244819
 20
141.5760100513699
 30
0.0
 40
1.75
100
AcDbArc
 50
270.0
 51
90.0
  0
ARC
  5
7822
330
18
100
AcDbEntity
  8
0
100
AcDbCircle
 10
472.6327400244819
 20
135.0760100513699
 30
0.0
 40
1.75
100
AcDbArc
 50
270.0
 51
90.0
  0
ARC
  5
7823
330
18
100
AcDbEntity
  8
0
100
AcDbCircle
 10
472.6327400244819
 20
122.0760100513699
 30
0.0
 40
1.75
100
AcDbArc
 50
270.0
 51
90.0
  0
ARC
  5
7824
330
18
100
AcDbEntity
  8
0
100
AcDbCircle
 10
472.6327400244819
 20
128.5760100513699
 30
0.0
 40
1.75
100
AcDbArc
 50
270.0
 51
90.0
  0
ARC
  5
7825
330
18
100
AcDbEntity
  8
0
100
AcDbCircle
 10
494.6327400244818
 20
115.5760100513699
 30
0.0
 40
1.75
100
AcDbArc
 50
270.0
 51
90.0
  0
ARC
  5
7826
330
18
100
AcDbEntity
  8
0
100
AcDbCircle
 10
483.1327400244819
 20
115.5760100513699
 30
0.0
 40
1.75
100
AcDbArc
 50
90.0
 51
270.0
  0
LINE
  5
7827
330
18
100
AcDbEntity
  8
0
100
AcDbLine
 10
483.1327400244819
 20
100.8260100513699
 30
0.0
 11
494.6327400244818
 21
100.8260100513699
 31
0.0
  0
LINE
  5
7828
330
18
100
AcDbEntity
  8
0
100
AcDbLine
 10
483.1327400244819
 20
104.32601005137
 30
0.0
 11
494.6327400244818
 21
104.3260100513699
 31
0.0
  0
LINE
  5
7829
330
18
100
AcDbEntity
  8
0
100
AcDbLine
 10
483.1327400244819
 20
110.82601005137
 30
0.0
 11
494.6327400244818
 21
110.8260100513699
 31
0.0
  0
LINE
  5
782A
330
18
100
AcDbEntity
  8
0
100
AcDbLine
 10
483.1327400244819
 20
107.3260100513699
 30
0.0
 11
494.6327400244818
 21
107.3260100513699
 31
0.0
  0
LINE
  5
782B
330
18
100
AcDbEntity
  8
0
100
AcDbLine
 10
483.1327400244819
 20
113.8260100513699
 30
0.0
 11
494.6327400244818
 21
113.8260100513699
 31
0.0
  0
LINE
  5
782C
330
18
100
AcDbEntity
  8
0
100
AcDbLine
 10
483.1327400244819
 20
84.82601005137007
 30
0.0
 11
494.6327400244818
 21
84.82601005136997
 31
0.0
  0
LINE
  5
782D
330
18
100
AcDbEntity
  8
0
100
AcDbLine
 10
483.1327400244819
 20
87.82601005136996
 30
0.0
 11
494.6327400244818
 21
87.82601005136996
 31
0.0
  0
LINE
  5
782E
330
18
100
AcDbEntity
  8
0
100
AcDbLine
 10
483.1327400244819
 20
91.32601005137008
 30
0.0
 11
494.6327400244818
 21
91.32601005136995
 31
0.0
  0
LINE
  5
782F
330
18
100
AcDbEntity
  8
0
100
AcDbLine
 10
483.1327400244819
 20
94.32601005136996
 30
0.0
 11
494.6327400244818
 21
94.32601005136996
 31
0.0
  0
LINE
  5
7830
330
18
100
AcDbEntity
  8
0
100
AcDbLine
 10
483.1327400244819
 20
97.82601005137008
 30
0.0
 11
494.6327400244818
 21
97.82601005136996
 31
0.0
  0
ARC
  5
7831
330
18
100
AcDbEntity
  8
0
100
AcDbCircle
 10
483.1327400244819
 20
102.5760100513699
 30
0.0
 40
1.75
100
AcDbArc
 50
90.0
 51
270.0
  0
ARC
  5
7832
330
18
100
AcDbEntity
  8
0
100
AcDbCircle
 10
483.1327400244819
 20
109.0760100513699
 30
0.0
 40
1.75
100
AcDbArc
 50
90.0
 51
270.0
  0
ARC
  5
7833
330
18
100
AcDbEntity
  8
0
100
AcDbCircle
 10
483.1327400244819
 20
96.07601005136997
 30
0.0
 40
1.75
100
AcDbArc
 50
90.0
 51
270.0
  0
ARC
  5
7834
330
18
100
AcDbEntity
  8
0
100
AcDbCircle
 10
483.1327400244819
 20
89.57601005136996
 30
0.0
 40
1.75
100
AcDbArc
 50
90.0
 51
270.0
  0
ARC
  5
7835
330
18
100
AcDbEntity
  8
0
100
AcDbCircle
 10
494.6327400244818
 20
102.5760100513699
 30
0.0
 40
1.75
100
AcDbArc
 50
270.0
 51
90.0
  0
ARC
  5
7836
330
18
100
AcDbEntity
  8
0
100
AcDbCircle
 10
494.6327400244818
 20
109.0760100513699
 30
0.0
 40
1.75
100
AcDbArc
 50
270.0
 51
90.0
  0
ARC
  5
7837
330
18
100
AcDbEntity
  8
0
100
AcDbCircle
 10
494.6327400244818
 20
96.07601005136997
 30
0.0
 40
1.75
100
AcDbArc
 50
270.0
 51
90.0
  0
ARC
  5
7838
330
18
100
AcDbEntity
  8
0
100
AcDbCircle
 10
494.6327400244818
 20
89.57601005136996
 30
0.0
 40
1.75
100
AcDbArc
 50
270.0
 51
90.0
  0
LINE
  5
7839
330
18
100
AcDbEntity
  8
0
100
AcDbLine
 10
483.1327400244819
 20
139.8260100513699
 30
0.0
 11
494.6327400244818
 21
139.8260100513699
 31
0.0
  0
LINE
  5
783A
330
18
100
AcDbEntity
  8
0
100
AcDbLine
 10
483.1327400244819
 20
143.32601005137
 30
0.0
 11
494.6327400244818
 21
143.3260100513699
 31
0.0
  0
LINE
  5
783B
330
18
100
AcDbEntity
  8
0
100
AcDbLine
 10
483.1327400244819
 20
146.3260100513699
 30
0.0
 11
494.6327400244818
 21
146.3260100513699
 31
0.0
  0
LINE
  5
783C
330
18
100
AcDbEntity
  8
0
100
AcDbLine
 10
483.1327400244819
 20
123.82601005137
 30
0.0
 11
494.6327400244818
 21
123.8260100513699
 31
0.0
  0
LINE
  5
783D
330
18
100
AcDbEntity
  8
0
100
AcDbLine
 10
483.1327400244819
 20
120.3260100513699
 30
0.0
 11
494.6327400244818
 21
120.3260100513699
 31
0.0
  0
LINE
  5
783E
330
18
100
AcDbEntity
  8
0
100
AcDbLine
 10
483.1327400244819
 20
126.8260100513699
 30
0.0
 11
494.6327400244818
 21
126.8260100513699
 31
0.0
  0
LINE
  5
783F
330
18
100
AcDbEntity
  8
0
100
AcDbLine
 10
483.1327400244819
 20
130.32601005137
 30
0.0
 11
494.6327400244818
 21
130.3260100513699
 31
0.0
  0
LINE
  5
7840
330
18
100
AcDbEntity
  8
0
100
AcDbLine
 10
483.1327400244819
 20
133.3260100513699
 30
0.0
 11
494.6327400244818
 21
133.3260100513699
 31
0.0
  0
LINE
  5
7841
330
18
100
AcDbEntity
  8
0
100
AcDbLine
 10
483.1327400244819
 20
136.82601005137
 30
0.0
 11
494.6327400244818
 21
136.8260100513699
 31
0.0
  0
LINE
  5
7842
330
18
100
AcDbEntity
  8
0
100
AcDbLine
 10
483.1327400244819
 20
117.32601005137
 30
0.0
 11
494.6327400244818
 21
117.3260100513699
 31
0.0
  0
ARC
  5
7843
330
18
100
AcDbEntity
  8
0
100
AcDbCircle
 10
483.1327400244819
 20
141.5760100513699
 30
0.0
 40
1.75
100
AcDbArc
 50
90.0
 51
270.0
  0
ARC
  5
7844
330
18
100
AcDbEntity
  8
0
100
AcDbCircle
 10
483.1327400244819
 20
135.0760100513699
 30
0.0
 40
1.75
100
AcDbArc
 50
90.0
 51
270.0
  0
ARC
  5
7845
330
18
100
AcDbEntity
  8
0
100
AcDbCircle
 10
483.1327400244819
 20
122.0760100513699
 30
0.0
 40
1.75
100
AcDbArc
 50
90.0
 51
270.0
  0
ARC
  5
7846
330
18
100
AcDbEntity
  8
0
100
AcDbCircle
 10
483.1327400244819
 20
128.5760100513699
 30
0.0
 40
1.75
100
AcDbArc
 50
90.0
 51
270.0
  0
ARC
  5
7847
330
18
100
AcDbEntity
  8
0
100
AcDbCircle
 10
494.6327400244818
 20
141.5760100513699
 30
0.0
 40
1.75
100
AcDbArc
 50
270.0
 51
90.0
  0
ARC
  5
7848
330
18
100
AcDbEntity
  8
0
100
AcDbCircle
 10
494.6327400244818
 20
135.0760100513699
 30
0.0
 40
1.75
100
AcDbArc
 50
270.0
 51
90.0
  0
ARC
  5
7849
330
18
100
AcDbEntity
  8
0
100
AcDbCircle
 10
494.6327400244818
 20
122.0760100513699
 30
0.0
 40
1.75
100
AcDbArc
 50
270.0
 51
90.0
  0
ARC
  5
784A
330
18
100
AcDbEntity
  8
0
100
AcDbCircle
 10
494.6327400244818
 20
128.5760100513699
 30
0.0
 40
1.75
100
AcDbArc
 50
270.0
 51
90.0
  0
ARC
  5
784B
330
18
100
AcDbEntity
  8
0
100
AcDbCircle
 10
472.6327400244819
 20
180.5760100513699
 30
0.0
 40
1.75
100
AcDbArc
 50
270.0
 51
90.0
  0
ARC
  5
784C
330
18
100
AcDbEntity
  8
0
100
AcDbCircle
 10
461.1327400244818
 20
180.5760100513699
 30
0.0
 40
1.75
100
AcDbArc
 50
90.0
 51
270.0
  0
LINE
  5
784D
330
18
100
AcDbEntity
  8
0
100
AcDbLine
 10
461.1327400244818
 20
149.82601005137
 30
0.0
 11
472.6327400244819
 21
149.8260100513699
 31
0.0
  0
LINE
  5
784E
330
18
100
AcDbEntity
  8
0
100
AcDbLine
 10
461.1327400244818
 20
156.32601005137
 30
0.0
 11
472.6327400244819
 21
156.3260100513699
 31
0.0
  0
LINE
  5
784F
330
18
100
AcDbEntity
  8
0
100
AcDbLine
 10
461.1327400244818
 20
152.8260100513699
 30
0.0
 11
472.6327400244819
 21
152.8260100513699
 31
0.0
  0
LINE
  5
7850
330
18
100
AcDbEntity
  8
0
100
AcDbLine
 10
461.1327400244818
 20
165.8260100513699
 30
0.0
 11
472.6327400244819
 21
165.8260100513699
 31
0.0
  0
LINE
  5
7851
330
18
100
AcDbEntity
  8
0
100
AcDbLine
 10
461.1327400244818
 20
159.3260100513699
 30
0.0
 11
472.6327400244819
 21
159.3260100513699
 31
0.0
  0
LINE
  5
7852
330
18
100
AcDbEntity
  8
0
100
AcDbLine
 10
461.1327400244818
 20
162.82601005137
 30
0.0
 11
472.6327400244819
 21
162.8260100513699
 31
0.0
  0
LINE
  5
7853
330
18
100
AcDbEntity
  8
0
100
AcDbLine
 10
461.1327400244818
 20
172.3260100513699
 30
0.0
 11
472.6327400244819
 21
172.3260100513699
 31
0.0
  0
LINE
  5
7854
330
18
100
AcDbEntity
  8
0
100
AcDbLine
 10
461.1327400244818
 20
169.32601005137
 30
0.0
 11
472.6327400244819
 21
169.3260100513699
 31
0.0
  0
LINE
  5
7855
330
18
100
AcDbEntity
  8
0
100
AcDbLine
 10
461.1327400244818
 20
178.8260100513699
 30
0.0
 11
472.6327400244819
 21
178.8260100513699
 31
0.0
  0
LINE
  5
7856
330
18
100
AcDbEntity
  8
0
100
AcDbLine
 10
461.1327400244818
 20
175.82601005137
 30
0.0
 11
472.6327400244819
 21
175.8260100513699
 31
0.0
  0
ARC
  5
7857
330
18
100
AcDbEntity
  8
0
100
AcDbCircle
 10
461.1327400244818
 20
174.0760100513699
 30
0.0
 40
1.75
100
AcDbArc
 50
90.0
 51
270.0
  0
ARC
  5
7858
330
18
100
AcDbEntity
  8
0
100
AcDbCircle
 10
461.1327400244818
 20
161.0760100513699
 30
0.0
 40
1.75
100
AcDbArc
 50
90.0
 51
270.0
  0
ARC
  5
7859
330
18
100
AcDbEntity
  8
0
100
AcDbCircle
 10
461.1327400244818
 20
167.5760100513699
 30
0.0
 40
1.75
100
AcDbArc
 50
90.0
 51
270.0
  0
ARC
  5
785A
330
18
100
AcDbEntity
  8
0
100
AcDbCircle
 10
461.1327400244818
 20
154.57601005137
 30
0.0
 40
1.75
100
AcDbArc
 50
90.0
 51
270.0
  0
ARC
  5
785B
330
18
100
AcDbEntity
  8
0
100
AcDbCircle
 10
472.6327400244819
 20
174.0760100513699
 30
0.0
 40
1.75
100
AcDbArc
 50
270.0
 51
90.0
  0
ARC
  5
785C
330
18
100
AcDbEntity
  8
0
100
AcDbCircle
 10
472.6327400244819
 20
161.0760100513699
 30
0.0
 40
1.75
100
AcDbArc
 50
270.0
 51
90.0
  0
ARC
  5
785D
330
18
100
AcDbEntity
  8
0
100
AcDbCircle
 10
472.6327400244819
 20
167.5760100513699
 30
0.0
 40
1.75
100
AcDbArc
 50
270.0
 51
90.0
  0
ARC
  5
785E
330
18
100
AcDbEntity
  8
0
100
AcDbCircle
 10
472.6327400244819
 20
154.57601005137
 30
0.0
 40
1.75
100
AcDbArc
 50
270.0
 51
90.0
  0
LINE
  5
785F
330
18
100
AcDbEntity
  8
0
100
AcDbLine
 10
461.1327400244818
 20
182.32601005137
 30
0.0
 11
472.6327400244819
 21
182.3260100513699
 31
0.0
  0
LINE
  5
7860
330
18
100
AcDbEntity
  8
0
100
AcDbLine
 10
461.1327400244818
 20
185.3260100513699
 30
0.0
 11
472.6327400244819
 21
185.3260100513699
 31
0.0
  0
LINE
  5
7861
330
18
100
AcDbEntity
  8
0
100
AcDbLine
 10
461.1327400244818
 20
188.82601005137
 30
0.0
 11
472.6327400244819
 21
188.8260100513699
 31
0.0
  0
LINE
  5
7862
330
18
100
AcDbEntity
  8
0
100
AcDbLine
 10
461.1327400244818
 20
191.8260100513699
 30
0.0
 11
472.6327400244819
 21
191.8260100513699
 31
0.0
  0
LINE
  5
7863
330
18
100
AcDbEntity
  8
0
100
AcDbLine
 10
461.1327400244818
 20
195.32601005137
 30
0.0
 11
472.6327400244819
 21
195.3260100513699
 31
0.0
  0
LINE
  5
7864
330
18
100
AcDbEntity
  8
0
100
AcDbLine
 10
461.1327400244818
 20
198.3260100513699
 30
0.0
 11
472.6327400244819
 21
198.3260100513699
 31
0.0
  0
LINE
  5
7865
330
18
100
AcDbEntity
  8
0
100
AcDbLine
 10
461.1327400244818
 20
204.8260100513699
 30
0.0
 11
472.6327400244819
 21
204.8260100513699
 31
0.0
  0
LINE
  5
7866
330
18
100
AcDbEntity
  8
0
100
AcDbLine
 10
461.1327400244818
 20
201.82601005137
 30
0.0
 11
472.6327400244819
 21
201.8260100513699
 31
0.0
  0
LINE
  5
7867
330
18
100
AcDbEntity
  8
0
100
AcDbLine
 10
461.1327400244818
 20
211.3260100513699
 30
0.0
 11
472.6327400244819
 21
211.3260100513699
 31
0.0
  0
LINE
  5
7868
330
18
100
AcDbEntity
  8
0
100
AcDbLine
 10
461.1327400244818
 20
208.32601005137
 30
0.0
 11
472.6327400244819
 21
208.3260100513699
 31
0.0
  0
ARC
  5
7869
330
18
100
AcDbEntity
  8
0
100
AcDbCircle
 10
461.1327400244818
 20
200.0760100513699
 30
0.0
 40
1.75
100
AcDbArc
 50
90.0
 51
270.0
  0
ARC
  5
786A
330
18
100
AcDbEntity
  8
0
100
AcDbCircle
 10
461.1327400244818
 20
206.5760100513699
 30
0.0
 40
1.75
100
AcDbArc
 50
90.0
 51
270.0
  0
ARC
  5
786B
330
18
100
AcDbEntity
  8
0
100
AcDbCircle
 10
461.1327400244818
 20
193.5760100513699
 30
0.0
 40
1.75
100
AcDbArc
 50
90.0
 51
270.0
  0
ARC
  5
786C
330
18
100
AcDbEntity
  8
0
100
AcDbCircle
 10
461.1327400244818
 20
187.0760100513699
 30
0.0
 40
1.75
100
AcDbArc
 50
90.0
 51
270.0
  0
ARC
  5
786D
330
18
100
AcDbEntity
  8
0
100
AcDbCircle
 10
472.6327400244819
 20
200.0760100513699
 30
0.0
 40
1.75
100
AcDbArc
 50
270.0
 51
90.0
  0
ARC
  5
786E
330
18
100
AcDbEntity
  8
0
100
AcDbCircle
 10
472.6327400244819
 20
206.5760100513699
 30
0.0
 40
1.75
100
AcDbArc
 50
270.0
 51
90.0
  0
ARC
  5
786F
330
18
100
AcDbEntity
  8
0
100
AcDbCircle
 10
472.6327400244819
 20
193.5760100513699
 30
0.0
 40
1.75
100
AcDbArc
 50
270.0
 51
90.0
  0
ARC
  5
7870
330
18
100
AcDbEntity
  8
0
100
AcDbCircle
 10
472.6327400244819
 20
187.0760100513699
 30
0.0
 40
1.75
100
AcDbArc
 50
270.0
 51
90.0
  0
ARC
  5
7871
330
18
100
AcDbEntity
  8
0
100
AcDbCircle
 10
494.6327400244818
 20
180.5760100513699
 30
0.0
 40
1.75
100
AcDbArc
 50
270.0
 51
90.0
  0
ARC
  5
7872
330
18
100
AcDbEntity
  8
0
100
AcDbCircle
 10
483.1327400244819
 20
180.5760100513699
 30
0.0
 40
1.75
100
AcDbArc
 50
90.0
 51
270.0
  0
LINE
  5
7873
330
18
100
AcDbEntity
  8
0
100
AcDbLine
 10
483.1327400244819
 20
178.8260100513699
 30
0.0
 11
494.6327400244818
 21
178.8260100513699
 31
0.0
  0
LINE
  5
7874
330
18
100
AcDbEntity
  8
0
100
AcDbLine
 10
483.1327400244819
 20
162.82601005137
 30
0.0
 11
494.6327400244818
 21
162.8260100513699
 31
0.0
  0
LINE
  5
7875
330
18
100
AcDbEntity
  8
0
100
AcDbLine
 10
483.1327400244819
 20
159.3260100513699
 30
0.0
 11
494.6327400244818
 21
159.3260100513699
 31
0.0
  0
LINE
  5
7876
330
18
100
AcDbEntity
  8
0
100
AcDbLine
 10
483.1327400244819
 20
165.8260100513699
 30
0.0
 11
494.6327400244818
 21
165.8260100513699
 31
0.0
  0
LINE
  5
7877
330
18
100
AcDbEntity
  8
0
100
AcDbLine
 10
483.1327400244819
 20
169.32601005137
 30
0.0
 11
494.6327400244818
 21
169.3260100513699
 31
0.0
  0
LINE
  5
7878
330
18
100
AcDbEntity
  8
0
100
AcDbLine
 10
483.1327400244819
 20
172.3260100513699
 30
0.0
 11
494.6327400244818
 21
172.3260100513699
 31
0.0
  0
LINE
  5
7879
330
18
100
AcDbEntity
  8
0
100
AcDbLine
 10
483.1327400244819
 20
175.82601005137
 30
0.0
 11
494.6327400244818
 21
175.8260100513699
 31
0.0
  0
LINE
  5
787A
330
18
100
AcDbEntity
  8
0
100
AcDbLine
 10
483.1327400244819
 20
149.82601005137
 30
0.0
 11
494.6327400244818
 21
149.8260100513699
 31
0.0
  0
LINE
  5
787B
330
18
100
AcDbEntity
  8
0
100
AcDbLine
 10
483.1327400244819
 20
156.32601005137
 30
0.0
 11
494.6327400244818
 21
156.3260100513699
 31
0.0
  0
LINE
  5
787C
330
18
100
AcDbEntity
  8
0
100
AcDbLine
 10
483.1327400244819
 20
152.8260100513699
 30
0.0
 11
494.6327400244818
 21
152.8260100513699
 31
0.0
  0
ARC
  5
787D
330
18
100
AcDbEntity
  8
0
100
AcDbCircle
 10
483.1327400244819
 20
174.0760100513699
 30
0.0
 40
1.75
100
AcDbArc
 50
90.0
 51
270.0
  0
ARC
  5
787E
330
18
100
AcDbEntity
  8
0
100
AcDbCircle
 10
483.1327400244819
 20
161.0760100513699
 30
0.0
 40
1.75
100
AcDbArc
 50
90.0
 51
270.0
  0
ARC
  5
787F
330
18
100
AcDbEntity
  8
0
100
AcDbCircle
 10
483.1327400244819
 20
167.5760100513699
 30
0.0
 40
1.75
100
AcDbArc
 50
90.0
 51
270.0
  0
ARC
  5
7880
330
18
100
AcDbEntity
  8
0
100
AcDbCircle
 10
483.1327400244819
 20
154.5760100513699
 30
0.0
 40
1.75
100
AcDbArc
 50
90.0
 51
270.0
  0
ARC
  5
7881
330
18
100
AcDbEntity
  8
0
100
AcDbCircle
 10
494.6327400244818
 20
174.0760100513699
 30
0.0
 40
1.75
100
AcDbArc
 50
270.0
 51
90.0
  0
ARC
  5
7882
330
18
100
AcDbEntity
  8
0
100
AcDbCircle
 10
494.6327400244818
 20
161.0760100513699
 30
0.0
 40
1.75
100
AcDbArc
 50
270.0
 51
90.0
  0
ARC
  5
7883
330
18
100
AcDbEntity
  8
0
100
AcDbCircle
 10
494.6327400244818
 20
167.5760100513699
 30
0.0
 40
1.75
100
AcDbArc
 50
270.0
 51
90.0
  0
ARC
  5
7884
330
18
100
AcDbEntity
  8
0
100
AcDbCircle
 10
494.6327400244818
 20
154.5760100513699
 30
0.0
 40
1.75
100
AcDbArc
 50
270.0
 51
90.0
  0
LINE
  5
7885
330
18
100
AcDbEntity
  8
0
100
AcDbLine
 10
483.1327400244819
 20
198.3260100513699
 30
0.0
 11
494.6327400244818
 21
198.3260100513699
 31
0.0
  0
LINE
  5
7886
330
18
100
AcDbEntity
  8
0
100
AcDbLine
 10
483.1327400244819
 20
201.82601005137
 30
0.0
 11
494.6327400244818
 21
201.8260100513699
 31
0.0
  0
LINE
  5
7887
330
18
100
AcDbEntity
  8
0
100
AcDbLine
 10
483.1327400244819
 20
204.8260100513699
 30
0.0
 11
494.6327400244818
 21
204.8260100513699
 31
0.0
  0
LINE
  5
7888
330
18
100
AcDbEntity
  8
0
100
AcDbLine
 10
483.1327400244819
 20
208.32601005137
 30
0.0
 11
494.6327400244818
 21
208.3260100513699
 31
0.0
  0
LINE
  5
7889
330
18
100
AcDbEntity
  8
0
100
AcDbLine
 10
483.1327400244819
 20
211.3260100513699
 30
0.0
 11
494.6327400244818
 21
211.3260100513699
 31
0.0
  0
LINE
  5
788A
330
18
100
AcDbEntity
  8
0
100
AcDbLine
 10
483.1327400244819
 20
182.32601005137
 30
0.0
 11
494.6327400244818
 21
182.3260100513699
 31
0.0
  0
LINE
  5
788B
330
18
100
AcDbEntity
  8
0
100
AcDbLine
 10
483.1327400244819
 20
188.82601005137
 30
0.0
 11
494.6327400244818
 21
188.8260100513699
 31
0.0
  0
LINE
  5
788C
330
18
100
AcDbEntity
  8
0
100
AcDbLine
 10
483.1327400244819
 20
185.3260100513699
 30
0.0
 11
494.6327400244818
 21
185.3260100513699
 31
0.0
  0
LINE
  5
788D
330
18
100
AcDbEntity
  8
0
100
AcDbLine
 10
483.1327400244819
 20
195.32601005137
 30
0.0
 11
494.6327400244818
 21
195.3260100513699
 31
0.0
  0
LINE
  5
788E
330
18
100
AcDbEntity
  8
0
100
AcDbLine
 10
483.1327400244819
 20
191.8260100513699
 30
0.0
 11
494.6327400244818
 21
191.8260100513699
 31
0.0
  0
ARC
  5
788F
330
18
100
AcDbEntity
  8
0
100
AcDbCircle
 10
483.1327400244819
 20
200.0760100513699
 30
0.0
 40
1.75
100
AcDbArc
 50
90.0
 51
270.0
  0
ARC
  5
7890
330
18
100
AcDbEntity
  8
0
100
AcDbCircle
 10
483.1327400244819
 20
206.5760100513699
 30
0.0
 40
1.75
100
AcDbArc
 50
90.0
 51
270.0
  0
ARC
  5
7891
330
18
100
AcDbEntity
  8
0
100
AcDbCircle
 10
483.1327400244819
 20
193.5760100513699
 30
0.0
 40
1.75
100
AcDbArc
 50
90.0
 51
270.0
  0
ARC
  5
7892
330
18
100
AcDbEntity
  8
0
100
AcDbCircle
 10
483.1327400244819
 20
187.0760100513699
 30
0.0
 40
1.75
100
AcDbArc
 50
90.0
 51
270.0
  0
ARC
  5
7893
330
18
100
AcDbEntity
  8
0
100
AcDbCircle
 10
494.6327400244818
 20
200.0760100513699
 30
0.0
 40
1.75
100
AcDbArc
 50
270.0
 51
90.0
  0
ARC
  5
7894
330
18
100
AcDbEntity
  8
0
100
AcDbCircle
 10
494.6327400244818
 20
206.5760100513699
 30
0.0
 40
1.75
100
AcDbArc
 50
270.0
 51
90.0
  0
ARC
  5
7895
330
18
100
AcDbEntity
  8
0
100
AcDbCircle
 10
494.6327400244818
 20
193.5760100513699
 30
0.0
 40
1.75
100
AcDbArc
 50
270.0
 51
90.0
  0
ARC
  5
7896
330
18
100
AcDbEntity
  8
0
100
AcDbCircle
 10
494.6327400244818
 20
187.0760100513699
 30
0.0
 40
1.75
100
AcDbArc
 50
270.0
 51
90.0
  0
LINE
  5
789B
330
18
100
AcDbEntity
  8
0
100
AcDbLine
 10
431.3827400244819
 20
227.8260100513699
 30
0.0
 11
500.3827400244818
 21
227.8260100513699
 31
0.0
  0
LINE
  5
789C
330
18
100
AcDbEntity
  8
0
100
AcDbLine
 10
344.382740024482
 20
227.8260100513699
 30
0.0
 11
500.3827400244818
 21
227.8260100513699
 31
0.0
  0
LINE
  5
78A1
330
18
100
AcDbEntity
  8
0
100
AcDbLine
 10
351.132740024482
 20
221.32601005137
 30
0.0
 11
362.632740024482
 21
221.3260100513699
 31
0.0
  0
LINE
  5
78A2
330
18
100
AcDbEntity
  8
0
100
AcDbLine
 10
351.132740024482
 20
217.8260100513699
 30
0.0
 11
362.632740024482
 21
217.8260100513699
 31
0.0
  0
LINE
  5
78A3
330
18
100
AcDbEntity
  8
0
100
AcDbLine
 10
351.1327400244819
 20
214.82601005137
 30
0.0
 11
362.6327400244818
 21
214.8260100513699
 31
0.0
  0
LINE
  5
78A4
330
18
100
AcDbEntity
  8
0
100
AcDbLine
 10
344.382740024482
 20
227.8260100513699
 30
0.0
 11
417.3827400244818
 21
227.8260100513699
 31
0.0
  0
ARC
  5
78BB
330
18
100
AcDbEntity
  8
0
100
AcDbCircle
 10
351.1327400244819
 20
219.5760100513699
 30
0.0
 40
1.75
100
AcDbArc
 50
90.0
 51
270.0
  0
LINE
  5
78BC
330
18
100
AcDbEntity
  8
0
100
AcDbLine
 10
342.3827400244819
 20
227.8260100513699
 30
0.0
 11
344.382740024482
 21
227.8260100513699
 31
0.0
  0
ARC
  5
790D
330
18
100
AcDbEntity
  8
0
100
AcDbCircle
 10
384.6327400244819
 20
219.5760100513699
 30
0.0
 40
1.75
100
AcDbArc
 50
270.0
 51
90.0
  0
LINE
  5
790E
330
18
100
AcDbEntity
  8
0
100
AcDbLine
 10
373.132740024482
 20
217.8260100513699
 30
0.0
 11
384.632740024482
 21
217.8260100513699
 31
0.0
  0
LINE
  5
790F
330
18
100
AcDbEntity
  8
0
100
AcDbLine
 10
373.132740024482
 20
221.32601005137
 30
0.0
 11
384.632740024482
 21
221.3260100513699
 31
0.0
  0
LINE
  5
7910
330
18
100
AcDbEntity
  8
0
100
AcDbLine
 10
373.1327400244818
 20
214.82601005137
 30
0.0
 11
384.6327400244819
 21
214.8260100513699
 31
0.0
  0
ARC
  5
7911
330
18
100
AcDbEntity
  8
0
100
AcDbCircle
 10
373.1327400244818
 20
219.5760100513699
 30
0.0
 40
1.75
100
AcDbArc
 50
90.0
 51
270.0
  0
ARC
  5
7912
330
18
100
AcDbEntity
  8
0
100
AcDbCircle
 10
362.6327400244818
 20
219.5760100513699
 30
0.0
 40
1.75
100
AcDbArc
 50
270.0
 51
90.0
  0
LINE
  5
7913
330
18
100
AcDbEntity
  8
0
100
AcDbLine
 10
395.132740024482
 20
221.32601005137
 30
0.0
 11
406.632740024482
 21
221.3260100513699
 31
0.0
  0
LINE
  5
7914
330
18
100
AcDbEntity
  8
0
100
AcDbLine
 10
395.132740024482
 20
217.8260100513699
 30
0.0
 11
406.632740024482
 21
217.8260100513699
 31
0.0
  0
LINE
  5
7915
330
18
100
AcDbEntity
  8
0
100
AcDbLine
 10
395.1327400244819
 20
214.82601005137
 30
0.0
 11
406.6327400244818
 21
214.8260100513699
 31
0.0
  0
ARC
  5
7916
330
18
100
AcDbEntity
  8
0
100
AcDbCircle
 10
395.1327400244819
 20
219.5760100513699
 30
0.0
 40
1.75
100
AcDbArc
 50
90.0
 51
270.0
  0
ARC
  5
7917
330
18
100
AcDbEntity
  8
0
100
AcDbCircle
 10
406.6327400244818
 20
219.5760100513699
 30
0.0
 40
1.75
100
AcDbArc
 50
270.0
 51
90.0
  0
LINE
  5
7965
330
18
100
AcDbEntity
  8
0
100
AcDbLine
 10
417.1327400244819
 20
217.8260100513699
 30
0.0
 11
428.6327400244819
 21
217.8260100513699
 31
0.0
  0
LINE
  5
7966
330
18
100
AcDbEntity
  8
0
100
AcDbLine
 10
417.1327400244819
 20
221.32601005137
 30
0.0
 11
428.6327400244819
 21
221.3260100513699
 31
0.0
  0
LINE
  5
7967
330
18
100
AcDbEntity
  8
0
100
AcDbLine
 10
417.1327400244819
 20
214.82601005137
 30
0.0
 11
428.6327400244819
 21
214.8260100513699
 31
0.0
  0
ARC
  5
7968
330
18
100
AcDbEntity
  8
0
100
AcDbCircle
 10
417.1327400244819
 20
219.5760100513699
 30
0.0
 40
1.75
100
AcDbArc
 50
90.0
 51
270.0
  0
ARC
  5
7969
330
18
100
AcDbEntity
  8
0
100
AcDbCircle
 10
428.6327400244819
 20
219.5760100513699
 30
0.0
 40
1.75
100
AcDbArc
 50
270.0
 51
90.0
  0
ARC
  5
796A
330
18
100
AcDbEntity
  8
0
100
AcDbCircle
 10
424.3827400244819
 20
226.57601005137
 30
0.0
 40
3.249999999999876
100
AcDbArc
 50
22.61986494803698
 51
157.380135051963
  0
LINE
  5
796B
330
18
100
AcDbEntity
  8
0
100
AcDbLine
 10
439.1327400244819
 20
221.32601005137
 30
0.0
 11
450.6327400244819
 21
221.3260100513699
 31
0.0
  0
LINE
  5
796C
330
18
100
AcDbEntity
  8
0
100
AcDbLine
 10
439.1327400244819
 20
217.8260100513699
 30
0.0
 11
450.6327400244819
 21
217.8260100513699
 31
0.0
  0
LINE
  5
796D
330
18
100
AcDbEntity
  8
0
100
AcDbLine
 10
439.1327400244819
 20
214.82601005137
 30
0.0
 11
450.6327400244819
 21
214.8260100513699
 31
0.0
  0
ARC
  5
796E
330
18
100
AcDbEntity
  8
0
100
AcDbCircle
 10
439.1327400244819
 20
219.5760100513699
 30
0.0
 40
1.75
100
AcDbArc
 50
90.0
 51
270.0
  0
ARC
  5
796F
330
18
100
AcDbEntity
  8
0
100
AcDbCircle
 10
450.6327400244819
 20
219.5760100513699
 30
0.0
 40
1.75
100
AcDbArc
 50
270.0
 51
90.0
  0
LINE
  5
79E0
330
18
100
AcDbEntity
  8
0
100
AcDbLine
 10
461.1327400244818
 20
217.8260100513699
 30
0.0
 11
472.6327400244819
 21
217.8260100513699
 31
0.0
  0
LINE
  5
79E1
330
18
100
AcDbEntity
  8
0
100
AcDbLine
 10
461.1327400244818
 20
221.32601005137
 30
0.0
 11
472.6327400244819
 21
221.3260100513699
 31
0.0
  0
LINE
  5
79E2
330
18
100
AcDbEntity
  8
0
100
AcDbLine
 10
461.1327400244818
 20
214.82601005137
 30
0.0
 11
472.6327400244819
 21
214.8260100513699
 31
0.0
  0
ARC
  5
79E3
330
18
100
AcDbEntity
  8
0
100
AcDbCircle
 10
461.1327400244818
 20
219.5760100513699
 30
0.0
 40
1.75
100
AcDbArc
 50
90.0
 51
270.0
  0
ARC
  5
79E4
330
18
100
AcDbEntity
  8
0
100
AcDbCircle
 10
472.6327400244819
 20
219.5760100513699
 30
0.0
 40
1.75
100
AcDbArc
 50
270.0
 51
90.0
  0
LINE
  5
79E5
330
18
100
AcDbEntity
  8
0
100
AcDbLine
 10
483.1327400244819
 20
221.32601005137
 30
0.0
 11
494.6327400244818
 21
221.3260100513699
 31
0.0
  0
LINE
  5
79E6
330
18
100
AcDbEntity
  8
0
100
AcDbLine
 10
483.1327400244819
 20
217.8260100513699
 30
0.0
 11
494.6327400244818
 21
217.8260100513699
 31
0.0
  0
LINE
  5
79E7
330
18
100
AcDbEntity
  8
0
100
AcDbLine
 10
483.1327400244819
 20
214.82601005137
 30
0.0
 11
494.6327400244818
 21
214.8260100513699
 31
0.0
  0
ARC
  5
79E8
330
18
100
AcDbEntity
  8
0
100
AcDbCircle
 10
483.1327400244819
 20
219.5760100513699
 30
0.0
 40
1.75
100
AcDbArc
 50
90.0
 51
270.0
  0
LINE
  5
79E9
330
18
100
AcDbEntity
  8
0
100
AcDbLine
 10
500.3827400244818
 20
242.8260100513699
 30
0.0
 11
502.3827400244819
 21
242.8260100513699
 31
0.0
  0
ARC
  5
79EA
330
18
100
AcDbEntity
  8
0
100
AcDbCircle
 10
494.6327400244818
 20
219.5760100513699
 30
0.0
 40
1.75
100
AcDbArc
 50
270.0
 51
90.0
  0
LINE
  5
7B7F
330
18
100
AcDbEntity
  8
0
100
AcDbLine
 10
174.7648120080266
 20
75.49267671803659
 30
0.0
 11
176.6801342388316
 21
75.49267671803659
 31
0.0
  0
LINE
  5
7B80
330
18
100
AcDbEntity
  8
0
100
AcDbLine
 10
174.7648120080266
 20
74.15934338470311
 30
0.0
 11
176.6801342388316
 21
74.15934338470311
 31
0.0
  0
CIRCLE
  5
7B81
330
18
100
AcDbEntity
  8
0
100
AcDbCircle
 10
174.0981453413598
 20
74.82601005136984
 30
0.0
 40
4.0
  0
CIRCLE
  5
7B82
330
18
100
AcDbEntity
  8
0
100
AcDbCircle
 10
174.0981453413598
 20
74.82601005136984
 30
0.0
 40
3.333333333333333
  0
ARC
  5
7B83
330
18
100
AcDbEntity
  8
0
100
AcDbCircle
 10
174.0981453413598
 20
74.82601005136984
 30
0.0
 40
2.666666666666666
100
AcDbArc
 50
75.52248781407015
 51
104.4775121859298
  0
LINE
  5
7B84
330
18
100
AcDbEntity
  8
0
100
AcDbLine
 10
173.4314786746932
 20
75.49267671803659
 30
0.0
 11
173.4314786746932
 21
77.40799894884162
 31
0.0
  0
LINE
  5
7B85
330
18
100
AcDbEntity
  8
0
100
AcDbLine
 10
174.7648120080266
 20
75.49267671803659
 30
0.0
 11
174.7648120080266
 21
77.40799894884162
 31
0.0
  0
ARC
  5
7B86
330
18
100
AcDbEntity
  8
0
100
AcDbCircle
 10
174.0981453413598
 20
74.82601005136984
 30
0.0
 40
2.666666666666666
100
AcDbArc
 50
165.5224878140709
 51
194.477512185929
  0
LINE
  5
7B87
330
18
100
AcDbEntity
  8
0
100
AcDbLine
 10
171.5161564438887
 20
75.49267671803659
 30
0.0
 11
173.4314786746932
 21
75.49267671803659
 31
0.0
  0
LINE
  5
7B88
330
18
100
AcDbEntity
  8
0
100
AcDbLine
 10
171.5161564438887
 20
74.15934338470311
 30
0.0
 11
173.4314786746932
 21
74.15934338470311
 31
0.0
  0
ARC
  5
7B89
330
18
100
AcDbEntity
  8
0
100
AcDbCircle
 10
174.0981453413598
 20
74.82601005136984
 30
0.0
 40
2.666666666666666
100
AcDbArc
 50
255.52248781407
 51
284.4775121859298
  0
LINE
  5
7B8A
330
18
100
AcDbEntity
  8
0
100
AcDbLine
 10
173.4314786746932
 20
72.24402115389807
 30
0.0
 11
173.4314786746932
 21
74.15934338470311
 31
0.0
  0
LINE
  5
7B8B
330
18
100
AcDbEntity
  8
0
100
AcDbLine
 10
174.7648120080266
 20
72.24402115389807
 30
0.0
 11
174.7648120080266
 21
74.15934338470311
 31
0.0
  0
ARC
  5
7B8C
330
18
100
AcDbEntity
  8
0
100
AcDbCircle
 10
174.0981453413598
 20
74.82601005136984
 30
0.0
 40
2.666666666666666
100
AcDbArc
 50
345.5224878140709
 51
14.47751218592907
  0
LINE
  5
7B8D
330
18
100
AcDbEntity
  8
0
100
AcDbLine
 10
185.7648120080266
 20
75.49267671803659
 30
0.0
 11
187.6801342388316
 21
75.49267671803659
 31
0.0
  0
LINE
  5
7B8E
330
18
100
AcDbEntity
  8
0
100
AcDbLine
 10
185.7648120080266
 20
74.15934338470311
 30
0.0
 11
187.6801342388316
 21
74.15934338470311
 31
0.0
  0
CIRCLE
  5
7B8F
330
18
100
AcDbEntity
  8
0
100
AcDbCircle
 10
185.0981453413599
 20
74.82601005136984
 30
0.0
 40
4.0
  0
CIRCLE
  5
7B90
330
18
100
AcDbEntity
  8
0
100
AcDbCircle
 10
185.0981453413599
 20
74.82601005136984
 30
0.0
 40
3.333333333333333
  0
ARC
  5
7B91
330
18
100
AcDbEntity
  8
0
100
AcDbCircle
 10
185.0981453413599
 20
74.82601005136984
 30
0.0
 40
2.666666666666666
100
AcDbArc
 50
75.52248781407015
 51
104.4775121859298
  0
LINE
  5
7B92
330
18
100
AcDbEntity
  8
0
100
AcDbLine
 10
184.4314786746932
 20
75.49267671803659
 30
0.0
 11
184.4314786746932
 21
77.40799894884162
 31
0.0
  0
LINE
  5
7B93
330
18
100
AcDbEntity
  8
0
100
AcDbLine
 10
185.7648120080266
 20
75.49267671803659
 30
0.0
 11
185.7648120080266
 21
77.40799894884162
 31
0.0
  0
ARC
  5
7B94
330
18
100
AcDbEntity
  8
0
100
AcDbCircle
 10
185.0981453413599
 20
74.82601005136984
 30
0.0
 40
2.666666666666666
100
AcDbArc
 50
165.5224878140709
 51
194.477512185929
  0
LINE
  5
7B95
330
18
100
AcDbEntity
  8
0
100
AcDbLine
 10
182.5161564438888
 20
75.49267671803659
 30
0.0
 11
184.4314786746932
 21
75.49267671803659
 31
0.0
  0
LINE
  5
7B96
330
18
100
AcDbEntity
  8
0
100
AcDbLine
 10
182.5161564438888
 20
74.15934338470311
 30
0.0
 11
184.4314786746932
 21
74.15934338470311
 31
0.0
  0
ARC
  5
7B97
330
18
100
AcDbEntity
  8
0
100
AcDbCircle
 10
185.0981453413599
 20
74.82601005136984
 30
0.0
 40
2.666666666666666
100
AcDbArc
 50
255.52248781407
 51
284.4775121859298
  0
LINE
  5
7B98
330
18
100
AcDbEntity
  8
0
100
AcDbLine
 10
184.4314786746932
 20
72.24402115389807
 30
0.0
 11
184.4314786746932
 21
74.15934338470311
 31
0.0
  0
LINE
  5
7B99
330
18
100
AcDbEntity
  8
0
100
AcDbLine
 10
185.7648120080266
 20
72.24402115389807
 30
0.0
 11
185.7648120080266
 21
74.15934338470311
 31
0.0
  0
ARC
  5
7B9A
330
18
100
AcDbEntity
  8
0
100
AcDbCircle
 10
185.0981453413599
 20
74.82601005136984
 30
0.0
 40
2.666666666666666
100
AcDbArc
 50
345.5224878140709
 51
14.47751218592907
  0
LINE
  5
7BC7
330
18
100
AcDbEntity
  8
0
100
AcDbLine
 10
180.5981453413597
 20
119.92601005137
 30
0.0
 11
180.5981453413597
 21
118.3260100513699
 31
0.0
  0
LINE
  5
7BC8
330
18
100
AcDbEntity
  8
0
100
AcDbLine
 10
180.5981453413598
 20
190.20601005137
 30
0.0
 11
180.5981453413597
 21
188.8260100513699
 31
0.0
  0
LINE
  5
80A5
330
18
100
AcDbEntity
  8
0
100
AcDbLine
 10
230.5981453413597
 20
173.8260100513699
 30
0.0
 11
230.5981453413597
 21
131.9260100513697
 31
0.0
  0
LINE
  5
80A6
330
18
100
AcDbEntity
  8
0
100
AcDbLine
 10
211.2981453413598
 20
72.82601005136996
 30
0.0
 11
211.2981453413598
 21
173.8260100513699
 31
0.0
  0
LINE
  5
80A7
330
18
100
AcDbEntity
  8
0
100
AcDbLine
 10
210.2981453413598
 20
173.8260100513699
 30
0.0
 11
210.2981453413598
 21
72.82601005136996
 31
0.0
  0
LINE
  5
80A8
330
18
100
AcDbEntity
  8
0
100
AcDbLine
 10
217.8981453413597
 20
72.82601005136996
 30
0.0
 11
217.8981453413597
 21
173.8260100513699
 31
0.0
  0
LINE
  5
80A9
330
18
100
AcDbEntity
  8
0
100
AcDbLine
 10
216.2981453413598
 20
173.8260100513699
 30
0.0
 11
216.2981453413598
 21
72.82601005136996
 31
0.0
  0
LINE
  5
80AB
330
18
100
AcDbEntity
  8
0
100
AcDbLine
 10
216.2981453413598
 20
72.82601005136996
 30
0.0
 11
217.8981453413597
 21
72.82601005136996
 31
0.0
  0
LINE
  5
80AC
330
18
100
AcDbEntity
  8
0
100
AcDbLine
 10
209.0981453413597
 20
67.82601005136996
 30
0.0
 11
233.0981453413597
 21
67.82601005136996
 31
0.0
  0
LINE
  5
80AD
330
18
100
AcDbEntity
  8
0
100
AcDbLine
 10
216.2981453413598
 20
73.82601005136996
 30
0.0
 11
211.2981453413598
 21
73.82601005136996
 31
0.0
  0
LINE
  5
80AE
330
18
100
AcDbEntity
  8
0
100
AcDbLine
 10
210.2981453413598
 20
72.82601005136996
 30
0.0
 11
211.2981453413598
 21
72.82601005136996
 31
0.0
  0
LINE
  5
80AF
330
18
100
AcDbEntity
  8
0
100
AcDbLine
 10
210.2981453413598
 20
74.82601005136996
 30
0.0
 11
209.0981453413597
 21
74.82601005136996
 31
0.0
  0
LINE
  5
80B0
330
18
100
AcDbEntity
  8
0
100
AcDbLine
 10
216.2981453413598
 20
79.82601005136996
 30
0.0
 11
211.2981453413598
 21
79.82601005136996
 31
0.0
  0
LINE
  5
80B1
330
18
100
AcDbEntity
  8
0
100
AcDbLine
 10
210.2981453413598
 20
80.82601005136996
 30
0.0
 11
209.0981453413597
 21
80.82601005136996
 31
0.0
  0
LINE
  5
80B2
330
18
100
AcDbEntity
  8
0
100
AcDbLine
 10
230.5981453413597
 20
106.52601005137
 30
0.0
 11
230.5981453413597
 21
68.82601005136996
 31
0.0
  0
LINE
  5
80B3
330
18
100
AcDbEntity
  8
0
100
AcDbLine
 10
230.5981453413597
 20
68.82601005136996
 30
0.0
 11
231.5981453413598
 21
67.82601005136996
 31
0.0
  0
LINE
  5
80B4
330
18
100
AcDbEntity
  8
0
100
AcDbLine
 10
233.0981453413597
 20
67.82601005136996
 30
0.0
 11
231.5981453413598
 21
67.82601005136996
 31
0.0
  0
LINE
  5
80B5
330
18
100
AcDbEntity
  8
0
100
AcDbLine
 10
209.0981453413597
 20
173.8260100513699
 30
0.0
 11
230.5981453413597
 21
173.8260100513699
 31
0.0
  0
LINE
  5
80B6
330
18
100
AcDbEntity
  8
0
100
AcDbLine
 10
225.2981453413598
 20
163.4260100513699
 30
0.0
 11
225.2981453413598
 21
141.02601005137
 31
0.0
  0
LINE
  5
80B7
330
18
100
AcDbEntity
  8
0
100
AcDbLine
 10
218.8981453413597
 20
141.02601005137
 30
0.0
 11
218.8981453413597
 21
163.4260100513699
 31
0.0
  0
TEXT
  5
80B8
330
18
100
AcDbEntity
  8
0
100
AcDbText
 10
219.5858903369525
 20
162.1019341091851
 30
0.0
 40
1.0
  1
ＯＮ
  7
MSｺﾞｼｯｸ
100
AcDbText
  0
LINE
  5
80B9
330
18
100
AcDbEntity
  8
0
100
AcDbLine
 10
225.2981453413598
 20
141.02601005137
 30
0.0
 11
218.8981453413597
 21
141.02601005137
 31
0.0
  0
LINE
  5
80BA
330
18
100
AcDbEntity
  8
0
100
AcDbLine
 10
217.8981453413597
 20
146.47601005137
 30
0.0
 11
218.8981453413597
 21
146.47601005137
 31
0.0
  0
LINE
  5
80BB
330
18
100
AcDbEntity
  8
0
100
AcDbLine
 10
217.8981453413597
 20
145.27601005137
 30
0.0
 11
218.8981453413597
 21
145.27601005137
 31
0.0
  0
LINE
  5
80BC
330
18
100
AcDbEntity
  8
0
100
AcDbLine
 10
217.8981453413597
 20
143.9360100513699
 30
0.0
 11
218.8981453413597
 21
143.9360100513699
 31
0.0
  0
LINE
  5
80BD
330
18
100
AcDbEntity
  8
0
100
AcDbLine
 10
217.8981453413597
 20
142.73601005137
 30
0.0
 11
218.8981453413597
 21
142.73601005137
 31
0.0
  0
TEXT
  5
80BE
330
18
100
AcDbEntity
  8
0
100
AcDbText
 10
219.2636275748622
 20
146.5257562442634
 30
0.0
 40
2.0
  1
7
 50
270.0
  7
MSｺﾞｼｯｸ
 72
     1
 11
218.8981453413597
 21
145.87601005137
 31
0.0
100
AcDbText
 73
     1
  0
TEXT
  5
80BF
330
18
100
AcDbEntity
  8
0
100
AcDbText
 10
219.2636275748622
 20
143.9857562442633
 30
0.0
 40
2.0
  1
8
 50
270.0
  7
MSｺﾞｼｯｸ
 72
     1
 11
218.8981453413597
 21
143.3360100513699
 31
0.0
100
AcDbText
 73
     1
  0
LINE
  5
80C0
330
18
100
AcDbEntity
  8
0
100
AcDbLine
 10
225.2981453413598
 20
146.52601005137
 30
0.0
 11
222.0981453413597
 21
146.52601005137
 31
0.0
  0
LINE
  5
80C1
330
18
100
AcDbEntity
  8
0
100
AcDbLine
 10
222.0981453413597
 20
146.52601005137
 30
0.0
 11
222.0981453413597
 21
145.22601005137
 31
0.0
  0
LINE
  5
80C2
330
18
100
AcDbEntity
  8
0
100
AcDbLine
 10
222.0981453413597
 20
145.22601005137
 30
0.0
 11
225.2981453413598
 21
145.22601005137
 31
0.0
  0
LINE
  5
80C3
330
18
100
AcDbEntity
  8
0
100
AcDbLine
 10
225.2981453413598
 20
143.98601005137
 30
0.0
 11
222.0981453413597
 21
143.98601005137
 31
0.0
  0
LINE
  5
80C4
330
18
100
AcDbEntity
  8
0
100
AcDbLine
 10
222.0981453413597
 20
143.98601005137
 30
0.0
 11
222.0981453413597
 21
142.6860100513699
 31
0.0
  0
LINE
  5
80C5
330
18
100
AcDbEntity
  8
0
100
AcDbLine
 10
222.0981453413597
 20
142.6860100513699
 30
0.0
 11
225.2981453413598
 21
142.6860100513699
 31
0.0
  0
LINE
  5
80C6
330
18
100
AcDbEntity
  8
0
100
AcDbLine
 10
224.2981453413598
 20
146.52601005137
 30
0.0
 11
224.2981453413598
 21
145.22601005137
 31
0.0
  0
LINE
  5
80C7
330
18
100
AcDbEntity
  8
0
100
AcDbLine
 10
224.2981453413598
 20
143.98601005137
 30
0.0
 11
224.2981453413598
 21
142.6860100513699
 31
0.0
  0
LINE
  5
80C8
330
18
100
AcDbEntity
  8
0
100
AcDbLine
 10
223.7981453413598
 20
146.52601005137
 30
0.0
 11
223.7981453413598
 21
145.22601005137
 31
0.0
  0
LINE
  5
80C9
330
18
100
AcDbEntity
  8
0
100
AcDbLine
 10
223.7981453413598
 20
143.98601005137
 30
0.0
 11
223.7981453413598
 21
142.6860100513699
 31
0.0
  0
LINE
  5
80CA
330
18
100
AcDbEntity
  8
0
100
AcDbLine
 10
222.2481453413598
 20
143.8360100513699
 30
0.0
 11
223.2481453413598
 21
143.8360100513699
 31
0.0
  0
LINE
  5
80CB
330
18
100
AcDbEntity
  8
0
100
AcDbLine
 10
223.2481453413598
 20
143.8360100513699
 30
0.0
 11
223.2481453413598
 21
142.8360100513699
 31
0.0
  0
LINE
  5
80CC
330
18
100
AcDbEntity
  8
0
100
AcDbLine
 10
223.2481453413598
 20
142.8360100513699
 30
0.0
 11
222.2481453413598
 21
142.8360100513699
 31
0.0
  0
LINE
  5
80CD
330
18
100
AcDbEntity
  8
0
100
AcDbLine
 10
222.2481453413598
 20
142.8360100513699
 30
0.0
 11
222.2481453413598
 21
143.8360100513699
 31
0.0
  0
LINE
  5
80CE
330
18
100
AcDbEntity
  8
0
100
AcDbLine
 10
222.2481453413598
 20
146.37601005137
 30
0.0
 11
223.2481453413598
 21
146.37601005137
 31
0.0
  0
LINE
  5
80CF
330
18
100
AcDbEntity
  8
0
100
AcDbLine
 10
223.2481453413598
 20
146.37601005137
 30
0.0
 11
223.2481453413598
 21
145.37601005137
 31
0.0
  0
LINE
  5
80D0
330
18
100
AcDbEntity
  8
0
100
AcDbLine
 10
223.2481453413598
 20
145.37601005137
 30
0.0
 11
222.2481453413598
 21
145.37601005137
 31
0.0
  0
LINE
  5
80D1
330
18
100
AcDbEntity
  8
0
100
AcDbLine
 10
222.2481453413598
 20
145.37601005137
 30
0.0
 11
222.2481453413598
 21
146.37601005137
 31
0.0
  0
LINE
  5
80D2
330
18
100
AcDbEntity
  8
0
100
AcDbLine
 10
217.8981453413597
 20
154.0960100513699
 30
0.0
 11
218.8981453413597
 21
154.0960100513699
 31
0.0
  0
LINE
  5
80D3
330
18
100
AcDbEntity
  8
0
100
AcDbLine
 10
217.8981453413597
 20
152.89601005137
 30
0.0
 11
218.8981453413597
 21
152.89601005137
 31
0.0
  0
LINE
  5
80D4
330
18
100
AcDbEntity
  8
0
100
AcDbLine
 10
217.8981453413597
 20
151.5560100513699
 30
0.0
 11
218.8981453413597
 21
151.5560100513699
 31
0.0
  0
TEXT
  5
80D5
330
18
100
AcDbEntity
  8
0
100
AcDbText
 10
219.2636275748622
 20
154.1457562442634
 30
0.0
 40
2.0
  1
4
 50
270.0
  7
MSｺﾞｼｯｸ
 72
     1
 11
218.8981453413597
 21
153.49601005137
 31
0.0
100
AcDbText
 73
     1
  0
LINE
  5
80D6
330
18
100
AcDbEntity
  8
0
100
AcDbLine
 10
217.8981453413597
 20
150.3560100513699
 30
0.0
 11
218.8981453413597
 21
150.3560100513699
 31
0.0
  0
LINE
  5
80D7
330
18
100
AcDbEntity
  8
0
100
AcDbLine
 10
217.8981453413597
 20
149.01601005137
 30
0.0
 11
218.8981453413597
 21
149.01601005137
 31
0.0
  0
LINE
  5
80D8
330
18
100
AcDbEntity
  8
0
100
AcDbLine
 10
217.8981453413597
 20
147.8160100513699
 30
0.0
 11
218.8981453413597
 21
147.8160100513699
 31
0.0
  0
TEXT
  5
80D9
330
18
100
AcDbEntity
  8
0
100
AcDbText
 10
219.2636275748622
 20
151.6057562442633
 30
0.0
 40
2.0
  1
5
 50
270.0
  7
MSｺﾞｼｯｸ
 72
     1
 11
218.8981453413597
 21
150.9560100513699
 31
0.0
100
AcDbText
 73
     1
  0
TEXT
  5
80DA
330
18
100
AcDbEntity
  8
0
100
AcDbText
 10
219.2636275748622
 20
149.0657562442633
 30
0.0
 40
2.0
  1
6
 50
270.0
  7
MSｺﾞｼｯｸ
 72
     1
 11
218.8981453413597
 21
148.4160100513699
 31
0.0
100
AcDbText
 73
     1
  0
LINE
  5
80DB
330
18
100
AcDbEntity
  8
0
100
AcDbLine
 10
225.2981453413598
 20
151.6060100513699
 30
0.0
 11
222.0981453413597
 21
151.6060100513699
 31
0.0
  0
LINE
  5
80DC
330
18
100
AcDbEntity
  8
0
100
AcDbLine
 10
225.2981453413598
 20
154.14601005137
 30
0.0
 11
222.0981453413597
 21
154.14601005137
 31
0.0
  0
LINE
  5
80DD
330
18
100
AcDbEntity
  8
0
100
AcDbLine
 10
222.0981453413597
 20
154.14601005137
 30
0.0
 11
222.0981453413597
 21
152.8460100513699
 31
0.0
  0
LINE
  5
80DE
330
18
100
AcDbEntity
  8
0
100
AcDbLine
 10
222.0981453413597
 20
152.8460100513699
 30
0.0
 11
225.2981453413598
 21
152.8460100513699
 31
0.0
  0
LINE
  5
80DF
330
18
100
AcDbEntity
  8
0
100
AcDbLine
 10
224.2981453413598
 20
154.14601005137
 30
0.0
 11
224.2981453413598
 21
152.8460100513699
 31
0.0
  0
LINE
  5
80E0
330
18
100
AcDbEntity
  8
0
100
AcDbLine
 10
223.7981453413598
 20
154.14601005137
 30
0.0
 11
223.7981453413598
 21
152.8460100513699
 31
0.0
  0
LINE
  5
80E1
330
18
100
AcDbEntity
  8
0
100
AcDbLine
 10
222.2481453413598
 20
153.99601005137
 30
0.0
 11
223.2481453413598
 21
153.99601005137
 31
0.0
  0
LINE
  5
80E2
330
18
100
AcDbEntity
  8
0
100
AcDbLine
 10
223.2481453413598
 20
153.99601005137
 30
0.0
 11
223.2481453413598
 21
152.99601005137
 31
0.0
  0
LINE
  5
80E3
330
18
100
AcDbEntity
  8
0
100
AcDbLine
 10
223.2481453413598
 20
152.99601005137
 30
0.0
 11
222.2481453413598
 21
152.99601005137
 31
0.0
  0
LINE
  5
80E4
330
18
100
AcDbEntity
  8
0
100
AcDbLine
 10
222.2481453413598
 20
152.99601005137
 30
0.0
 11
222.2481453413598
 21
153.99601005137
 31
0.0
  0
LINE
  5
80E5
330
18
100
AcDbEntity
  8
0
100
AcDbLine
 10
222.0981453413597
 20
150.3060100513699
 30
0.0
 11
225.2981453413598
 21
150.3060100513699
 31
0.0
  0
LINE
  5
80E6
330
18
100
AcDbEntity
  8
0
100
AcDbLine
 10
225.2981453413598
 20
149.0660100513699
 30
0.0
 11
222.0981453413597
 21
149.0660100513699
 31
0.0
  0
LINE
  5
80E7
330
18
100
AcDbEntity
  8
0
100
AcDbLine
 10
222.0981453413597
 20
149.0660100513699
 30
0.0
 11
222.0981453413597
 21
147.76601005137
 31
0.0
  0
LINE
  5
80E8
330
18
100
AcDbEntity
  8
0
100
AcDbLine
 10
222.0981453413597
 20
147.76601005137
 30
0.0
 11
225.2981453413598
 21
147.76601005137
 31
0.0
  0
LINE
  5
80E9
330
18
100
AcDbEntity
  8
0
100
AcDbLine
 10
224.2981453413598
 20
149.0660100513699
 30
0.0
 11
224.2981453413598
 21
147.76601005137
 31
0.0
  0
LINE
  5
80EA
330
18
100
AcDbEntity
  8
0
100
AcDbLine
 10
223.7981453413598
 20
149.0660100513699
 30
0.0
 11
223.7981453413598
 21
147.76601005137
 31
0.0
  0
LINE
  5
80EB
330
18
100
AcDbEntity
  8
0
100
AcDbLine
 10
222.2481453413598
 20
148.91601005137
 30
0.0
 11
223.2481453413598
 21
148.91601005137
 31
0.0
  0
LINE
  5
80EC
330
18
100
AcDbEntity
  8
0
100
AcDbLine
 10
223.2481453413598
 20
148.91601005137
 30
0.0
 11
223.2481453413598
 21
147.91601005137
 31
0.0
  0
LINE
  5
80ED
330
18
100
AcDbEntity
  8
0
100
AcDbLine
 10
223.2481453413598
 20
147.91601005137
 30
0.0
 11
222.2481453413598
 21
147.91601005137
 31
0.0
  0
LINE
  5
80EE
330
18
100
AcDbEntity
  8
0
100
AcDbLine
 10
222.2481453413598
 20
147.91601005137
 30
0.0
 11
222.2481453413598
 21
148.91601005137
 31
0.0
  0
LINE
  5
80EF
330
18
100
AcDbEntity
  8
0
100
AcDbLine
 10
222.2481453413598
 20
151.4560100513699
 30
0.0
 11
223.2481453413598
 21
151.4560100513699
 31
0.0
  0
LINE
  5
80F0
330
18
100
AcDbEntity
  8
0
100
AcDbLine
 10
223.2481453413598
 20
151.4560100513699
 30
0.0
 11
223.2481453413598
 21
150.4560100513699
 31
0.0
  0
LINE
  5
80F1
330
18
100
AcDbEntity
  8
0
100
AcDbLine
 10
223.2481453413598
 20
150.4560100513699
 30
0.0
 11
222.2481453413598
 21
150.4560100513699
 31
0.0
  0
LINE
  5
80F2
330
18
100
AcDbEntity
  8
0
100
AcDbLine
 10
222.2481453413598
 20
150.4560100513699
 30
0.0
 11
222.2481453413598
 21
151.4560100513699
 31
0.0
  0
LINE
  5
80F3
330
18
100
AcDbEntity
  8
0
100
AcDbLine
 10
222.0981453413597
 20
151.6060100513699
 30
0.0
 11
222.0981453413597
 21
150.3060100513699
 31
0.0
  0
LINE
  5
80F4
330
18
100
AcDbEntity
  8
0
100
AcDbLine
 10
224.2981453413598
 20
151.6060100513699
 30
0.0
 11
224.2981453413598
 21
150.3060100513699
 31
0.0
  0
LINE
  5
80F5
330
18
100
AcDbEntity
  8
0
100
AcDbLine
 10
223.7981453413598
 20
151.6060100513699
 30
0.0
 11
223.7981453413598
 21
150.3060100513699
 31
0.0
  0
LINE
  5
80F6
330
18
100
AcDbEntity
  8
0
100
AcDbLine
 10
217.8981453413597
 20
161.7160100513699
 30
0.0
 11
218.8981453413597
 21
161.7160100513699
 31
0.0
  0
LINE
  5
80F7
330
18
100
AcDbEntity
  8
0
100
AcDbLine
 10
217.8981453413597
 20
160.51601005137
 30
0.0
 11
218.8981453413597
 21
160.51601005137
 31
0.0
  0
LINE
  5
80F8
330
18
100
AcDbEntity
  8
0
100
AcDbLine
 10
217.8981453413597
 20
159.1760100513699
 30
0.0
 11
218.8981453413597
 21
159.1760100513699
 31
0.0
  0
LINE
  5
80F9
330
18
100
AcDbEntity
  8
0
100
AcDbLine
 10
217.8981453413597
 20
157.9760100513699
 30
0.0
 11
218.8981453413597
 21
157.9760100513699
 31
0.0
  0
LINE
  5
80FA
330
18
100
AcDbEntity
  8
0
100
AcDbLine
 10
217.8981453413597
 20
156.6360100513699
 30
0.0
 11
218.8981453413597
 21
156.6360100513699
 31
0.0
  0
LINE
  5
80FB
330
18
100
AcDbEntity
  8
0
100
AcDbLine
 10
217.8981453413597
 20
155.4360100513699
 30
0.0
 11
218.8981453413597
 21
155.4360100513699
 31
0.0
  0
TEXT
  5
80FC
330
18
100
AcDbEntity
  8
0
100
AcDbText
 10
219.2636275748622
 20
161.7657562442633
 30
0.0
 40
2.0
  1
1
 50
270.0
  7
MSｺﾞｼｯｸ
 72
     1
 11
218.8981453413597
 21
161.1160100513699
 31
0.0
100
AcDbText
 73
     1
  0
TEXT
  5
80FD
330
18
100
AcDbEntity
  8
0
100
AcDbText
 10
219.2636275748622
 20
159.2257562442633
 30
0.0
 40
2.0
  1
2
 50
270.0
  7
MSｺﾞｼｯｸ
 72
     1
 11
218.8981453413597
 21
158.5760100513699
 31
0.0
100
AcDbText
 73
     1
  0
TEXT
  5
80FE
330
18
100
AcDbEntity
  8
0
100
AcDbText
 10
219.2636275748622
 20
156.6857562442633
 30
0.0
 40
2.0
  1
3
 50
270.0
  7
MSｺﾞｼｯｸ
 72
     1
 11
218.8981453413597
 21
156.0360100513699
 31
0.0
100
AcDbText
 73
     1
  0
LINE
  5
80FF
330
18
100
AcDbEntity
  8
0
100
AcDbLine
 10
225.2981453413598
 20
161.76601005137
 30
0.0
 11
222.0981453413597
 21
161.76601005137
 31
0.0
  0
LINE
  5
8100
330
18
100
AcDbEntity
  8
0
100
AcDbLine
 10
222.0981453413597
 20
161.76601005137
 30
0.0
 11
222.0981453413597
 21
160.4660100513699
 31
0.0
  0
LINE
  5
8101
330
18
100
AcDbEntity
  8
0
100
AcDbLine
 10
222.0981453413597
 20
160.4660100513699
 30
0.0
 11
225.2981453413598
 21
160.4660100513699
 31
0.0
  0
LINE
  5
8102
330
18
100
AcDbEntity
  8
0
100
AcDbLine
 10
225.2981453413598
 20
159.2260100513699
 30
0.0
 11
222.0981453413597
 21
159.2260100513699
 31
0.0
  0
LINE
  5
8103
330
18
100
AcDbEntity
  8
0
100
AcDbLine
 10
222.0981453413597
 20
159.2260100513699
 30
0.0
 11
222.0981453413597
 21
157.9260100513699
 31
0.0
  0
LINE
  5
8104
330
18
100
AcDbEntity
  8
0
100
AcDbLine
 10
222.0981453413597
 20
157.9260100513699
 30
0.0
 11
225.2981453413598
 21
157.9260100513699
 31
0.0
  0
LINE
  5
8105
330
18
100
AcDbEntity
  8
0
100
AcDbLine
 10
225.2981453413598
 20
156.6860100513699
 30
0.0
 11
222.0981453413597
 21
156.6860100513699
 31
0.0
  0
LINE
  5
8106
330
18
100
AcDbEntity
  8
0
100
AcDbLine
 10
222.0981453413597
 20
156.6860100513699
 30
0.0
 11
222.0981453413597
 21
155.3860100513699
 31
0.0
  0
LINE
  5
8107
330
18
100
AcDbEntity
  8
0
100
AcDbLine
 10
222.0981453413597
 20
155.3860100513699
 30
0.0
 11
225.2981453413598
 21
155.3860100513699
 31
0.0
  0
LINE
  5
8108
330
18
100
AcDbEntity
  8
0
100
AcDbLine
 10
224.2981453413598
 20
161.76601005137
 30
0.0
 11
224.2981453413598
 21
160.4660100513699
 31
0.0
  0
LINE
  5
8109
330
18
100
AcDbEntity
  8
0
100
AcDbLine
 10
224.2981453413598
 20
159.2260100513699
 30
0.0
 11
224.2981453413598
 21
157.9260100513699
 31
0.0
  0
LINE
  5
810A
330
18
100
AcDbEntity
  8
0
100
AcDbLine
 10
224.2981453413598
 20
156.6860100513699
 30
0.0
 11
224.2981453413598
 21
155.3860100513699
 31
0.0
  0
LINE
  5
810B
330
18
100
AcDbEntity
  8
0
100
AcDbLine
 10
223.7981453413598
 20
161.76601005137
 30
0.0
 11
223.7981453413598
 21
160.4660100513699
 31
0.0
  0
LINE
  5
810C
330
18
100
AcDbEntity
  8
0
100
AcDbLine
 10
223.7981453413598
 20
159.2260100513699
 30
0.0
 11
223.7981453413598
 21
157.9260100513699
 31
0.0
  0
LINE
  5
810D
330
18
100
AcDbEntity
  8
0
100
AcDbLine
 10
223.7981453413598
 20
156.6860100513699
 30
0.0
 11
223.7981453413598
 21
155.3860100513699
 31
0.0
  0
LINE
  5
810E
330
18
100
AcDbEntity
  8
0
100
AcDbLine
 10
222.2481453413598
 20
156.53601005137
 30
0.0
 11
223.2481453413598
 21
156.53601005137
 31
0.0
  0
LINE
  5
810F
330
18
100
AcDbEntity
  8
0
100
AcDbLine
 10
223.2481453413598
 20
156.53601005137
 30
0.0
 11
223.2481453413598
 21
155.53601005137
 31
0.0
  0
LINE
  5
8110
330
18
100
AcDbEntity
  8
0
100
AcDbLine
 10
223.2481453413598
 20
155.53601005137
 30
0.0
 11
222.2481453413598
 21
155.53601005137
 31
0.0
  0
LINE
  5
8111
330
18
100
AcDbEntity
  8
0
100
AcDbLine
 10
222.2481453413598
 20
155.53601005137
 30
0.0
 11
222.2481453413598
 21
156.53601005137
 31
0.0
  0
LINE
  5
8112
330
18
100
AcDbEntity
  8
0
100
AcDbLine
 10
222.2481453413598
 20
159.0760100513699
 30
0.0
 11
223.2481453413598
 21
159.0760100513699
 31
0.0
  0
LINE
  5
8113
330
18
100
AcDbEntity
  8
0
100
AcDbLine
 10
223.2481453413598
 20
159.0760100513699
 30
0.0
 11
223.2481453413598
 21
158.0760100513699
 31
0.0
  0
LINE
  5
8114
330
18
100
AcDbEntity
  8
0
100
AcDbLine
 10
223.2481453413598
 20
158.0760100513699
 30
0.0
 11
222.2481453413598
 21
158.0760100513699
 31
0.0
  0
LINE
  5
8115
330
18
100
AcDbEntity
  8
0
100
AcDbLine
 10
222.2481453413598
 20
158.0760100513699
 30
0.0
 11
222.2481453413598
 21
159.0760100513699
 31
0.0
  0
LINE
  5
8116
330
18
100
AcDbEntity
  8
0
100
AcDbLine
 10
222.2481453413598
 20
161.6160100513699
 30
0.0
 11
223.2481453413598
 21
161.6160100513699
 31
0.0
  0
LINE
  5
8117
330
18
100
AcDbEntity
  8
0
100
AcDbLine
 10
223.2481453413598
 20
161.6160100513699
 30
0.0
 11
223.2481453413598
 21
160.6160100513699
 31
0.0
  0
LINE
  5
8118
330
18
100
AcDbEntity
  8
0
100
AcDbLine
 10
223.2481453413598
 20
160.6160100513699
 30
0.0
 11
222.2481453413598
 21
160.6160100513699
 31
0.0
  0
LINE
  5
8119
330
18
100
AcDbEntity
  8
0
100
AcDbLine
 10
222.2481453413598
 20
160.6160100513699
 30
0.0
 11
222.2481453413598
 21
161.6160100513699
 31
0.0
  0
LINE
  5
811A
330
18
100
AcDbEntity
  8
0
100
AcDbLine
 10
218.8981453413597
 20
163.4260100513699
 30
0.0
 11
225.2981453413598
 21
163.4260100513699
 31
0.0
  0
SOLID
  5
811B
330
18
100
AcDbEntity
  8
0
100
AcDbTrace
 10
222.6377303968864
 20
162.5473230876413
 30
0.0
 11
222.1377303968864
 21
162.6306564209746
 31
0.0
 12
222.6377303968864
 22
162.713989754308
 32
0.0
 13
222.6377303968864
 23
162.713989754308
 33
0.0
1001
ACAD
1000
DSTYLE
1002
{
1070
    41
1040
1.0
1070
    40
1040
0.5
1002
}
  0
LINE
  5
811D
330
18
100
AcDbEntity
  8
0
100
AcDbLine
 10
233.0981453413597
 20
67.82601005136996
 30
0.0
 11
233.0981453413599
 21
227.8260100513699
 31
0.0
  0
TEXT
  5
8180
330
18
100
AcDbEntity
  8
0
100
AcDbText
 10
214.5851472878387
 20
215.2249724402229
 30
0.0
 40
3.5
  1
D-NET
  7
MSｺﾞｼｯｸ
100
AcDbText
  0
TEXT
  5
8181
330
18
100
AcDbEntity
  8
0
100
AcDbText
 10
216.1543426279816
 20
204.9715580580283
 30
0.0
 40
2.5
  1
NS LED
  7
MSｺﾞｼｯｸ
100
AcDbText
  0
TEXT
  5
8182
330
18
100
AcDbEntity
  8
0
100
AcDbText
 10
216.2194622190829
 20
200.7429372268974
 30
0.0
 40
2.5
  1
MS LED
  7
MSｺﾞｼｯｸ
100
AcDbText
  0
TEXT
  5
8183
330
18
100
AcDbEntity
  8
0
100
AcDbText
 10
214.9106009252423
 20
195.6396806197308
 30
0.0
 40
2.5
  1
NODE No.
  7
MSｺﾞｼｯｸ
100
AcDbText
  0
TEXT
  5
8184
330
18
100
AcDbEntity
  8
0
100
AcDbText
 10
216.9093318897093
 20
191.4730139530642
 30
0.0
 40
2.5
  1
SW1-6
  7
MSｺﾞｼｯｸ
100
AcDbText
  0
TEXT
  5
8185
330
18
100
AcDbEntity
  8
0
100
AcDbText
 10
217.0974938236531
 20
185.7195293697539
 30
0.0
 40
2.5
  1
RATE
  7
MSｺﾞｼｯｸ
100
AcDbText
  0
TEXT
  5
8186
330
18
100
AcDbEntity
  8
0
100
AcDbText
 10
216.3106917931963
 20
181.5528627030873
 30
0.0
 40
2.5
  1
SW7.8
  7
MSｺﾞｼｯｸ
100
AcDbText
  0
TEXT
  5
8187
330
18
100
AcDbEntity
  8
0
100
AcDbText
 10
218.5614560507551
 20
176.0740601208594
 30
0.0
 40
2.5
  1
TB8
  7
MSｺﾞｼｯｸ
100
AcDbText
  0
LINE
  5
8197
330
18
100
AcDbEntity
  8
0
100
AcDbLine
 10
342.3827400244819
 20
67.82601005136996
 30
0.0
 11
344.3827400244819
 21
67.82601005136996
 31
0.0
  0
LINE
  5
819A
330
18
100
AcDbEntity
  8
0
100
AcDbLine
 10
338.3827400244819
 20
76.55934338470342
 30
0.0
 11
338.3827400244819
 21
73.0926767180369
 31
0.0
  0
LINE
  5
819B
330
18
100
AcDbEntity
  8
0
100
AcDbLine
 10
339.9827400244816
 20
71.49267671803653
 30
0.0
 11
341.0494066911486
 21
71.49267671803653
 31
0.0
  0
ARC
  5
819C
330
18
100
AcDbEntity
  8
0
100
AcDbCircle
 10
339.9827400244816
 20
73.09267671803657
 30
0.0
 40
1.599999999999999
100
AcDbArc
 50
180.0
 51
270.0
  0
LINE
  5
819D
330
18
100
AcDbEntity
  8
0
100
AcDbLine
 10
341.0494066911486
 20
78.15934338470317
 30
0.0
 11
339.9827400244816
 21
78.15934338470317
 31
0.0
  0
ARC
  5
819E
330
18
100
AcDbEntity
  8
0
100
AcDbCircle
 10
339.9827400244816
 20
76.55934338470316
 30
0.0
 40
1.599999999999999
100
AcDbArc
 50
90.0
 51
180.0
  0
TEXT
  5
82FB
330
18
100
AcDbEntity
  8
0
100
AcDbText
 10
160.7365980908139
 20
120.6283528696324
 30
0.0
 40
2.799999999999999
  1
DBC
  7
MSｺﾞｼｯｸ
100
AcDbText
  0
LINE
  5
82FC
330
18
100
AcDbEntity
  8
0
100
AcDbLine
 10
217.8981453413597
 20
131.9260100513697
 30
0.0
 11
217.8981453413597
 21
106.5260100513699
 31
0.0
  0
LINE
  5
82FD
330
18
100
AcDbEntity
  8
0
100
AcDbLine
 10
217.8981453413597
 20
101.4460100513699
 30
0.0
 11
217.8981453413597
 21
137.0060100513699
 31
0.0
  0
LINE
  5
82FE
330
18
100
AcDbEntity
  8
0
100
AcDbLine
 10
232.3981453413597
 20
131.9260100513698
 30
0.0
 11
232.3981453413596
 21
106.52601005137
 31
0.0
  0
LINE
  5
82FF
330
18
100
AcDbEntity
  8
0
100
AcDbLine
 10
227.3981453413597
 20
131.9260100513697
 30
0.0
 11
227.3981453413597
 21
106.52601005137
 31
0.0
  0
LINE
  5
8300
330
18
100
AcDbEntity
  8
0
100
AcDbLine
 10
232.8981453413597
 20
131.9260100513698
 30
0.0
 11
232.8981453413596
 21
106.52601005137
 31
0.0
  0
LINE
  5
8301
330
18
100
AcDbEntity
  8
0
100
AcDbLine
 10
217.8981453413597
 20
106.5260100513699
 30
0.0
 11
232.8981453413596
 21
106.52601005137
 31
0.0
  0
LINE
  5
8302
330
18
100
AcDbEntity
  8
0
100
AcDbLine
 10
225.8981453413597
 20
101.4460100513699
 30
0.0
 11
217.8981453413597
 21
101.4460100513699
 31
0.0
  0
LINE
  5
8303
330
18
100
AcDbEntity
  8
0
100
AcDbLine
 10
217.8981453413597
 20
106.5260100513699
 30
0.0
 11
225.8981453413597
 21
106.5260100513699
 31
0.0
  0
LINE
  5
8304
330
18
100
AcDbEntity
  8
0
100
AcDbLine
 10
219.8981453413597
 20
107.0260100513695
 30
0.0
 11
226.8981453413597
 21
107.0260100513696
 31
0.0
  0
LINE
  5
8305
330
18
100
AcDbEntity
  8
0
100
AcDbLine
 10
219.8981453413597
 20
111.1060100513696
 30
0.0
 11
226.8981453413597
 21
111.1060100513696
 31
0.0
  0
LINE
  5
8306
330
18
100
AcDbEntity
  8
0
100
AcDbLine
 10
219.8981453413597
 20
107.0260100513695
 30
0.0
 11
226.8981453413597
 21
107.0260100513696
 31
0.0
  0
LINE
  5
8307
330
18
100
AcDbEntity
  8
0
100
AcDbLine
 10
219.8981453413597
 20
111.1060100513696
 30
0.0
 11
226.8981453413597
 21
111.1060100513696
 31
0.0
  0
LINE
  5
8308
330
18
100
AcDbEntity
  8
0
100
AcDbLine
 10
224.2981453413595
 20
107.7660100513694
 30
0.0
 11
226.8981453413597
 21
107.0260100513696
 31
0.0
  0
LINE
  5
8309
330
18
100
AcDbEntity
  8
0
100
AcDbLine
 10
224.2981453413595
 20
110.3660100513694
 30
0.0
 11
226.8981453413597
 21
111.1060100513696
 31
0.0
  0
LINE
  5
830A
330
18
100
AcDbEntity
  8
0
100
AcDbLine
 10
224.2981453413595
 20
110.3660100513694
 30
0.0
 11
226.8981453413597
 21
111.1060100513696
 31
0.0
  0
LINE
  5
830B
330
18
100
AcDbEntity
  8
0
100
AcDbLine
 10
224.2981453413595
 20
107.7660100513694
 30
0.0
 11
226.8981453413597
 21
107.0260100513696
 31
0.0
  0
CIRCLE
  5
830C
330
18
100
AcDbEntity
  8
0
100
AcDbCircle
 10
221.8981453413597
 20
103.98601005137
 30
0.0
 40
2.0
  0
LINE
  5
830D
330
18
100
AcDbEntity
  8
0
100
AcDbLine
 10
220.3981453413597
 20
107.7660100513695
 30
0.0
 11
219.8981453413597
 21
107.0260100513695
 31
0.0
  0
LINE
  5
830E
330
18
100
AcDbEntity
  8
0
100
AcDbLine
 10
219.8981453413597
 20
111.1060100513695
 30
0.0
 11
220.3981453413596
 21
110.3660100513692
 31
0.0
  0
LINE
  5
830F
330
18
100
AcDbEntity
  8
0
100
AcDbLine
 10
219.8981453413597
 20
111.1060100513695
 30
0.0
 11
220.3981453413596
 21
110.3660100513692
 31
0.0
  0
LINE
  5
8310
330
18
100
AcDbEntity
  8
0
100
AcDbLine
 10
220.3981453413597
 20
107.7660100513695
 30
0.0
 11
219.8981453413597
 21
107.0260100513695
 31
0.0
  0
LINE
  5
8311
330
18
100
AcDbEntity
  8
0
100
AcDbLine
 10
219.3981453413597
 20
101.4460100513699
 30
0.0
 11
219.3981453413597
 21
106.5260100513699
 31
0.0
  0
LINE
  5
8312
330
18
100
AcDbEntity
  8
0
100
AcDbLine
 10
219.8981453413597
 20
111.1060100513696
 30
0.0
 11
219.8981453413597
 21
107.0260100513695
 31
0.0
  0
LINE
  5
8313
330
18
100
AcDbEntity
  8
0
100
AcDbLine
 10
219.8981453413597
 20
111.1060100513696
 30
0.0
 11
219.8981453413597
 21
107.0260100513695
 31
0.0
  0
ARC
  5
8314
330
18
100
AcDbEntity
  8
0
100
AcDbCircle
 10
223.3097453413598
 20
103.98601005137
 30
0.0
 40
4.411600000000065
100
AcDbArc
 50
152.4568005658357
 51
207.5431994341642
  0
LINE
  5
8315
330
18
100
AcDbEntity
  8
0
100
AcDbLine
 10
223.096969214455
 20
102.3851286312464
 30
0.0
 11
220.2784378298348
 21
105.159273694849
 31
0.0
  0
LINE
  5
8316
330
18
100
AcDbEntity
  8
0
100
AcDbLine
 10
223.5178528528846
 20
102.8127464078909
 30
0.0
 11
220.6993214682643
 21
105.5868914714935
 31
0.0
  0
LINE
  5
8317
330
18
100
AcDbEntity
  8
0
100
AcDbLine
 10
224.3981453413597
 20
106.5260100513699
 30
0.0
 11
224.3981453413597
 21
101.4460100513699
 31
0.0
  0
LINE
  5
8318
330
18
100
AcDbEntity
  8
0
100
AcDbLine
 10
224.2981453413595
 20
110.3660100513694
 30
0.0
 11
224.2981453413595
 21
107.7660100513695
 31
0.0
  0
LINE
  5
8319
330
18
100
AcDbEntity
  8
0
100
AcDbLine
 10
220.3981453413596
 20
110.3660100513692
 30
0.0
 11
220.3981453413597
 21
107.7660100513695
 31
0.0
  0
LINE
  5
831A
330
18
100
AcDbEntity
  8
0
100
AcDbLine
 10
220.3981453413597
 20
107.7660100513695
 30
0.0
 11
224.2981453413595
 21
107.7660100513694
 31
0.0
  0
LINE
  5
831B
330
18
100
AcDbEntity
  8
0
100
AcDbLine
 10
220.3981453413596
 20
110.3660100513692
 30
0.0
 11
224.2981453413595
 21
110.3660100513695
 31
0.0
  0
LINE
  5
831C
330
18
100
AcDbEntity
  8
0
100
AcDbLine
 10
224.2981453413595
 20
110.3660100513694
 30
0.0
 11
224.2981453413595
 21
107.7660100513695
 31
0.0
  0
LINE
  5
831D
330
18
100
AcDbEntity
  8
0
100
AcDbLine
 10
220.3981453413596
 20
110.3660100513692
 30
0.0
 11
220.3981453413597
 21
107.7660100513695
 31
0.0
  0
LINE
  5
831E
330
18
100
AcDbEntity
  8
0
100
AcDbLine
 10
220.3981453413596
 20
110.3660100513692
 30
0.0
 11
224.2981453413595
 21
110.3660100513695
 31
0.0
  0
LINE
  5
831F
330
18
100
AcDbEntity
  8
0
100
AcDbLine
 10
220.3981453413597
 20
107.7660100513695
 30
0.0
 11
224.2981453413595
 21
107.7660100513694
 31
0.0
  0
ARC
  5
8320
330
18
100
AcDbEntity
  8
0
100
AcDbCircle
 10
220.4865453413596
 20
103.98601005137
 30
0.0
 40
4.411600000000065
100
AcDbArc
 50
332.4568005658357
 51
27.54319943416428
  0
LINE
  5
8321
330
18
100
AcDbEntity
  8
0
100
AcDbLine
 10
225.8981453413597
 20
101.4460100513699
 30
0.0
 11
225.8981453413597
 21
106.52601005137
 31
0.0
  0
LINE
  5
8322
330
18
100
AcDbEntity
  8
0
100
AcDbLine
 10
226.8981453413597
 20
111.1060100513696
 30
0.0
 11
226.8981453413597
 21
107.0260100513696
 31
0.0
  0
LINE
  5
8323
330
18
100
AcDbEntity
  8
0
100
AcDbLine
 10
226.8981453413597
 20
111.1060100513696
 30
0.0
 11
226.8981453413597
 21
107.0260100513696
 31
0.0
  0
LINE
  5
8324
330
18
100
AcDbEntity
  8
0
100
AcDbLine
 10
219.8981453413597
 20
121.2660100513697
 30
0.0
 11
226.8981453413597
 21
121.2660100513697
 31
0.0
  0
LINE
  5
8325
330
18
100
AcDbEntity
  8
0
100
AcDbLine
 10
219.8981453413597
 20
116.1860100513697
 30
0.0
 11
226.8981453413597
 21
116.1860100513697
 31
0.0
  0
LINE
  5
8326
330
18
100
AcDbEntity
  8
0
100
AcDbLine
 10
219.8981453413597
 20
117.1860100513695
 30
0.0
 11
226.8981453413597
 21
117.1860100513697
 31
0.0
  0
LINE
  5
8327
330
18
100
AcDbEntity
  8
0
100
AcDbLine
 10
219.8981453413597
 20
112.1060100513695
 30
0.0
 11
226.8981453413597
 21
112.1060100513696
 31
0.0
  0
LINE
  5
8328
330
18
100
AcDbEntity
  8
0
100
AcDbLine
 10
219.8981453413597
 20
121.2660100513697
 30
0.0
 11
226.8981453413597
 21
121.2660100513697
 31
0.0
  0
LINE
  5
8329
330
18
100
AcDbEntity
  8
0
100
AcDbLine
 10
219.8981453413597
 20
116.1860100513697
 30
0.0
 11
226.8981453413597
 21
116.1860100513697
 31
0.0
  0
LINE
  5
832A
330
18
100
AcDbEntity
  8
0
100
AcDbLine
 10
219.8981453413597
 20
117.1860100513695
 30
0.0
 11
226.8981453413597
 21
117.1860100513697
 31
0.0
  0
LINE
  5
832B
330
18
100
AcDbEntity
  8
0
100
AcDbLine
 10
219.8981453413597
 20
112.1060100513695
 30
0.0
 11
226.8981453413597
 21
112.1060100513696
 31
0.0
  0
LINE
  5
832C
330
18
100
AcDbEntity
  8
0
100
AcDbLine
 10
224.2981453413595
 20
120.5260100513695
 30
0.0
 11
226.8981453413597
 21
121.2660100513697
 31
0.0
  0
LINE
  5
832D
330
18
100
AcDbEntity
  8
0
100
AcDbLine
 10
224.2981453413595
 20
115.4460100513694
 30
0.0
 11
226.8981453413597
 21
116.1860100513697
 31
0.0
  0
LINE
  5
832E
330
18
100
AcDbEntity
  8
0
100
AcDbLine
 10
224.2981453413595
 20
117.9260100513694
 30
0.0
 11
226.8981453413597
 21
117.1860100513697
 31
0.0
  0
LINE
  5
832F
330
18
100
AcDbEntity
  8
0
100
AcDbLine
 10
224.2981453413595
 20
112.8460100513694
 30
0.0
 11
226.8981453413597
 21
112.1060100513696
 31
0.0
  0
LINE
  5
8330
330
18
100
AcDbEntity
  8
0
100
AcDbLine
 10
224.2981453413595
 20
120.5260100513695
 30
0.0
 11
226.8981453413597
 21
121.2660100513697
 31
0.0
  0
LINE
  5
8331
330
18
100
AcDbEntity
  8
0
100
AcDbLine
 10
224.2981453413595
 20
115.4460100513694
 30
0.0
 11
226.8981453413597
 21
116.1860100513697
 31
0.0
  0
LINE
  5
8332
330
18
100
AcDbEntity
  8
0
100
AcDbLine
 10
224.2981453413595
 20
117.9260100513694
 30
0.0
 11
226.8981453413597
 21
117.1860100513697
 31
0.0
  0
LINE
  5
8333
330
18
100
AcDbEntity
  8
0
100
AcDbLine
 10
224.2981453413595
 20
112.8460100513694
 30
0.0
 11
226.8981453413597
 21
112.1060100513696
 31
0.0
  0
LINE
  5
8334
330
18
100
AcDbEntity
  8
0
100
AcDbLine
 10
219.8981453413597
 20
116.1860100513695
 30
0.0
 11
220.3981453413596
 21
115.4460100513692
 31
0.0
  0
LINE
  5
8335
330
18
100
AcDbEntity
  8
0
100
AcDbLine
 10
220.3981453413597
 20
117.9260100513696
 30
0.0
 11
219.8981453413597
 21
117.1860100513695
 31
0.0
  0
LINE
  5
8336
330
18
100
AcDbEntity
  8
0
100
AcDbLine
 10
219.8981453413597
 20
121.2660100513696
 30
0.0
 11
220.3981453413596
 21
120.5260100513692
 31
0.0
  0
LINE
  5
8337
330
18
100
AcDbEntity
  8
0
100
AcDbLine
 10
220.3981453413597
 20
112.8460100513695
 30
0.0
 11
219.8981453413597
 21
112.1060100513695
 31
0.0
  0
LINE
  5
8338
330
18
100
AcDbEntity
  8
0
100
AcDbLine
 10
219.8981453413597
 20
121.2660100513696
 30
0.0
 11
220.3981453413596
 21
120.5260100513692
 31
0.0
  0
LINE
  5
8339
330
18
100
AcDbEntity
  8
0
100
AcDbLine
 10
219.8981453413597
 20
116.1860100513695
 30
0.0
 11
220.3981453413596
 21
115.4460100513692
 31
0.0
  0
LINE
  5
833A
330
18
100
AcDbEntity
  8
0
100
AcDbLine
 10
220.3981453413597
 20
112.8460100513695
 30
0.0
 11
219.8981453413597
 21
112.1060100513695
 31
0.0
  0
LINE
  5
833B
330
18
100
AcDbEntity
  8
0
100
AcDbLine
 10
220.3981453413597
 20
117.9260100513696
 30
0.0
 11
219.8981453413597
 21
117.1860100513695
 31
0.0
  0
LINE
  5
833C
330
18
100
AcDbEntity
  8
0
100
AcDbLine
 10
219.8981453413597
 20
121.2660100513697
 30
0.0
 11
219.8981453413597
 21
117.1860100513695
 31
0.0
  0
LINE
  5
833D
330
18
100
AcDbEntity
  8
0
100
AcDbLine
 10
219.8981453413597
 20
116.1860100513697
 30
0.0
 11
219.8981453413597
 21
112.1060100513695
 31
0.0
  0
LINE
  5
833E
330
18
100
AcDbEntity
  8
0
100
AcDbLine
 10
219.8981453413597
 20
116.1860100513697
 30
0.0
 11
219.8981453413597
 21
112.1060100513695
 31
0.0
  0
LINE
  5
833F
330
18
100
AcDbEntity
  8
0
100
AcDbLine
 10
219.8981453413597
 20
121.2660100513697
 30
0.0
 11
219.8981453413597
 21
117.1860100513695
 31
0.0
  0
LINE
  5
8340
330
18
100
AcDbEntity
  8
0
100
AcDbLine
 10
224.2981453413595
 20
120.5260100513695
 30
0.0
 11
224.2981453413595
 21
117.9260100513696
 31
0.0
  0
LINE
  5
8341
330
18
100
AcDbEntity
  8
0
100
AcDbLine
 10
224.2981453413595
 20
115.4460100513694
 30
0.0
 11
224.2981453413595
 21
112.8460100513695
 31
0.0
  0
LINE
  5
8342
330
18
100
AcDbEntity
  8
0
100
AcDbLine
 10
220.3981453413596
 20
120.5260100513692
 30
0.0
 11
220.3981453413597
 21
117.9260100513696
 31
0.0
  0
LINE
  5
8343
330
18
100
AcDbEntity
  8
0
100
AcDbLine
 10
220.3981453413596
 20
115.4460100513692
 30
0.0
 11
220.3981453413597
 21
112.8460100513695
 31
0.0
  0
LINE
  5
8344
330
18
100
AcDbEntity
  8
0
100
AcDbLine
 10
220.3981453413596
 20
115.4460100513692
 30
0.0
 11
224.2981453413595
 21
115.4460100513695
 31
0.0
  0
LINE
  5
8345
330
18
100
AcDbEntity
  8
0
100
AcDbLine
 10
220.3981453413597
 20
117.9260100513696
 30
0.0
 11
224.2981453413595
 21
117.9260100513694
 31
0.0
  0
LINE
  5
8346
330
18
100
AcDbEntity
  8
0
100
AcDbLine
 10
220.3981453413597
 20
112.8460100513695
 30
0.0
 11
224.2981453413595
 21
112.8460100513694
 31
0.0
  0
LINE
  5
8347
330
18
100
AcDbEntity
  8
0
100
AcDbLine
 10
220.3981453413596
 20
120.5260100513692
 30
0.0
 11
224.2981453413595
 21
120.5260100513696
 31
0.0
  0
LINE
  5
8348
330
18
100
AcDbEntity
  8
0
100
AcDbLine
 10
224.2981453413595
 20
115.4460100513694
 30
0.0
 11
224.2981453413595
 21
112.8460100513695
 31
0.0
  0
LINE
  5
8349
330
18
100
AcDbEntity
  8
0
100
AcDbLine
 10
224.2981453413595
 20
120.5260100513695
 30
0.0
 11
224.2981453413595
 21
117.9260100513696
 31
0.0
  0
LINE
  5
834A
330
18
100
AcDbEntity
  8
0
100
AcDbLine
 10
220.3981453413596
 20
115.4460100513692
 30
0.0
 11
220.3981453413597
 21
112.8460100513695
 31
0.0
  0
LINE
  5
834B
330
18
100
AcDbEntity
  8
0
100
AcDbLine
 10
220.3981453413596
 20
120.5260100513692
 30
0.0
 11
220.3981453413597
 21
117.9260100513696
 31
0.0
  0
LINE
  5
834C
330
18
100
AcDbEntity
  8
0
100
AcDbLine
 10
220.3981453413596
 20
115.4460100513692
 30
0.0
 11
224.2981453413595
 21
115.4460100513695
 31
0.0
  0
LINE
  5
834D
330
18
100
AcDbEntity
  8
0
100
AcDbLine
 10
220.3981453413597
 20
112.8460100513695
 30
0.0
 11
224.2981453413595
 21
112.8460100513694
 31
0.0
  0
LINE
  5
834E
330
18
100
AcDbEntity
  8
0
100
AcDbLine
 10
220.3981453413596
 20
120.5260100513692
 30
0.0
 11
224.2981453413595
 21
120.5260100513696
 31
0.0
  0
LINE
  5
834F
330
18
100
AcDbEntity
  8
0
100
AcDbLine
 10
220.3981453413597
 20
117.9260100513696
 30
0.0
 11
224.2981453413595
 21
117.9260100513694
 31
0.0
  0
LINE
  5
8350
330
18
100
AcDbEntity
  8
0
100
AcDbLine
 10
226.8981453413597
 20
121.2660100513697
 30
0.0
 11
226.8981453413597
 21
117.1860100513697
 31
0.0
  0
LINE
  5
8351
330
18
100
AcDbEntity
  8
0
100
AcDbLine
 10
226.8981453413597
 20
116.1860100513697
 30
0.0
 11
226.8981453413597
 21
112.1060100513696
 31
0.0
  0
LINE
  5
8352
330
18
100
AcDbEntity
  8
0
100
AcDbLine
 10
226.8981453413597
 20
116.1860100513697
 30
0.0
 11
226.8981453413597
 21
112.1060100513696
 31
0.0
  0
LINE
  5
8353
330
18
100
AcDbEntity
  8
0
100
AcDbLine
 10
226.8981453413597
 20
121.2660100513697
 30
0.0
 11
226.8981453413597
 21
117.1860100513697
 31
0.0
  0
LINE
  5
8354
330
18
100
AcDbEntity
  8
0
100
AcDbLine
 10
217.8981453413597
 20
131.9260100513697
 30
0.0
 11
232.8981453413597
 21
131.9260100513698
 31
0.0
  0
LINE
  5
8355
330
18
100
AcDbEntity
  8
0
100
AcDbLine
 10
217.8981453413597
 20
131.9260100513699
 30
0.0
 11
225.8981453413597
 21
131.9260100513699
 31
0.0
  0
LINE
  5
8356
330
18
100
AcDbEntity
  8
0
100
AcDbLine
 10
217.8981453413597
 20
137.0060100513699
 30
0.0
 11
225.8981453413597
 21
137.0060100513699
 31
0.0
  0
LINE
  5
8357
330
18
100
AcDbEntity
  8
0
100
AcDbLine
 10
224.3981453413597
 20
131.9260100513699
 30
0.0
 11
224.3981453413597
 21
137.0060100513699
 31
0.0
  0
LINE
  5
8358
330
18
100
AcDbEntity
  8
0
100
AcDbLine
 10
219.3981453413597
 20
131.9260100513699
 30
0.0
 11
219.3981453413597
 21
137.0060100513699
 31
0.0
  0
LINE
  5
8359
330
18
100
AcDbEntity
  8
0
100
AcDbLine
 10
225.8981453413597
 20
137.0060100513699
 30
0.0
 11
225.8981453413597
 21
131.9260100513699
 31
0.0
  0
LINE
  5
835A
330
18
100
AcDbEntity
  8
0
100
AcDbLine
 10
219.8981453413597
 20
122.2660100513696
 30
0.0
 11
226.8981453413597
 21
122.2660100513697
 31
0.0
  0
LINE
  5
835B
330
18
100
AcDbEntity
  8
0
100
AcDbLine
 10
219.8981453413597
 20
127.3460100513696
 30
0.0
 11
226.8981453413597
 21
127.3460100513697
 31
0.0
  0
LINE
  5
835C
330
18
100
AcDbEntity
  8
0
100
AcDbLine
 10
219.8981453413597
 20
131.4260100513698
 30
0.0
 11
226.8981453413597
 21
131.4260100513698
 31
0.0
  0
LINE
  5
835D
330
18
100
AcDbEntity
  8
0
100
AcDbLine
 10
219.8981453413597
 20
122.2660100513696
 30
0.0
 11
226.8981453413597
 21
122.2660100513697
 31
0.0
  0
LINE
  5
835E
330
18
100
AcDbEntity
  8
0
100
AcDbLine
 10
219.8981453413597
 20
126.3460100513697
 30
0.0
 11
226.8981453413597
 21
126.3460100513697
 31
0.0
  0
LINE
  5
835F
330
18
100
AcDbEntity
  8
0
100
AcDbLine
 10
219.8981453413597
 20
127.3460100513696
 30
0.0
 11
226.8981453413597
 21
127.3460100513697
 31
0.0
  0
LINE
  5
8360
330
18
100
AcDbEntity
  8
0
100
AcDbLine
 10
224.2981453413595
 20
130.6860100513695
 30
0.0
 11
226.8981453413597
 21
131.4260100513698
 31
0.0
  0
LINE
  5
8361
330
18
100
AcDbEntity
  8
0
100
AcDbLine
 10
224.2981453413595
 20
125.6060100513695
 30
0.0
 11
226.8981453413597
 21
126.3460100513697
 31
0.0
  0
LINE
  5
8362
330
18
100
AcDbEntity
  8
0
100
AcDbLine
 10
224.2981453413595
 20
128.0860100513695
 30
0.0
 11
226.8981453413597
 21
127.3460100513697
 31
0.0
  0
LINE
  5
8363
330
18
100
AcDbEntity
  8
0
100
AcDbLine
 10
224.2981453413595
 20
123.0060100513695
 30
0.0
 11
226.8981453413597
 21
122.2660100513697
 31
0.0
  0
LINE
  5
8364
330
18
100
AcDbEntity
  8
0
100
AcDbLine
 10
224.2981453413595
 20
130.6860100513695
 30
0.0
 11
226.8981453413597
 21
131.4260100513698
 31
0.0
  0
LINE
  5
8365
330
18
100
AcDbEntity
  8
0
100
AcDbLine
 10
224.2981453413595
 20
123.0060100513695
 30
0.0
 11
226.8981453413597
 21
122.2660100513697
 31
0.0
  0
LINE
  5
8366
330
18
100
AcDbEntity
  8
0
100
AcDbLine
 10
224.2981453413595
 20
125.6060100513695
 30
0.0
 11
226.8981453413597
 21
126.3460100513697
 31
0.0
  0
LINE
  5
8367
330
18
100
AcDbEntity
  8
0
100
AcDbLine
 10
224.2981453413595
 20
128.0860100513695
 30
0.0
 11
226.8981453413597
 21
127.3460100513697
 31
0.0
  0
LINE
  5
8368
330
18
100
AcDbEntity
  8
0
100
AcDbLine
 10
219.8981453413597
 20
131.4260100513698
 30
0.0
 11
226.8981453413597
 21
131.4260100513698
 31
0.0
  0
LINE
  5
8369
330
18
100
AcDbEntity
  8
0
100
AcDbLine
 10
219.8981453413597
 20
126.3460100513697
 30
0.0
 11
226.8981453413597
 21
126.3460100513697
 31
0.0
  0
LINE
  5
836A
330
18
100
AcDbEntity
  8
0
100
AcDbLine
 10
219.8981453413597
 20
126.3460100513696
 30
0.0
 11
220.3981453413596
 21
125.6060100513693
 31
0.0
  0
LINE
  5
836B
330
18
100
AcDbEntity
  8
0
100
AcDbLine
 10
220.3981453413597
 20
128.0860100513696
 30
0.0
 11
219.8981453413597
 21
127.3460100513696
 31
0.0
  0
LINE
  5
836C
330
18
100
AcDbEntity
  8
0
100
AcDbLine
 10
219.8981453413597
 20
131.4260100513697
 30
0.0
 11
220.3981453413596
 21
130.6860100513693
 31
0.0
  0
LINE
  5
836D
330
18
100
AcDbEntity
  8
0
100
AcDbLine
 10
220.3981453413597
 20
123.0060100513696
 30
0.0
 11
219.8981453413597
 21
122.2660100513696
 31
0.0
  0
LINE
  5
836E
330
18
100
AcDbEntity
  8
0
100
AcDbLine
 10
219.8981453413597
 20
131.4260100513697
 30
0.0
 11
220.3981453413596
 21
130.6860100513693
 31
0.0
  0
LINE
  5
836F
330
18
100
AcDbEntity
  8
0
100
AcDbLine
 10
220.3981453413597
 20
123.0060100513696
 30
0.0
 11
219.8981453413597
 21
122.2660100513696
 31
0.0
  0
LINE
  5
8370
330
18
100
AcDbEntity
  8
0
100
AcDbLine
 10
219.8981453413597
 20
126.3460100513696
 30
0.0
 11
220.3981453413596
 21
125.6060100513693
 31
0.0
  0
LINE
  5
8371
330
18
100
AcDbEntity
  8
0
100
AcDbLine
 10
220.3981453413597
 20
128.0860100513696
 30
0.0
 11
219.8981453413597
 21
127.3460100513696
 31
0.0
  0
LINE
  5
8372
330
18
100
AcDbEntity
  8
0
100
AcDbLine
 10
219.8981453413597
 20
131.4260100513698
 30
0.0
 11
219.8981453413597
 21
127.3460100513696
 31
0.0
  0
LINE
  5
8373
330
18
100
AcDbEntity
  8
0
100
AcDbLine
 10
219.8981453413597
 20
126.3460100513697
 30
0.0
 11
219.8981453413597
 21
122.2660100513696
 31
0.0
  0
LINE
  5
8374
330
18
100
AcDbEntity
  8
0
100
AcDbLine
 10
219.8981453413597
 20
126.3460100513697
 30
0.0
 11
219.8981453413597
 21
122.2660100513696
 31
0.0
  0
LINE
  5
8375
330
18
100
AcDbEntity
  8
0
100
AcDbLine
 10
219.8981453413597
 20
131.4260100513698
 30
0.0
 11
219.8981453413597
 21
127.3460100513696
 31
0.0
  0
LINE
  5
8376
330
18
100
AcDbEntity
  8
0
100
AcDbLine
 10
224.2981453413595
 20
130.6860100513695
 30
0.0
 11
224.2981453413595
 21
128.0860100513696
 31
0.0
  0
LINE
  5
8377
330
18
100
AcDbEntity
  8
0
100
AcDbLine
 10
224.2981453413595
 20
125.6060100513695
 30
0.0
 11
224.2981453413595
 21
123.0060100513696
 31
0.0
  0
LINE
  5
8378
330
18
100
AcDbEntity
  8
0
100
AcDbLine
 10
220.3981453413596
 20
130.6860100513693
 30
0.0
 11
220.3981453413597
 21
128.0860100513696
 31
0.0
  0
LINE
  5
8379
330
18
100
AcDbEntity
  8
0
100
AcDbLine
 10
220.3981453413596
 20
125.6060100513693
 30
0.0
 11
220.3981453413597
 21
123.0060100513696
 31
0.0
  0
LINE
  5
837A
330
18
100
AcDbEntity
  8
0
100
AcDbLine
 10
220.3981453413596
 20
130.6860100513693
 30
0.0
 11
224.2981453413595
 21
130.6860100513697
 31
0.0
  0
LINE
  5
837B
330
18
100
AcDbEntity
  8
0
100
AcDbLine
 10
220.3981453413597
 20
128.0860100513696
 30
0.0
 11
224.2981453413595
 21
128.0860100513695
 31
0.0
  0
LINE
  5
837C
330
18
100
AcDbEntity
  8
0
100
AcDbLine
 10
220.3981453413597
 20
123.0060100513696
 30
0.0
 11
224.2981453413595
 21
123.0060100513695
 31
0.0
  0
LINE
  5
837D
330
18
100
AcDbEntity
  8
0
100
AcDbLine
 10
220.3981453413596
 20
125.6060100513693
 30
0.0
 11
224.2981453413595
 21
125.6060100513696
 31
0.0
  0
LINE
  5
837E
330
18
100
AcDbEntity
  8
0
100
AcDbLine
 10
220.3981453413596
 20
130.6860100513693
 30
0.0
 11
224.2981453413595
 21
130.6860100513697
 31
0.0
  0
LINE
  5
837F
330
18
100
AcDbEntity
  8
0
100
AcDbLine
 10
224.2981453413595
 20
125.6060100513695
 30
0.0
 11
224.2981453413595
 21
123.0060100513696
 31
0.0
  0
LINE
  5
8380
330
18
100
AcDbEntity
  8
0
100
AcDbLine
 10
220.3981453413596
 20
125.6060100513693
 30
0.0
 11
220.3981453413597
 21
123.0060100513696
 31
0.0
  0
LINE
  5
8381
330
18
100
AcDbEntity
  8
0
100
AcDbLine
 10
220.3981453413597
 20
123.0060100513696
 30
0.0
 11
224.2981453413595
 21
123.0060100513695
 31
0.0
  0
LINE
  5
8382
330
18
100
AcDbEntity
  8
0
100
AcDbLine
 10
220.3981453413596
 20
125.6060100513693
 30
0.0
 11
224.2981453413595
 21
125.6060100513696
 31
0.0
  0
LINE
  5
8383
330
18
100
AcDbEntity
  8
0
100
AcDbLine
 10
220.3981453413597
 20
128.0860100513696
 30
0.0
 11
224.2981453413595
 21
128.0860100513695
 31
0.0
  0
LINE
  5
8384
330
18
100
AcDbEntity
  8
0
100
AcDbLine
 10
220.3981453413596
 20
130.6860100513693
 30
0.0
 11
220.3981453413597
 21
128.0860100513696
 31
0.0
  0
LINE
  5
8385
330
18
100
AcDbEntity
  8
0
100
AcDbLine
 10
224.2981453413595
 20
130.6860100513695
 30
0.0
 11
224.2981453413595
 21
128.0860100513696
 31
0.0
  0
LINE
  5
8386
330
18
100
AcDbEntity
  8
0
100
AcDbLine
 10
226.8981453413597
 20
131.4260100513698
 30
0.0
 11
226.8981453413597
 21
127.3460100513697
 31
0.0
  0
LINE
  5
8387
330
18
100
AcDbEntity
  8
0
100
AcDbLine
 10
226.8981453413597
 20
126.3460100513697
 30
0.0
 11
226.8981453413597
 21
122.2660100513697
 31
0.0
  0
LINE
  5
8388
330
18
100
AcDbEntity
  8
0
100
AcDbLine
 10
226.8981453413597
 20
126.3460100513697
 30
0.0
 11
226.8981453413597
 21
122.2660100513697
 31
0.0
  0
LINE
  5
8389
330
18
100
AcDbEntity
  8
0
100
AcDbLine
 10
226.8981453413597
 20
131.4260100513698
 30
0.0
 11
226.8981453413597
 21
127.3460100513697
 31
0.0
  0
CIRCLE
  5
838A
330
18
100
AcDbEntity
  8
0
100
AcDbCircle
 10
221.8981453413597
 20
134.4660100513699
 30
0.0
 40
2.0
  0
ARC
  5
838B
330
18
100
AcDbEntity
  8
0
100
AcDbCircle
 10
223.3097453413598
 20
134.4660100513699
 30
0.0
 40
4.411600000000065
100
AcDbArc
 50
152.4568005658357
 51
207.5431994341642
  0
LINE
  5
838C
330
18
100
AcDbEntity
  8
0
100
AcDbLine
 10
223.5178528528846
 20
133.2927464078908
 30
0.0
 11
220.6993214682643
 21
136.0668914714935
 31
0.0
  0
LINE
  5
838D
330
18
100
AcDbEntity
  8
0
100
AcDbLine
 10
223.096969214455
 20
132.8651286312464
 30
0.0
 11
220.2784378298348
 21
135.639273694849
 31
0.0
  0
ARC
  5
838E
330
18
100
AcDbEntity
  8
0
100
AcDbCircle
 10
220.4865453413596
 20
134.4660100513699
 30
0.0
 40
4.411600000000065
100
AcDbArc
 50
332.4568005658357
 51
27.54319943416428
  0
LWPOLYLINE
  5
838F
330
18
100
AcDbEntity
  8
0
100
AcDbPolyline
 90
        4
 70
     1
 43
0.0
 10
217.8981453413597
 20
166.9260100513699
 10
219.1209949486441
 20
166.9260100513699
 10
219.1209949486441
 20
164.9260100513699
 10
217.8981453413597
 20
164.9260100513699
  0
LWPOLYLINE
  5
8390
330
18
100
AcDbEntity
  8
0
100
AcDbPolyline
 90
        4
 70
     1
 43
0.0
 10
217.8981453413597
 20
169.9260100513699
 10
219.1209949486441
 20
169.9260100513699
 10
219.1209949486441
 20
167.9260100513699
 10
217.8981453413597
 20
167.9260100513699
  0
LWPOLYLINE
  5
83A3
330
18
100
AcDbEntity
  8
0
100
AcDbPolyline
 90
        4
 70
     1
 43
0.0
 10
198.2231453413597
 20
94.37601005136992
 10
197.8731453413598
 20
94.37601005136992
 10
197.8731453413598
 20
93.40101005137
 10
198.2231453413597
 20
93.40101005137
  0
LWPOLYLINE
  5
83A4
330
18
100
AcDbEntity
  8
0
100
AcDbPolyline
 90
        4
 70
     1
 43
0.0
 10
200.9981453413598
 20
94.37601005136992
 10
200.6481453413598
 20
94.37601005136992
 10
200.6481453413598
 20
93.40101005137
 10
200.9981453413598
 20
93.40101005137
  0
LWPOLYLINE
  5
83A5
330
18
100
AcDbEntity
  8
0
100
AcDbPolyline
 90
        4
 70
     1
 43
0.0
 10
201.3731453413597
 20
112.5010100513699
 10
197.6731453413597
 20
112.5010100513699
 10
197.6731453413597
 20
88.70101005136996
 10
201.3731453413597
 20
88.70101005136996
  0
LINE
  5
83A6
330
18
100
AcDbEntity
  8
0
100
AcDbLine
 10
202.5481453413597
 20
88.25101005136991
 30
0.0
 11
202.5481453413597
 21
112.4260100513698
 31
0.0
  0
LINE
  5
83A7
330
18
100
AcDbEntity
  8
0
100
AcDbLine
 10
196.4231453413597
 20
113.35101005137
 30
0.0
 11
196.4231453413597
 21
87.32601005136997
 31
0.0
  0
LWPOLYLINE
  5
83A8
330
18
100
AcDbEntity
  8
0
100
AcDbPolyline
 90
        4
 70
     1
 43
0.2
 10
194.8731453413597
 20
121.8260100513699
 10
194.8731453413597
 20
78.52601005137
 10
204.0981453413597
 20
78.52601005137
 10
204.0981453413597
 20
121.8260100513699
  0
LWPOLYLINE
  5
83A9
330
18
100
AcDbEntity
  8
0
100
AcDbPolyline
 90
        4
 70
     1
 43
0.0
 10
198.2231453413597
 20
90.72601005137006
 10
197.8731453413598
 20
90.72601005137006
 10
197.8731453413598
 20
89.75101005136991
 10
198.2231453413597
 20
89.75101005136991
  0
LWPOLYLINE
  5
83AA
330
18
100
AcDbEntity
  8
0
100
AcDbPolyline
 90
        4
 70
     1
 43
0.0
 10
200.9981453413598
 20
90.72601005137006
 10
200.6481453413598
 20
90.72601005137006
 10
200.6481453413598
 20
89.75101005136991
 10
200.9981453413598
 20
89.75101005136991
  0
LWPOLYLINE
  5
83AB
330
18
100
AcDbEntity
  8
0
100
AcDbPolyline
 90
        4
 70
     1
 43
0.0
 10
198.2231453413597
 20
91.95101005136995
 10
197.8731453413598
 20
91.95101005136995
 10
197.8731453413598
 20
90.97601005137006
 10
198.2231453413597
 20
90.97601005137006
  0
LWPOLYLINE
  5
83AC
330
18
100
AcDbEntity
  8
0
100
AcDbPolyline
 90
        4
 70
     1
 43
0.0
 10
200.9981453413598
 20
91.95101005136995
 10
200.6481453413598
 20
91.95101005136995
 10
200.6481453413598
 20
90.97601005137006
 10
200.9981453413598
 20
90.97601005137006
  0
LWPOLYLINE
  5
83AD
330
18
100
AcDbEntity
  8
0
100
AcDbPolyline
 90
        4
 70
     1
 43
0.0
 10
198.2231453413597
 20
93.17601005136987
 10
197.8731453413598
 20
93.17601005136987
 10
197.8731453413598
 20
92.20101005136996
 10
198.2231453413597
 20
92.20101005136996
  0
LWPOLYLINE
  5
83AE
330
18
100
AcDbEntity
  8
0
100
AcDbPolyline
 90
        4
 70
     1
 43
0.0
 10
200.9981453413598
 20
93.17601005136987
 10
200.6481453413598
 20
93.17601005136987
 10
200.6481453413598
 20
92.20101005136996
 10
200.9981453413598
 20
92.20101005136996
  0
LINE
  5
83AF
330
18
100
AcDbEntity
  8
0
100
AcDbLine
 10
195.6731453413597
 20
82.80101005136998
 30
0.0
 11
195.6731453413597
 21
84.87601005136992
 31
0.0
  0
LINE
  5
83B0
330
18
100
AcDbEntity
  8
0
100
AcDbLine
 10
203.2981453413597
 20
82.80101005136998
 30
0.0
 11
203.2981453413597
 21
84.87601005136992
 31
0.0
  0
LINE
  5
83B1
330
18
100
AcDbEntity
  8
0
100
AcDbLine
 10
201.3731453413597
 20
82.77601005137
 30
0.0
 11
201.3731453413597
 21
83.75101005136992
 31
0.0
  0
LINE
  5
83B2
330
18
100
AcDbEntity
  8
0
100
AcDbLine
 10
201.3731453413597
 20
83.77601005137
 30
0.0
 11
197.7981453413597
 21
83.77601005137
 31
0.0
  0
LINE
  5
83B3
330
18
100
AcDbEntity
  8
0
100
AcDbLine
 10
197.7981453413597
 20
82.80101005136998
 30
0.0
 11
197.7981453413597
 21
83.77601005137
 31
0.0
  0
LINE
  5
83B4
330
18
100
AcDbEntity
  8
0
100
AcDbLine
 10
197.7981453413597
 20
82.80101005136998
 30
0.0
 11
195.6731453413597
 21
82.80101005136998
 31
0.0
  0
LINE
  5
83B5
330
18
100
AcDbEntity
  8
0
100
AcDbLine
 10
203.2981453413597
 20
82.80101005136998
 30
0.0
 11
201.3731453413597
 21
82.80101005136998
 31
0.0
  0
LINE
  5
83B6
330
18
100
AcDbEntity
  8
0
100
AcDbLine
 10
203.2981453413597
 20
84.87601005136992
 30
0.0
 11
195.6731453413597
 21
84.87601005136992
 31
0.0
  0
ELLIPSE
  5
83B7
330
18
100
AcDbEntity
  8
0
100
AcDbEllipse
 10
201.3231453413597
 20
88.47601005137006
 30
0.0
 11
0.0
 21
1.25
 31
0.0
210
0.0
220
0.0
230
1.0
 40
0.98
 41
3.380894
 42
4.528311
  0
ELLIPSE
  5
83B8
330
18
100
AcDbEntity
  8
0
100
AcDbEllipse
 10
197.6481453413597
 20
87.50101005136992
 30
0.0
 11
0.0
 21
1.25
 31
0.0
210
0.0
220
0.0
230
1.0
 40
0.98
 41
1.708854999999999
 42
3.380894
  0
LINE
  5
83B9
330
18
100
AcDbEntity
  8
0
100
AcDbLine
 10
197.9231453413597
 20
86.25101005136992
 30
0.0
 11
201.6231453413598
 21
87.22601005137006
 31
0.0
  0
ELLIPSE
  5
83BA
330
18
100
AcDbEntity
  8
0
100
AcDbEllipse
 10
199.4981453413597
 20
81.90101005137
 30
0.0
 11
0.0
 21
0.775
 31
0.0
210
0.0
220
0.0
230
1.0
 40
0.9677419999999999
 41
0.0
 42
6.283184999999999
  0
LINE
  5
83BB
330
18
100
AcDbEntity
  8
0
100
AcDbLine
 10
195.6731453413597
 20
118.22601005137
 30
0.0
 11
195.6731453413597
 21
116.15101005137
 31
0.0
  0
LINE
  5
83BC
330
18
100
AcDbEntity
  8
0
100
AcDbLine
 10
203.2981453413597
 20
118.22601005137
 30
0.0
 11
203.2981453413597
 21
116.15101005137
 31
0.0
  0
LWPOLYLINE
  5
83BD
330
18
100
AcDbEntity
  8
0
100
AcDbPolyline
 90
        4
 70
     1
 43
0.0
 10
198.2231453413597
 20
95.55101005136988
 10
197.8731453413598
 20
95.55101005136988
 10
197.8731453413598
 20
94.57601005136996
 10
198.2231453413597
 20
94.57601005136996
  0
LWPOLYLINE
  5
83BE
330
18
100
AcDbEntity
  8
0
100
AcDbPolyline
 90
        4
 70
     1
 43
0.0
 10
200.9981453413598
 20
95.55101005136988
 10
200.6481453413598
 20
95.55101005136988
 10
200.6481453413598
 20
94.57601005136996
 10
200.9981453413598
 20
94.57601005136996
  0
LWPOLYLINE
  5
83BF
330
18
100
AcDbEntity
  8
0
100
AcDbPolyline
 90
        4
 70
     1
 43
0.0
 10
198.2231453413597
 20
96.72601005137005
 10
197.8731453413598
 20
96.72601005137005
 10
197.8731453413598
 20
95.75101005136991
 10
198.2231453413597
 20
95.75101005136991
  0
LWPOLYLINE
  5
83C0
330
18
100
AcDbEntity
  8
0
100
AcDbPolyline
 90
        4
 70
     1
 43
0.0
 10
200.9981453413598
 20
96.72601005137005
 10
200.6481453413598
 20
96.72601005137005
 10
200.6481453413598
 20
95.75101005136991
 10
200.9981453413598
 20
95.75101005136991
  0
LWPOLYLINE
  5
83C1
330
18
100
AcDbEntity
  8
0
100
AcDbPolyline
 90
        4
 70
     1
 43
0.0
 10
198.2231453413597
 20
97.90101005137001
 10
197.8731453413598
 20
97.90101005137001
 10
197.8731453413598
 20
96.92601005136987
 10
198.2231453413597
 20
96.92601005136987
  0
LWPOLYLINE
  5
83C2
330
18
100
AcDbEntity
  8
0
100
AcDbPolyline
 90
        4
 70
     1
 43
0.0
 10
200.9981453413598
 20
97.90101005137001
 10
200.6481453413598
 20
97.90101005137001
 10
200.6481453413598
 20
96.92601005136987
 10
200.9981453413598
 20
96.92601005136987
  0
LWPOLYLINE
  5
83C3
330
18
100
AcDbEntity
  8
0
100
AcDbPolyline
 90
        4
 70
     1
 43
0.0
 10
198.2231453413597
 20
99.10101005137006
 10
197.8731453413598
 20
99.10101005137006
 10
197.8731453413598
 20
98.12601005136992
 10
198.2231453413597
 20
98.12601005136992
  0
LWPOLYLINE
  5
83C4
330
18
100
AcDbEntity
  8
0
100
AcDbPolyline
 90
        4
 70
     1
 43
0.0
 10
200.9981453413598
 20
99.10101005137006
 10
200.6481453413598
 20
99.10101005137006
 10
200.6481453413598
 20
98.12601005136992
 10
200.9981453413598
 20
98.12601005136992
  0
LWPOLYLINE
  5
83C5
330
18
100
AcDbEntity
  8
0
100
AcDbPolyline
 90
        4
 70
     1
 43
0.0
 10
198.2231453413597
 20
100.27601005137
 10
197.8731453413598
 20
100.27601005137
 10
197.8731453413598
 20
99.30101005136988
 10
198.2231453413597
 20
99.30101005136988
  0
LWPOLYLINE
  5
83C6
330
18
100
AcDbEntity
  8
0
100
AcDbPolyline
 90
        4
 70
     1
 43
0.0
 10
200.9981453413598
 20
100.27601005137
 10
200.6481453413598
 20
100.27601005137
 10
200.6481453413598
 20
99.30101005136988
 10
200.9981453413598
 20
99.30101005136988
  0
LWPOLYLINE
  5
83C7
330
18
100
AcDbEntity
  8
0
100
AcDbPolyline
 90
        4
 70
     1
 43
0.0
 10
198.2231453413597
 20
101.47601005137
 10
197.8731453413598
 20
101.47601005137
 10
197.8731453413598
 20
100.5010100513699
 10
198.2231453413597
 20
100.5010100513699
  0
LWPOLYLINE
  5
83C8
330
18
100
AcDbEntity
  8
0
100
AcDbPolyline
 90
        4
 70
     1
 43
0.0
 10
200.9981453413598
 20
101.47601005137
 10
200.6481453413598
 20
101.47601005137
 10
200.6481453413598
 20
100.5010100513699
 10
200.9981453413598
 20
100.5010100513699
  0
LWPOLYLINE
  5
83C9
330
18
100
AcDbEntity
  8
0
100
AcDbPolyline
 90
        4
 70
     1
 43
0.0
 10
198.2481453413597
 20
102.6760100513698
 10
197.8981453413597
 20
102.6760100513698
 10
197.8981453413597
 20
101.7010100513699
 10
198.2481453413597
 20
101.7010100513699
  0
LWPOLYLINE
  5
83CA
330
18
100
AcDbEntity
  8
0
100
AcDbPolyline
 90
        4
 70
     1
 43
0.0
 10
201.0231453413597
 20
102.6760100513698
 10
200.6731453413597
 20
102.6760100513698
 10
200.6731453413597
 20
101.7010100513699
 10
201.0231453413597
 20
101.7010100513699
  0
LWPOLYLINE
  5
83CB
330
18
100
AcDbEntity
  8
0
100
AcDbPolyline
 90
        4
 70
     1
 43
0.0
 10
198.2481453413597
 20
103.9260100513698
 10
197.8981453413597
 20
103.9260100513698
 10
197.8981453413597
 20
102.9510100513699
 10
198.2481453413597
 20
102.9510100513699
  0
LWPOLYLINE
  5
83CC
330
18
100
AcDbEntity
  8
0
100
AcDbPolyline
 90
        4
 70
     1
 43
0.0
 10
198.2481453413597
 20
105.10101005137
 10
197.8981453413597
 20
105.10101005137
 10
197.8981453413597
 20
104.1260100513699
 10
198.2481453413597
 20
104.1260100513699
  0
LWPOLYLINE
  5
83CD
330
18
100
AcDbEntity
  8
0
100
AcDbPolyline
 90
        4
 70
     1
 43
0.0
 10
198.2481453413597
 20
106.3760100513699
 10
197.8981453413597
 20
106.3760100513699
 10
197.8981453413597
 20
105.40101005137
 10
198.2481453413597
 20
105.40101005137
  0
LWPOLYLINE
  5
83CE
330
18
100
AcDbEntity
  8
0
100
AcDbPolyline
 90
        4
 70
     1
 43
0.0
 10
198.2481453413597
 20
107.7010100513699
 10
197.8981453413597
 20
107.7010100513699
 10
197.8981453413597
 20
106.7510100513699
 10
198.2481453413597
 20
106.7510100513699
  0
LWPOLYLINE
  5
83CF
330
18
100
AcDbEntity
  8
0
100
AcDbPolyline
 90
        4
 70
     1
 43
0.0
 10
198.2481453413597
 20
108.97601005137
 10
197.8981453413597
 20
108.97601005137
 10
197.8981453413597
 20
108.0010100513699
 10
198.2481453413597
 20
108.0010100513699
  0
LWPOLYLINE
  5
83D0
330
18
100
AcDbEntity
  8
0
100
AcDbPolyline
 90
        4
 70
     1
 43
0.0
 10
198.2481453413597
 20
110.2010100513699
 10
197.8981453413597
 20
110.2010100513699
 10
197.8981453413597
 20
109.22601005137
 10
198.2481453413597
 20
109.22601005137
  0
LWPOLYLINE
  5
83D1
330
18
100
AcDbEntity
  8
0
100
AcDbPolyline
 90
        4
 70
     1
 43
0.0
 10
198.2481453413597
 20
111.47601005137
 10
197.8981453413597
 20
111.47601005137
 10
197.8981453413597
 20
110.47601005137
 10
198.2481453413597
 20
110.47601005137
  0
LWPOLYLINE
  5
83D2
330
18
100
AcDbEntity
  8
0
100
AcDbPolyline
 90
        4
 70
     1
 43
0.0
 10
201.0231453413597
 20
103.9260100513698
 10
200.6731453413597
 20
103.9260100513698
 10
200.6731453413597
 20
102.9510100513699
 10
201.0231453413597
 20
102.9510100513699
  0
LWPOLYLINE
  5
83D3
330
18
100
AcDbEntity
  8
0
100
AcDbPolyline
 90
        4
 70
     1
 43
0.0
 10
201.0231453413597
 20
105.10101005137
 10
200.6731453413597
 20
105.10101005137
 10
200.6731453413597
 20
104.1260100513699
 10
201.0231453413597
 20
104.1260100513699
  0
LWPOLYLINE
  5
83D4
330
18
100
AcDbEntity
  8
0
100
AcDbPolyline
 90
        4
 70
     1
 43
0.0
 10
201.0231453413597
 20
106.3760100513699
 10
200.6731453413597
 20
106.3760100513699
 10
200.6731453413597
 20
105.40101005137
 10
201.0231453413597
 20
105.40101005137
  0
LWPOLYLINE
  5
83D5
330
18
100
AcDbEntity
  8
0
100
AcDbPolyline
 90
        4
 70
     1
 43
0.0
 10
201.0231453413597
 20
107.7010100513699
 10
200.6731453413597
 20
107.7010100513699
 10
200.6731453413597
 20
106.7510100513699
 10
201.0231453413597
 20
106.7510100513699
  0
LWPOLYLINE
  5
83D6
330
18
100
AcDbEntity
  8
0
100
AcDbPolyline
 90
        4
 70
     1
 43
0.0
 10
201.0231453413597
 20
108.97601005137
 10
200.6731453413597
 20
108.97601005137
 10
200.6731453413597
 20
108.0010100513699
 10
201.0231453413597
 20
108.0010100513699
  0
LWPOLYLINE
  5
83D7
330
18
100
AcDbEntity
  8
0
100
AcDbPolyline
 90
        4
 70
     1
 43
0.0
 10
201.0231453413597
 20
110.2010100513699
 10
200.6731453413597
 20
110.2010100513699
 10
200.6731453413597
 20
109.22601005137
 10
201.0231453413597
 20
109.22601005137
  0
LWPOLYLINE
  5
83D8
330
18
100
AcDbEntity
  8
0
100
AcDbPolyline
 90
        4
 70
     1
 43
0.0
 10
201.0231453413597
 20
111.47601005137
 10
200.6731453413597
 20
111.47601005137
 10
200.6731453413597
 20
110.47601005137
 10
201.0231453413597
 20
110.47601005137
  0
ELLIPSE
  5
83D9
330
18
100
AcDbEntity
  8
0
100
AcDbEllipse
 10
201.3231453413597
 20
112.4260100513698
 30
0.0
 11
0.0
 21
1.25
 31
0.0
210
0.0
220
0.0
230
1.0
 40
0.98
 41
4.509903999999999
 42
6.059223999999999
  0
ELLIPSE
  5
83DA
330
18
100
AcDbEntity
  8
0
100
AcDbEllipse
 10
197.6481453413597
 20
113.35101005137
 30
0.0
 11
0.0
 21
1.25
 31
0.0
210
0.0
220
0.0
230
1.0
 40
0.98
 41
6.03468
 42
8.053399307179585
  0
LINE
  5
83DB
330
18
100
AcDbEntity
  8
0
100
AcDbLine
 10
201.6231453413598
 20
113.60101005137
 30
0.0
 11
197.9231453413597
 21
114.52601005137
 31
0.0
  0
LINE
  5
83DC
330
18
100
AcDbEntity
  8
0
100
AcDbLine
 10
203.2981453413597
 20
116.15101005137
 30
0.0
 11
195.6731453413597
 21
116.15101005137
 31
0.0
  0
LINE
  5
83DD
330
18
100
AcDbEntity
  8
0
100
AcDbLine
 10
201.3731453413597
 20
118.2510100513699
 30
0.0
 11
201.3731453413597
 21
117.27601005137
 31
0.0
  0
LINE
  5
83DE
330
18
100
AcDbEntity
  8
0
100
AcDbLine
 10
201.3731453413597
 20
117.2510100513699
 30
0.0
 11
197.7981453413597
 21
117.2510100513699
 31
0.0
  0
LINE
  5
83DF
330
18
100
AcDbEntity
  8
0
100
AcDbLine
 10
197.7981453413597
 20
118.22601005137
 30
0.0
 11
197.7981453413597
 21
117.2510100513699
 31
0.0
  0
LINE
  5
83E0
330
18
100
AcDbEntity
  8
0
100
AcDbLine
 10
197.7981453413597
 20
118.22601005137
 30
0.0
 11
195.6731453413597
 21
118.22601005137
 31
0.0
  0
LINE
  5
83E1
330
18
100
AcDbEntity
  8
0
100
AcDbLine
 10
203.2981453413597
 20
118.22601005137
 30
0.0
 11
201.3731453413597
 21
118.22601005137
 31
0.0
  0
ELLIPSE
  5
83E2
330
18
100
AcDbEntity
  8
0
100
AcDbEllipse
 10
199.4981453413597
 20
119.4510100513699
 30
0.0
 11
0.0
 21
0.775
 31
0.0
210
0.0
220
0.0
230
1.0
 40
0.9677419999999999
 41
0.0
 42
6.283184999999999
  0
INSERT
  5
83EA
330
18
100
AcDbEntity
  8
0
100
AcDbBlockReference
  2
_OPEN
 10
183.4342378601467
 20
70.69005296635044
 30
0.0
 41
3.0
 42
3.0
 43
3.0
 50
72.84597543216292
1001
ACAD
1000
DSTYLE
1002
{
1070
    41
1040
3.0
1070
    42
1040
1.0
1070
    43
1040
5.0
1070
    44
1040
0.75
1070
    73
1070
     0
1070
    74
1070
     0
1070
    77
1070
     0
1070
    78
1070
     9
1070
   140
1040
6.0
1070
   141
1040
3.0
1070
   143
1040
0.0394
1070
   147
1040
1.0
1070
   171
1070
     4
1070
   172
1070
     1
1070
   173
1070
     1
1070
   178
1070
     7
1070
   273
1070
     8
1070
   274
1070
     4
1070
   279
1070
     2
1070
   284
1070
     9
1070
   341
1005
24
1070
   342
1005
0
1070
   343
1005
24
1070
   344
1005
24
1002
}
  0
INSERT
  5
83EC
330
18
100
AcDbEntity
  8
0
100
AcDbBlockReference
  2
_OPEN
 10
172.2027530727358
 20
70.87112752988708
 30
0.0
 41
3.0
 42
3.0
 43
3.0
 50
84.94783391293081
1001
ACAD
1000
DSTYLE
1002
{
1070
    41
1040
3.0
1070
    42
1040
1.0
1070
    43
1040
5.0
1070
    44
1040
0.75
1070
    73
1070
     0
1070
    74
1070
     0
1070
    77
1070
     0
1070
    78
1070
     9
1070
   140
1040
6.0
1070
   141
1040
3.0
1070
   143
1040
0.0394
1070
   147
1040
1.0
1070
   171
1070
     4
1070
   172
1070
     1
1070
   173
1070
     1
1070
   178
1070
     7
1070
   273
1070
     8
1070
   274
1070
     4
1070
   279
1070
     2
1070
   284
1070
     9
1070
   341
1005
24
1070
   342
1005
0
1070
   343
1005
24
1070
   344
1005
24
1002
}
  0
TEXT
  5
83F6
330
18
100
AcDbEntity
  8
0
100
AcDbText
 10
185.0699634223838
 20
99.82883432059491
 30
0.0
 40
2.2
  1
CN1
  7
MSｺﾞｼｯｸ
100
AcDbText
  0
INSERT
  5
83F7
330
18
100
AcDbEntity
  8
0
100
AcDbBlockReference
  2
_OPEN
 10
158.1211609211187
 20
158.5352981749736
 30
0.0
 41
3.0
 42
3.0
 43
3.0
 50
349.1438753111458
1001
ACAD
1000
DSTYLE
1002
{
1070
    41
1040
3.0
1070
    42
1040
1.0
1070
    43
1040
5.0
1070
    44
1040
0.75
1070
    73
1070
     0
1070
    74
1070
     0
1070
    77
1070
     0
1070
    78
1070
     9
1070
   140
1040
6.0
1070
   141
1040
3.0
1070
   143
1040
0.0394
1070
   147
1040
1.0
1070
   171
1070
     4
1070
   172
1070
     1
1070
   173
1070
     1
1070
   178
1070
     7
1070
   273
1070
     8
1070
   274
1070
     4
1070
   279
1070
     2
1070
   284
1070
     9
1070
   341
1005
24
1070
   342
1005
0
1070
   343
1005
24
1070
   344
1005
24
1002
}
  0
INSERT
  5
83F9
330
18
100
AcDbEntity
  8
0
100
AcDbBlockReference
  2
_OPEN
 10
162.246234593459
 20
183.4293890058423
 30
0.0
 41
3.0
 42
3.0
 43
3.0
 50
348.2902713398546
1001
ACAD
1000
DSTYLE
1002
{
1070
    41
1040
3.0
1070
    42
1040
1.0
1070
    43
1040
5.0
1070
    44
1040
0.75
1070
    73
1070
     0
1070
    74
1070
     0
1070
    77
1070
     0
1070
    78
1070
     9
1070
   140
1040
6.0
1070
   141
1040
3.0
1070
   143
1040
0.0394
1070
   147
1040
1.0
1070
   171
1070
     4
1070
   172
1070
     1
1070
   173
1070
     1
1070
   178
1070
     7
1070
   273
1070
     8
1070
   274
1070
     4
1070
   279
1070
     2
1070
   284
1070
     9
1070
   341
1005
24
1070
   342
1005
0
1070
   343
1005
24
1070
   344
1005
24
1002
}
  0
TEXT
  5
8411
330
18
100
AcDbEntity
  8
0
100
AcDbText
 10
160.7365980908139
 20
125.7083528696325
 30
0.0
 40
2.799999999999999
  1
DBK
  7
MSｺﾞｼｯｸ
100
AcDbText
  0
TEXT
  5
8412
330
18
100
AcDbEntity
  8
0
100
AcDbText
 10
161.3438982395018
 20
151.5325584229212
 30
0.0
 40
2.799999999999999
  1
B1
  7
MSｺﾞｼｯｸ
100
AcDbText
  0
TEXT
  5
8413
330
18
100
AcDbEntity
  8
0
100
AcDbText
 10
161.3578455445576
 20
146.4846538679641
 30
0.0
 40
2.799999999999999
  1
B2
  7
MSｺﾞｼｯｸ
100
AcDbText
  0
TEXT
  5
8414
330
18
100
AcDbEntity
  8
0
100
AcDbText
 10
162.2636487397057
 20
130.6565125942537
 30
0.0
 40
2.799999999999999
  1
W
  7
MSｺﾞｼｯｸ
100
AcDbText
  0
TEXT
  5
8415
330
18
100
AcDbEntity
  8
0
100
AcDbText
 10
162.1853410390995
 20
140.7523254918764
 30
0.0
 40
2.799999999999999
  1
U
  7
MSｺﾞｼｯｸ
100
AcDbText
  0
TEXT
  5
8416
330
18
100
AcDbEntity
  8
0
100
AcDbText
 10
162.2115446858467
 20
135.5523254918763
 30
0.0
 40
2.799999999999999
  1
V
  7
MSｺﾞｼｯｸ
100
AcDbText
  0
TEXT
  5
8417
330
18
100
AcDbEntity
  8
0
100
AcDbText
 10
162.2137674350386
 20
161.9325584229213
 30
0.0
 40
2.799999999999999
  1
S
  7
MSｺﾞｼｯｸ
100
AcDbText
  0
TEXT
  5
8418
330
18
100
AcDbEntity
  8
0
100
AcDbText
 10
162.2458746544134
 20
156.7325546352123
 30
0.0
 40
2.799999999999999
  1
T
  7
MSｺﾞｼｯｸ
100
AcDbText
  0
TEXT
  5
8419
330
18
100
AcDbEntity
  8
0
100
AcDbText
 10
162.3202582538569
 20
166.9804667655868
 30
0.0
 40
2.799999999999999
  1
R
  7
MSｺﾞｼｯｸ
100
AcDbText
  0
TEXT
  5
841A
330
18
100
AcDbEntity
  8
0
100
AcDbText
 10
162.3469746119672
 20
201.9612330623984
 30
0.0
 40
2.799999999999999
  1
r
  7
MSｺﾞｼｯｸ
100
AcDbText
  0
TEXT
  5
841B
330
18
100
AcDbEntity
  8
0
100
AcDbText
 10
162.2892850058258
 20
196.7612330623983
 30
0.0
 40
2.799999999999999
  1
s
  7
MSｺﾞｼｯｸ
100
AcDbText
  0
ELLIPSE
  5
841C
330
18
100
AcDbEntity
  8
0
100
AcDbEllipse
 10
199.4981453413597
 20
196.9510100513699
 30
0.0
 11
0.0
 21
0.775
 31
0.0
210
0.0
220
0.0
230
1.0
 40
0.9677419999999999
 41
0.0
 42
6.283184999999999
  0
LWPOLYLINE
  5
841D
330
18
100
AcDbEntity
  8
0
100
AcDbPolyline
 90
        4
 70
     1
 43
0.2
 10
194.8731453413597
 20
199.3260100513699
 10
194.8731453413597
 20
170.65101005137
 10
204.0981453413597
 20
170.65101005137
 10
204.0981453413597
 20
199.3260100513699
  0
ELLIPSE
  5
841E
330
18
100
AcDbEntity
  8
0
100
AcDbEllipse
 10
199.4981453413597
 20
173.9510100513699
 30
0.0
 11
0.0
 21
0.775
 31
0.0
210
0.0
220
0.0
230
1.0
 40
0.9677419999999999
 41
0.0
 42
6.283184999999999
  0
LINE
  5
841F
330
18
100
AcDbEntity
  8
0
100
AcDbLine
 10
195.6731453413597
 20
174.85101005137
 30
0.0
 11
195.6731453413597
 21
176.9260100513698
 31
0.0
  0
LINE
  5
8420
330
18
100
AcDbEntity
  8
0
100
AcDbLine
 10
203.2981453413597
 20
174.85101005137
 30
0.0
 11
203.2981453413597
 21
176.9260100513698
 31
0.0
  0
LINE
  5
8421
330
18
100
AcDbEntity
  8
0
100
AcDbLine
 10
201.3731453413597
 20
174.8260100513699
 30
0.0
 11
201.3731453413597
 21
175.8010100513698
 31
0.0
  0
LINE
  5
8422
330
18
100
AcDbEntity
  8
0
100
AcDbLine
 10
201.3731453413597
 20
175.8260100513699
 30
0.0
 11
197.7981453413597
 21
175.8260100513699
 31
0.0
  0
LINE
  5
8423
330
18
100
AcDbEntity
  8
0
100
AcDbLine
 10
197.7981453413597
 20
174.85101005137
 30
0.0
 11
197.7981453413597
 21
175.8260100513699
 31
0.0
  0
LINE
  5
8424
330
18
100
AcDbEntity
  8
0
100
AcDbLine
 10
197.7981453413597
 20
174.85101005137
 30
0.0
 11
195.6731453413597
 21
174.85101005137
 31
0.0
  0
LINE
  5
8425
330
18
100
AcDbEntity
  8
0
100
AcDbLine
 10
203.2981453413597
 20
174.85101005137
 30
0.0
 11
201.3731453413597
 21
174.85101005137
 31
0.0
  0
LINE
  5
8426
330
18
100
AcDbEntity
  8
0
100
AcDbLine
 10
203.2981453413597
 20
176.9260100513698
 30
0.0
 11
195.6731453413597
 21
176.9260100513698
 31
0.0
  0
LINE
  5
8427
330
18
100
AcDbEntity
  8
0
100
AcDbLine
 10
195.6731453413597
 20
195.72601005137
 30
0.0
 11
195.6731453413597
 21
193.65101005137
 31
0.0
  0
LINE
  5
8428
330
18
100
AcDbEntity
  8
0
100
AcDbLine
 10
203.2981453413597
 20
195.72601005137
 30
0.0
 11
203.2981453413597
 21
193.65101005137
 31
0.0
  0
LINE
  5
8429
330
18
100
AcDbEntity
  8
0
100
AcDbLine
 10
201.3731453413597
 20
195.7510100513699
 30
0.0
 11
201.3731453413597
 21
194.77601005137
 31
0.0
  0
LINE
  5
842A
330
18
100
AcDbEntity
  8
0
100
AcDbLine
 10
201.3731453413597
 20
194.7510100513699
 30
0.0
 11
197.7981453413597
 21
194.7510100513699
 31
0.0
  0
LINE
  5
842B
330
18
100
AcDbEntity
  8
0
100
AcDbLine
 10
197.7981453413597
 20
195.72601005137
 30
0.0
 11
197.7981453413597
 21
194.7510100513699
 31
0.0
  0
LINE
  5
842C
330
18
100
AcDbEntity
  8
0
100
AcDbLine
 10
197.7981453413597
 20
195.72601005137
 30
0.0
 11
195.6731453413597
 21
195.72601005137
 31
0.0
  0
LINE
  5
842D
330
18
100
AcDbEntity
  8
0
100
AcDbLine
 10
203.2981453413597
 20
195.72601005137
 30
0.0
 11
201.3731453413597
 21
195.72601005137
 31
0.0
  0
LWPOLYLINE
  5
842E
330
18
100
AcDbEntity
  8
0
100
AcDbPolyline
 90
        4
 70
     1
 43
0.0
 10
198.2481453413597
 20
181.85101005137
 10
197.8981453413597
 20
181.85101005137
 10
197.8981453413597
 20
180.8760100513699
 10
198.2481453413597
 20
180.8760100513699
  0
LWPOLYLINE
  5
842F
330
18
100
AcDbEntity
  8
0
100
AcDbPolyline
 90
        4
 70
     1
 43
0.0
 10
198.2481453413597
 20
183.0260100513699
 10
197.8981453413597
 20
183.0260100513699
 10
197.8981453413597
 20
182.0510100513698
 10
198.2481453413597
 20
182.0510100513698
  0
LWPOLYLINE
  5
8430
330
18
100
AcDbEntity
  8
0
100
AcDbPolyline
 90
        4
 70
     1
 43
0.0
 10
198.2481453413597
 20
184.3010100513698
 10
197.8981453413597
 20
184.3010100513698
 10
197.8981453413597
 20
183.3260100513699
 10
198.2481453413597
 20
183.3260100513699
  0
LWPOLYLINE
  5
8431
330
18
100
AcDbEntity
  8
0
100
AcDbPolyline
 90
        4
 70
     1
 43
0.0
 10
198.2481453413597
 20
185.6260100513699
 10
197.8981453413597
 20
185.6260100513699
 10
197.8981453413597
 20
184.6760100513698
 10
198.2481453413597
 20
184.6760100513698
  0
LWPOLYLINE
  5
8432
330
18
100
AcDbEntity
  8
0
100
AcDbPolyline
 90
        4
 70
     1
 43
0.0
 10
198.2481453413597
 20
186.90101005137
 10
197.8981453413597
 20
186.90101005137
 10
197.8981453413597
 20
185.9260100513698
 10
198.2481453413597
 20
185.9260100513698
  0
LWPOLYLINE
  5
8433
330
18
100
AcDbEntity
  8
0
100
AcDbPolyline
 90
        4
 70
     1
 43
0.0
 10
198.2481453413597
 20
188.1260100513699
 10
197.8981453413597
 20
188.1260100513699
 10
197.8981453413597
 20
187.15101005137
 10
198.2481453413597
 20
187.15101005137
  0
LWPOLYLINE
  5
8434
330
18
100
AcDbEntity
  8
0
100
AcDbPolyline
 90
        4
 70
     1
 43
0.0
 10
198.2481453413597
 20
189.40101005137
 10
197.8981453413597
 20
189.40101005137
 10
197.8981453413597
 20
188.40101005137
 10
198.2481453413597
 20
188.40101005137
  0
LWPOLYLINE
  5
8435
330
18
100
AcDbEntity
  8
0
100
AcDbPolyline
 90
        4
 70
     1
 43
0.0
 10
201.0231453413597
 20
181.85101005137
 10
200.6731453413597
 20
181.85101005137
 10
200.6731453413597
 20
180.8760100513699
 10
201.0231453413597
 20
180.8760100513699
  0
LWPOLYLINE
  5
8436
330
18
100
AcDbEntity
  8
0
100
AcDbPolyline
 90
        4
 70
     1
 43
0.0
 10
201.0231453413597
 20
183.0260100513699
 10
200.6731453413597
 20
183.0260100513699
 10
200.6731453413597
 20
182.0510100513698
 10
201.0231453413597
 20
182.0510100513698
  0
LWPOLYLINE
  5
8437
330
18
100
AcDbEntity
  8
0
100
AcDbPolyline
 90
        4
 70
     1
 43
0.0
 10
201.0231453413597
 20
184.3010100513698
 10
200.6731453413597
 20
184.3010100513698
 10
200.6731453413597
 20
183.3260100513699
 10
201.0231453413597
 20
183.3260100513699
  0
LWPOLYLINE
  5
8438
330
18
100
AcDbEntity
  8
0
100
AcDbPolyline
 90
        4
 70
     1
 43
0.0
 10
201.0231453413597
 20
185.6260100513699
 10
200.6731453413597
 20
185.6260100513699
 10
200.6731453413597
 20
184.6760100513698
 10
201.0231453413597
 20
184.6760100513698
  0
LWPOLYLINE
  5
8439
330
18
100
AcDbEntity
  8
0
100
AcDbPolyline
 90
        4
 70
     1
 43
0.0
 10
201.0231453413597
 20
186.90101005137
 10
200.6731453413597
 20
186.90101005137
 10
200.6731453413597
 20
185.9260100513698
 10
201.0231453413597
 20
185.9260100513698
  0
LWPOLYLINE
  5
843A
330
18
100
AcDbEntity
  8
0
100
AcDbPolyline
 90
        4
 70
     1
 43
0.0
 10
201.0231453413597
 20
188.1260100513699
 10
200.6731453413597
 20
188.1260100513699
 10
200.6731453413597
 20
187.15101005137
 10
201.0231453413597
 20
187.15101005137
  0
LWPOLYLINE
  5
843B
330
18
100
AcDbEntity
  8
0
100
AcDbPolyline
 90
        4
 70
     1
 43
0.0
 10
201.0231453413597
 20
189.40101005137
 10
200.6731453413597
 20
189.40101005137
 10
200.6731453413597
 20
188.40101005137
 10
201.0231453413597
 20
188.40101005137
  0
LWPOLYLINE
  5
843C
330
18
100
AcDbEntity
  8
0
100
AcDbPolyline
 90
        4
 70
     1
 43
0.0
 10
201.3731453413597
 20
190.2510100513699
 10
197.6731453413597
 20
190.2510100513699
 10
197.6731453413597
 20
180.02601005137
 10
201.3731453413597
 20
180.02601005137
  0
ELLIPSE
  5
843D
330
18
100
AcDbEntity
  8
0
100
AcDbEllipse
 10
201.3231453413597
 20
180.5760100513699
 30
0.0
 11
0.0
 21
1.25
 31
0.0
210
0.0
220
0.0
230
1.0
 40
0.98
 41
3.380894
 42
4.528311
  0
ELLIPSE
  5
843E
330
18
100
AcDbEntity
  8
0
100
AcDbEllipse
 10
201.3231453413597
 20
189.9260100513698
 30
0.0
 11
0.0
 21
1.25
 31
0.0
210
0.0
220
0.0
230
1.0
 40
0.98
 41
4.509903999999999
 42
6.059223999999999
  0
ELLIPSE
  5
843F
330
18
100
AcDbEntity
  8
0
100
AcDbEllipse
 10
197.6481453413597
 20
179.60101005137
 30
0.0
 11
0.0
 21
1.25
 31
0.0
210
0.0
220
0.0
230
1.0
 40
0.98
 41
1.708854999999999
 42
3.380894
  0
ELLIPSE
  5
8440
330
18
100
AcDbEntity
  8
0
100
AcDbEllipse
 10
197.6481453413597
 20
190.85101005137
 30
0.0
 11
0.0
 21
1.25
 31
0.0
210
0.0
220
0.0
230
1.0
 40
0.98
 41
6.03468
 42
8.053399307179585
  0
LINE
  5
8441
330
18
100
AcDbEntity
  8
0
100
AcDbLine
 10
201.6231453413598
 20
191.10101005137
 30
0.0
 11
197.9231453413597
 21
192.02601005137
 31
0.0
  0
LINE
  5
8442
330
18
100
AcDbEntity
  8
0
100
AcDbLine
 10
202.5481453413597
 20
180.5760100513699
 30
0.0
 11
202.5481453413597
 21
189.9260100513698
 31
0.0
  0
LINE
  5
8443
330
18
100
AcDbEntity
  8
0
100
AcDbLine
 10
197.9231453413597
 20
178.35101005137
 30
0.0
 11
201.6231453413598
 21
179.3260100513699
 31
0.0
  0
LINE
  5
8444
330
18
100
AcDbEntity
  8
0
100
AcDbLine
 10
196.4231453413597
 20
190.85101005137
 30
0.0
 11
196.4231453413597
 21
179.5010100513699
 31
0.0
  0
LINE
  5
8445
330
18
100
AcDbEntity
  8
0
100
AcDbLine
 10
203.2981453413597
 20
193.65101005137
 30
0.0
 11
195.6731453413597
 21
193.65101005137
 31
0.0
  0
TEXT
  5
8446
330
18
100
AcDbEntity
  8
0
100
AcDbText
 10
170.3508973330459
 20
173.6565086293088
 30
0.0
 40
4.0
  1
TB2
  7
MSｺﾞｼｯｸ
100
AcDbText
  0
LWPOLYLINE
  5
8447
330
18
100
AcDbEntity
  8
0
100
AcDbPolyline
 90
        4
 70
     1
 43
0.0
 10
198.2481453413597
 20
139.10101005137
 10
197.8981453413597
 20
139.10101005137
 10
197.8981453413597
 20
138.1260100513699
 10
198.2481453413597
 20
138.1260100513699
  0
LWPOLYLINE
  5
8448
330
18
100
AcDbEntity
  8
0
100
AcDbPolyline
 90
        4
 70
     1
 43
0.0
 10
201.0231453413597
 20
139.10101005137
 10
200.6731453413597
 20
139.10101005137
 10
200.6731453413597
 20
138.1260100513699
 10
201.0231453413597
 20
138.1260100513699
  0
LWPOLYLINE
  5
8449
330
18
100
AcDbEntity
  8
0
100
AcDbPolyline
 90
        4
 70
     1
 43
0.0
 10
201.3731453413597
 20
146.5010100513699
 10
197.6731453413597
 20
146.5010100513699
 10
197.6731453413597
 20
132.35101005137
 10
201.3731453413597
 20
132.35101005137
  0
LINE
  5
844A
330
18
100
AcDbEntity
  8
0
100
AcDbLine
 10
202.5481453413597
 20
132.3010100513698
 30
0.0
 11
202.5481453413597
 21
146.4260100513698
 31
0.0
  0
LINE
  5
844B
330
18
100
AcDbEntity
  8
0
100
AcDbLine
 10
196.4231453413597
 20
147.35101005137
 30
0.0
 11
196.4231453413597
 21
131.2510100513699
 31
0.0
  0
LWPOLYLINE
  5
844C
330
18
100
AcDbEntity
  8
0
100
AcDbPolyline
 90
        4
 70
     1
 43
0.2
 10
194.8731453413597
 20
155.8260100513699
 10
194.8731453413597
 20
122.5010100513699
 10
204.0981453413597
 20
122.5010100513699
 10
204.0981453413597
 20
155.8260100513699
  0
LWPOLYLINE
  5
844D
330
18
100
AcDbEntity
  8
0
100
AcDbPolyline
 90
        4
 70
     1
 43
0.0
 10
198.2231453413597
 20
134.27601005137
 10
197.8731453413598
 20
134.27601005137
 10
197.8731453413598
 20
133.3010100513698
 10
198.2231453413597
 20
133.3010100513698
  0
LWPOLYLINE
  5
844E
330
18
100
AcDbEntity
  8
0
100
AcDbPolyline
 90
        4
 70
     1
 43
0.0
 10
200.9981453413598
 20
134.27601005137
 10
200.6481453413598
 20
134.27601005137
 10
200.6481453413598
 20
133.3010100513698
 10
200.9981453413598
 20
133.3010100513698
  0
LWPOLYLINE
  5
844F
330
18
100
AcDbEntity
  8
0
100
AcDbPolyline
 90
        4
 70
     1
 43
0.0
 10
198.2231453413597
 20
135.47601005137
 10
197.8731453413598
 20
135.47601005137
 10
197.8731453413598
 20
134.5010100513699
 10
198.2231453413597
 20
134.5010100513699
  0
LWPOLYLINE
  5
8450
330
18
100
AcDbEntity
  8
0
100
AcDbPolyline
 90
        4
 70
     1
 43
0.0
 10
200.9981453413598
 20
135.47601005137
 10
200.6481453413598
 20
135.47601005137
 10
200.6481453413598
 20
134.5010100513699
 10
200.9981453413598
 20
134.5010100513699
  0
LWPOLYLINE
  5
8451
330
18
100
AcDbEntity
  8
0
100
AcDbPolyline
 90
        4
 70
     1
 43
0.0
 10
198.2481453413597
 20
136.6760100513698
 10
197.8981453413597
 20
136.6760100513698
 10
197.8981453413597
 20
135.7010100513699
 10
198.2481453413597
 20
135.7010100513699
  0
LWPOLYLINE
  5
8452
330
18
100
AcDbEntity
  8
0
100
AcDbPolyline
 90
        4
 70
     1
 43
0.0
 10
201.0231453413597
 20
136.6760100513698
 10
200.6731453413597
 20
136.6760100513698
 10
200.6731453413597
 20
135.7010100513699
 10
201.0231453413597
 20
135.7010100513699
  0
LINE
  5
8453
330
18
100
AcDbEntity
  8
0
100
AcDbLine
 10
195.6731453413597
 20
126.6760100513698
 30
0.0
 11
195.6731453413597
 21
128.7510100513699
 31
0.0
  0
LINE
  5
8454
330
18
100
AcDbEntity
  8
0
100
AcDbLine
 10
203.2981453413597
 20
126.6760100513698
 30
0.0
 11
203.2981453413597
 21
128.7510100513699
 31
0.0
  0
LINE
  5
8455
330
18
100
AcDbEntity
  8
0
100
AcDbLine
 10
201.3731453413597
 20
126.65101005137
 30
0.0
 11
201.3731453413597
 21
127.6260100513699
 31
0.0
  0
LINE
  5
8456
330
18
100
AcDbEntity
  8
0
100
AcDbLine
 10
201.3731453413597
 20
127.65101005137
 30
0.0
 11
197.7981453413597
 21
127.65101005137
 31
0.0
  0
LINE
  5
8457
330
18
100
AcDbEntity
  8
0
100
AcDbLine
 10
197.7981453413597
 20
126.6760100513698
 30
0.0
 11
197.7981453413597
 21
127.65101005137
 31
0.0
  0
LINE
  5
8458
330
18
100
AcDbEntity
  8
0
100
AcDbLine
 10
197.7981453413597
 20
126.6760100513698
 30
0.0
 11
195.6731453413597
 21
126.6760100513698
 31
0.0
  0
LINE
  5
8459
330
18
100
AcDbEntity
  8
0
100
AcDbLine
 10
203.2981453413597
 20
126.6760100513698
 30
0.0
 11
201.3731453413597
 21
126.6760100513698
 31
0.0
  0
LINE
  5
845A
330
18
100
AcDbEntity
  8
0
100
AcDbLine
 10
203.2981453413597
 20
128.7510100513699
 30
0.0
 11
195.6731453413597
 21
128.7510100513699
 31
0.0
  0
LWPOLYLINE
  5
845B
330
18
100
AcDbEntity
  8
0
100
AcDbPolyline
 90
        4
 70
     1
 43
0.0
 10
198.2481453413597
 20
137.9260100513698
 10
197.8981453413597
 20
137.9260100513698
 10
197.8981453413597
 20
136.9510100513699
 10
198.2481453413597
 20
136.9510100513699
  0
LWPOLYLINE
  5
845C
330
18
100
AcDbEntity
  8
0
100
AcDbPolyline
 90
        4
 70
     1
 43
0.0
 10
201.0231453413597
 20
137.9260100513698
 10
200.6731453413597
 20
137.9260100513698
 10
200.6731453413597
 20
136.9510100513699
 10
201.0231453413597
 20
136.9510100513699
  0
ELLIPSE
  5
845D
330
18
100
AcDbEntity
  8
0
100
AcDbEllipse
 10
201.3231453413597
 20
132.40101005137
 30
0.0
 11
0.0
 21
1.25
 31
0.0
210
0.0
220
0.0
230
1.0
 40
0.98
 41
3.380894
 42
4.528311
  0
ELLIPSE
  5
845E
330
18
100
AcDbEntity
  8
0
100
AcDbEllipse
 10
197.6481453413597
 20
131.4260100513698
 30
0.0
 11
0.0
 21
1.25
 31
0.0
210
0.0
220
0.0
230
1.0
 40
0.98
 41
1.708854999999999
 42
3.380894
  0
LINE
  5
845F
330
18
100
AcDbEntity
  8
0
100
AcDbLine
 10
197.9231453413597
 20
130.1760100513698
 30
0.0
 11
201.6231453413598
 21
131.15101005137
 31
0.0
  0
ELLIPSE
  5
8460
330
18
100
AcDbEntity
  8
0
100
AcDbEllipse
 10
199.4981453413597
 20
125.77601005137
 30
0.0
 11
0.0
 21
0.775
 31
0.0
210
0.0
220
0.0
230
1.0
 40
0.9677419999999999
 41
0.0
 42
6.283184999999999
  0
LINE
  5
8461
330
18
100
AcDbEntity
  8
0
100
AcDbLine
 10
195.6731453413597
 20
152.22601005137
 30
0.0
 11
195.6731453413597
 21
150.15101005137
 31
0.0
  0
LINE
  5
8462
330
18
100
AcDbEntity
  8
0
100
AcDbLine
 10
203.2981453413597
 20
152.22601005137
 30
0.0
 11
203.2981453413597
 21
150.15101005137
 31
0.0
  0
LINE
  5
8463
330
18
100
AcDbEntity
  8
0
100
AcDbLine
 10
201.3731453413597
 20
152.2510100513699
 30
0.0
 11
201.3731453413597
 21
151.27601005137
 31
0.0
  0
LINE
  5
8464
330
18
100
AcDbEntity
  8
0
100
AcDbLine
 10
201.3731453413597
 20
151.2510100513699
 30
0.0
 11
197.7981453413597
 21
151.2510100513699
 31
0.0
  0
LINE
  5
8465
330
18
100
AcDbEntity
  8
0
100
AcDbLine
 10
197.7981453413597
 20
152.22601005137
 30
0.0
 11
197.7981453413597
 21
151.2510100513699
 31
0.0
  0
LINE
  5
8466
330
18
100
AcDbEntity
  8
0
100
AcDbLine
 10
197.7981453413597
 20
152.22601005137
 30
0.0
 11
195.6731453413597
 21
152.22601005137
 31
0.0
  0
LINE
  5
8467
330
18
100
AcDbEntity
  8
0
100
AcDbLine
 10
203.2981453413597
 20
152.22601005137
 30
0.0
 11
201.3731453413597
 21
152.22601005137
 31
0.0
  0
LWPOLYLINE
  5
8468
330
18
100
AcDbEntity
  8
0
100
AcDbPolyline
 90
        4
 70
     1
 43
0.0
 10
198.2481453413597
 20
140.3760100513699
 10
197.8981453413597
 20
140.3760100513699
 10
197.8981453413597
 20
139.40101005137
 10
198.2481453413597
 20
139.40101005137
  0
LWPOLYLINE
  5
8469
330
18
100
AcDbEntity
  8
0
100
AcDbPolyline
 90
        4
 70
     1
 43
0.0
 10
198.2481453413597
 20
141.7010100513699
 10
197.8981453413597
 20
141.7010100513699
 10
197.8981453413597
 20
140.7510100513699
 10
198.2481453413597
 20
140.7510100513699
  0
LWPOLYLINE
  5
846A
330
18
100
AcDbEntity
  8
0
100
AcDbPolyline
 90
        4
 70
     1
 43
0.0
 10
198.2481453413597
 20
142.97601005137
 10
197.8981453413597
 20
142.97601005137
 10
197.8981453413597
 20
142.0010100513699
 10
198.2481453413597
 20
142.0010100513699
  0
LWPOLYLINE
  5
846B
330
18
100
AcDbEntity
  8
0
100
AcDbPolyline
 90
        4
 70
     1
 43
0.0
 10
198.2481453413597
 20
144.2010100513699
 10
197.8981453413597
 20
144.2010100513699
 10
197.8981453413597
 20
143.22601005137
 10
198.2481453413597
 20
143.22601005137
  0
LWPOLYLINE
  5
846C
330
18
100
AcDbEntity
  8
0
100
AcDbPolyline
 90
        4
 70
     1
 43
0.0
 10
198.2481453413597
 20
145.47601005137
 10
197.8981453413597
 20
145.47601005137
 10
197.8981453413597
 20
144.47601005137
 10
198.2481453413597
 20
144.47601005137
  0
LWPOLYLINE
  5
846D
330
18
100
AcDbEntity
  8
0
100
AcDbPolyline
 90
        4
 70
     1
 43
0.0
 10
201.0231453413597
 20
140.3760100513699
 10
200.6731453413597
 20
140.3760100513699
 10
200.6731453413597
 20
139.40101005137
 10
201.0231453413597
 20
139.40101005137
  0
LWPOLYLINE
  5
846E
330
18
100
AcDbEntity
  8
0
100
AcDbPolyline
 90
        4
 70
     1
 43
0.0
 10
201.0231453413597
 20
141.7010100513699
 10
200.6731453413597
 20
141.7010100513699
 10
200.6731453413597
 20
140.7510100513699
 10
201.0231453413597
 20
140.7510100513699
  0
LWPOLYLINE
  5
846F
330
18
100
AcDbEntity
  8
0
100
AcDbPolyline
 90
        4
 70
     1
 43
0.0
 10
201.0231453413597
 20
142.97601005137
 10
200.6731453413597
 20
142.97601005137
 10
200.6731453413597
 20
142.0010100513699
 10
201.0231453413597
 20
142.0010100513699
  0
LWPOLYLINE
  5
8470
330
18
100
AcDbEntity
  8
0
100
AcDbPolyline
 90
        4
 70
     1
 43
0.0
 10
201.0231453413597
 20
144.2010100513699
 10
200.6731453413597
 20
144.2010100513699
 10
200.6731453413597
 20
143.22601005137
 10
201.0231453413597
 20
143.22601005137
  0
LWPOLYLINE
  5
8471
330
18
100
AcDbEntity
  8
0
100
AcDbPolyline
 90
        4
 70
     1
 43
0.0
 10
201.0231453413597
 20
145.47601005137
 10
200.6731453413597
 20
145.47601005137
 10
200.6731453413597
 20
144.47601005137
 10
201.0231453413597
 20
144.47601005137
  0
ELLIPSE
  5
8472
330
18
100
AcDbEntity
  8
0
100
AcDbEllipse
 10
201.3231453413597
 20
146.4260100513698
 30
0.0
 11
0.0
 21
1.25
 31
0.0
210
0.0
220
0.0
230
1.0
 40
0.98
 41
4.509903999999999
 42
6.059223999999999
  0
ELLIPSE
  5
8473
330
18
100
AcDbEntity
  8
0
100
AcDbEllipse
 10
197.6481453413597
 20
147.35101005137
 30
0.0
 11
0.0
 21
1.25
 31
0.0
210
0.0
220
0.0
230
1.0
 40
0.98
 41
6.03468
 42
8.053399307179585
  0
LINE
  5
8474
330
18
100
AcDbEntity
  8
0
100
AcDbLine
 10
201.6231453413598
 20
147.60101005137
 30
0.0
 11
197.9231453413597
 21
148.52601005137
 31
0.0
  0
ELLIPSE
  5
8475
330
18
100
AcDbEntity
  8
0
100
AcDbEllipse
 10
199.4981453413597
 20
153.4510100513699
 30
0.0
 11
0.0
 21
0.775
 31
0.0
210
0.0
220
0.0
230
1.0
 40
0.9677419999999999
 41
0.0
 42
6.283184999999999
  0
LINE
  5
8476
330
18
100
AcDbEntity
  8
0
100
AcDbLine
 10
203.2981453413597
 20
150.15101005137
 30
0.0
 11
195.6731453413597
 21
150.15101005137
 31
0.0
  0
TEXT
  5
8477
330
18
100
AcDbEntity
  8
0
100
AcDbText
 10
185.179050298205
 20
137.8889301076964
 30
0.0
 40
2.2
  1
CN2
  7
MSｺﾞｼｯｸ
100
AcDbText
  0
LINE
  5
8478
330
18
100
AcDbEntity
  8
0
100
AcDbLine
 10
189.0981453413597
 20
155.9760100513699
 30
0.0
 11
193.0981453413597
 21
155.9760100513699
 31
0.0
  0
LINE
  5
8479
330
18
100
AcDbEntity
  8
0
100
AcDbLine
 10
189.0981453413597
 20
169.7510100513699
 30
0.0
 11
193.0981453413597
 21
169.7510100513699
 31
0.0
  0
LWPOLYLINE
  5
847A
330
18
100
AcDbEntity
  8
0
100
AcDbPolyline
 90
        4
 70
     1
 43
0.2
 10
203.0981453413597
 20
169.3260100513699
 10
203.0981453413597
 20
156.3260100513699
 10
188.0981453413597
 20
156.3260100513699
 10
188.0981453413597
 20
169.3260100513699
  0
LWPOLYLINE
  5
847B
330
18
100
AcDbEntity
  8
0
100
AcDbPolyline
 90
        4
 70
     1
 43
0.2
 10
189.0981453413597
 20
168.3260100513699
 10
191.0981453413597
 20
168.3260100513699
 10
191.0981453413597
 20
157.3260100513699
 10
189.0981453413597
 20
157.3260100513699
  0
LWPOLYLINE
  5
847C
330
18
100
AcDbEntity
  8
0
100
AcDbPolyline
 90
        4
 70
     1
 43
0.2
 10
191.6481453413597
 20
159.3260100513699
 10
191.6481453413597
 20
158.3260100513699
 10
191.0981453413597
 20
158.3260100513699
 10
191.0981453413597
 20
159.3260100513699
  0
LWPOLYLINE
  5
847D
330
18
100
AcDbEntity
  8
0
100
AcDbPolyline
 90
        4
 70
     1
 43
0.2
 10
191.6481453413597
 20
161.7260100513699
 10
191.6481453413597
 20
160.7260100513699
 10
191.0981453413597
 20
160.7260100513699
 10
191.0981453413597
 20
161.7260100513699
  0
LINE
  5
847E
330
18
100
AcDbEntity
  8
0
100
AcDbLine
 10
187.6981453413597
 20
157.3260100513699
 30
0.0
 11
187.6981453413597
 21
161.3260100513699
 31
0.0
  0
LWPOLYLINE
  5
847F
330
18
100
AcDbEntity
  8
0
100
AcDbPolyline
 90
        4
 70
     1
 43
0.2
 10
191.6481453413597
 20
164.9260100513699
 10
191.6481453413597
 20
163.9260100513699
 10
191.0981453413597
 20
163.9260100513699
 10
191.0981453413597
 20
164.9260100513699
  0
LWPOLYLINE
  5
8480
330
18
100
AcDbEntity
  8
0
100
AcDbPolyline
 90
        4
 70
     1
 43
0.2
 10
191.6481453413597
 20
167.3260100513699
 10
191.6481453413597
 20
166.3260100513699
 10
191.0981453413597
 20
166.3260100513699
 10
191.0981453413597
 20
167.3260100513699
  0
LINE
  5
8481
330
18
100
AcDbEntity
  8
0
100
AcDbLine
 10
187.6981453413597
 20
168.3260100513699
 30
0.0
 11
187.6981453413597
 21
164.3260100513699
 31
0.0
  0
LWPOLYLINE
  5
8482
330
18
100
AcDbEntity
  8
0
100
AcDbPolyline
 90
        4
 70
     1
 43
0.2
 10
198.0981453413597
 20
168.3260100513699
 10
200.0981453413597
 20
168.3260100513699
 10
200.0981453413597
 20
157.3260100513699
 10
198.0981453413597
 20
157.3260100513699
  0
LINE
  5
8483
330
18
100
AcDbEntity
  8
0
100
AcDbLine
 10
197.0981453413597
 20
169.3260100513699
 30
0.0
 11
197.0981453413597
 21
156.3260100513699
 31
0.0
  0
LINE
  5
8484
330
18
100
AcDbEntity
  8
0
100
AcDbLine
 10
194.0981453413597
 20
169.3260100513699
 30
0.0
 11
194.0981453413597
 21
156.3260100513699
 31
0.0
  0
LWPOLYLINE
  5
8485
330
18
100
AcDbEntity
  8
0
100
AcDbPolyline
 90
        4
 70
     1
 43
0.2
 10
200.6481453413598
 20
159.3260100513699
 10
200.6481453413598
 20
158.3260100513699
 10
200.0981453413597
 20
158.3260100513699
 10
200.0981453413597
 20
159.3260100513699
  0
LWPOLYLINE
  5
8486
330
18
100
AcDbEntity
  8
0
100
AcDbPolyline
 90
        4
 70
     1
 43
0.2
 10
200.6481453413598
 20
161.7260100513699
 10
200.6481453413598
 20
160.7260100513699
 10
200.0981453413597
 20
160.7260100513699
 10
200.0981453413597
 20
161.7260100513699
  0
LINE
  5
8487
330
18
100
AcDbEntity
  8
0
100
AcDbLine
 10
202.0981453413597
 20
155.9760100513699
 30
0.0
 11
198.0981453413597
 21
155.9760100513699
 31
0.0
  0
LINE
  5
8488
330
18
100
AcDbEntity
  8
0
100
AcDbLine
 10
203.4981453413597
 20
157.3260100513699
 30
0.0
 11
203.4981453413597
 21
161.3260100513699
 31
0.0
  0
LWPOLYLINE
  5
8489
330
18
100
AcDbEntity
  8
0
100
AcDbPolyline
 90
        4
 70
     1
 43
0.2
 10
200.6481453413598
 20
164.9260100513699
 10
200.6481453413598
 20
163.9260100513699
 10
200.0981453413597
 20
163.9260100513699
 10
200.0981453413597
 20
164.9260100513699
  0
LWPOLYLINE
  5
848A
330
18
100
AcDbEntity
  8
0
100
AcDbPolyline
 90
        4
 70
     1
 43
0.2
 10
200.6481453413598
 20
167.3260100513699
 10
200.6481453413598
 20
166.3260100513699
 10
200.0981453413597
 20
166.3260100513699
 10
200.0981453413597
 20
167.3260100513699
  0
LINE
  5
848B
330
18
100
AcDbEntity
  8
0
100
AcDbLine
 10
202.0981453413597
 20
169.7510100513699
 30
0.0
 11
198.0981453413597
 21
169.7510100513699
 31
0.0
  0
LINE
  5
848C
330
18
100
AcDbEntity
  8
0
100
AcDbLine
 10
203.4981453413597
 20
168.3260100513699
 30
0.0
 11
203.4981453413597
 21
164.3260100513699
 31
0.0
  0
TEXT
  5
848D
330
18
100
AcDbEntity
  8
0
100
AcDbText
 10
186.1539378779599
 20
151.4490258947975
 30
0.0
 40
2.2
  1
J2
  7
MSｺﾞｼｯｸ
100
AcDbText
  0
LINE
  5
848E
330
18
100
AcDbEntity
  8
0
100
AcDbLine
 10
222.6377303968864
 20
162.6306564209746
 30
0.0
 11
223.75876194419
 21
162.6306564209746
 31
0.0
1001
ACAD
1000
DSTYLE
1002
{
1070
    41
1040
1.0
1070
    40
1040
0.5
1002
}
  0
LWPOLYLINE
  5
848F
330
18
100
AcDbEntity
  8
0
100
AcDbPolyline
 90
        4
 70
     1
 43
0.2
 10
196.5731453413597
 20
215.8260100513699
 10
204.0981453413597
 20
215.8260100513699
 10
204.0981453413597
 20
202.8260100513699
 10
196.5731453413597
 20
202.8260100513699
  0
ELLIPSE
  5
8490
330
18
100
AcDbEntity
  8
0
100
AcDbEllipse
 10
202.5981453413598
 20
205.8010100513698
 30
0.0
 11
0.5
 21
0.0
 31
0.0
210
0.0
220
0.0
230
1.0
 40
0.95
 41
0.0
 42
6.283184999999999
  0
LWPOLYLINE
  5
8491
330
18
100
AcDbEntity
  8
0
100
AcDbPolyline
 90
        6
 70
     1
 43
0.2
 10
198.6481453413597
 20
206.2510100513699
 10
198.1981453413597
 20
205.8260100513699
 10
198.6481453413597
 20
205.4260100513698
 10
200.7481453413598
 20
205.4260100513698
 10
201.1731453413597
 20
205.8260100513699
 10
200.7481453413598
 20
206.2510100513699
  0
LWPOLYLINE
  5
8492
330
18
100
AcDbEntity
  8
0
100
AcDbPolyline
 90
        6
 70
     1
 43
0.2
 10
199.7231453413597
 20
213.52601005137
 10
199.2981453413597
 20
213.15101005137
 10
199.7231453413597
 20
212.72601005137
 10
201.8481453413597
 20
212.72601005137
 10
202.2481453413597
 20
213.15101005137
 10
201.8481453413597
 20
213.52601005137
  0
LWPOLYLINE
  5
8493
330
18
100
AcDbEntity
  8
0
100
AcDbPolyline
 90
        6
 70
     1
 43
0.2
 10
201.9981453413597
 20
209.4260100513698
 10
201.5981453413597
 20
209.0010100513699
 10
201.1731453413597
 20
206.22601005137
 10
201.5981453413597
 20
205.8260100513699
 10
201.9981453413597
 20
206.22601005137
 10
202.4481453413597
 20
209.0010100513699
  0
LWPOLYLINE
  5
8494
330
18
100
AcDbEntity
  8
0
100
AcDbPolyline
 90
        6
 70
     1
 43
0.2
 10
202.5731453413597
 20
213.15101005137
 10
202.1481453413597
 20
212.7510100513699
 10
201.7481453413597
 20
209.9510100513699
 10
202.1481453413597
 20
209.5510100513698
 10
202.5731453413597
 20
209.9510100513699
 10
202.9981453413598
 20
212.7510100513699
  0
LWPOLYLINE
  5
8495
330
18
100
AcDbEntity
  8
0
100
AcDbPolyline
 90
        6
 70
     1
 43
0.2
 10
198.3481453413597
 20
209.4260100513698
 10
197.9231453413597
 20
209.0010100513699
 10
197.5231453413598
 20
206.22601005137
 10
197.9231453413597
 20
205.8260100513699
 10
198.3481453413597
 20
206.22601005137
 10
198.7731453413598
 20
209.0010100513699
  0
LWPOLYLINE
  5
8496
330
18
100
AcDbEntity
  8
0
100
AcDbPolyline
 90
        6
 70
     1
 43
0.2
 10
199.1981453413597
 20
209.9510100513699
 10
198.7481453413597
 20
209.5510100513698
 10
199.1981453413597
 20
209.15101005137
 10
201.2981453413597
 20
209.15101005137
 10
201.6981453413597
 20
209.5510100513698
 10
201.2981453413597
 20
209.9510100513699
  0
LWPOLYLINE
  5
8497
330
18
100
AcDbEntity
  8
0
100
AcDbPolyline
 90
        6
 70
     1
 43
0.2
 10
198.8981453413597
 20
213.15101005137
 10
198.4981453413597
 20
212.7510100513699
 10
198.0731453413597
 20
209.9510100513699
 10
198.4981453413597
 20
209.5510100513698
 10
198.8981453413597
 20
209.9510100513699
 10
199.3481453413597
 20
212.7510100513699
  0
TEXT
  5
8498
330
18
100
AcDbEntity
  8
0
100
AcDbText
 10
165.1698503694104
 20
181.752371903973
 30
0.0
 40
4.0
  1
AC100V
  7
MSｺﾞｼｯｸ
100
AcDbText
  0
TEXT
  5
8499
330
18
100
AcDbEntity
  8
0
100
AcDbText
 10
185.9515688955815
 20
185.1485507469996
 30
0.0
 40
2.2
  1
J1
  7
MSｺﾞｼｯｸ
100
AcDbText
  0
TEXT
  5
849A
330
18
100
AcDbEntity
  8
0
100
AcDbText
 10
170.3508973330459
 20
208.1565086293088
 30
0.0
 40
4.0
  1
TB1
  7
MSｺﾞｼｯｸ
100
AcDbText
  0
LINE
  5
84AD
330
18
100
AcDbEntity
  8
0
100
AcDbLine
 10
341.7160733578152
 20
78.82601005136985
 30
0.0
 11
341.7160733578152
 21
70.82601005136985
 31
0.0
  0
LINE
  5
84AE
330
18
100
AcDbEntity
  8
0
100
AcDbLine
 10
341.7160733578152
 20
70.82601005136985
 30
0.0
 11
342.3827400244819
 21
70.82601005136985
 31
0.0
  0
LINE
  5
84AF
330
18
100
AcDbEntity
  8
0
100
AcDbLine
 10
342.3827400244819
 20
70.82601005136985
 30
0.0
 11
342.3827400244819
 21
78.82601005136985
 31
0.0
  0
LINE
  5
84B0
330
18
100
AcDbEntity
  8
0
100
AcDbLine
 10
342.3827400244819
 20
78.82601005136985
 30
0.0
 11
341.7160733578152
 21
78.82601005136985
 31
0.0
  0
LINE
  5
84B1
330
18
100
AcDbEntity
  8
0
100
AcDbLine
 10
341.0494066911486
 20
78.15934338470317
 30
0.0
 11
341.0494066911486
 21
71.49267671803648
 31
0.0
  0
LINE
  5
84B2
330
18
100
AcDbEntity
  8
0
100
AcDbLine
 10
341.0494066911486
 20
71.49267671803648
 30
0.0
 11
341.7160733578152
 21
71.49267671803648
 31
0.0
  0
LINE
  5
84B3
330
18
100
AcDbEntity
  8
0
100
AcDbLine
 10
341.7160733578152
 20
71.49267671803648
 30
0.0
 11
341.7160733578152
 21
78.15934338470317
 31
0.0
  0
LINE
  5
84B4
330
18
100
AcDbEntity
  8
0
100
AcDbLine
 10
341.7160733578152
 20
78.15934338470317
 30
0.0
 11
341.0494066911486
 21
78.15934338470317
 31
0.0
  0
TEXT
  5
84DF
330
18
100
AcDbEntity
  8
0
100
AcDbText
 10
447.7626336721448
 20
-45.2858513722982
 30
0.0
 40
6.0
  1
VC外形図　DeviceNet付
  7
MSｺﾞｼｯｸ
100
AcDbText
  0
TEXT
  5
84E0
330
18
100
AcDbEntity
  8
0
100
AcDbText
 10
419.9750167150134
 20
-16.45915434220589
 30
0.0
 40
6.0
  1
ＮＣＲ－＊ＡＥ＊Ａ１Ｄ－４０１（－Ｈ、－Ｓ＊＊）
 41
0.6
  7
MSｺﾞｼｯｸ
100
AcDbText
  0
TEXT
  5
84E1
330
18
100
AcDbEntity
  8
0
100
AcDbText
 10
419.9750167150134
 20
-9.03224163355113
 30
0.0
 40
6.0
  1
ＮＣＲ－＊ＡＤ＊Ａ１Ｄ－４０１＊（－Ｈ、－Ｓ＊＊）
 41
0.6
  7
MSｺﾞｼｯｸ
100
AcDbText
  0
TEXT
  5
84E2
330
18
100
AcDbEntity
  8
0
100
AcDbText
 10
419.9750167150134
 20
-2.458061961688571
 30
0.0
 40
6.0
  1
ＮＣＲ－＊ＡＣ＊Ａ１Ｄ－４０１（－Ｈ、－Ｓ＊＊）
 41
0.6
  7
MSｺﾞｼｯｸ
100
AcDbText
  0
TEXT
  5
84E3
330
18
100
AcDbEntity
  8
0
100
AcDbText
 10
419.9750167150134
 20
5.029674541315017
 30
0.0
 40
6.0
  1
ＮＣＲ－＊ＡＢ＊Ａ１Ｄ－４０１＊（－Ｈ、－Ｓ＊＊）
 41
0.6
  7
MSｺﾞｼｯｸ
100
AcDbText
  0
TEXT
  5
84E4
330
18
100
AcDbEntity
  8
0
100
AcDbText
 10
442.2798836066124
 20
-31.45817287773942
 30
0.0
 40
6.0
  1
ＮＣＲ－ＸＡＢ６Ｄ１＊－８０１
 41
0.6
  7
MSｺﾞｼｯｸ
100
AcDbText
  0
TEXT
  5
84E5
330
18
100
AcDbEntity
  8
0
100
AcDbText
 10
464.6156291389757
 20
-24.59081411323538
 30
0.0
 40
6.0
  1
＋
 41
0.6
  7
MSｺﾞｼｯｸ
100
AcDbText
  0
TEXT
  5
84E6
330
18
100
AcDbEntity
  8
0
100
AcDbText
 10
419.9750167150134
 20
24.8573612683821
 30
0.0
 40
6.0
  1
ＮＣＲ－＊ＡＥ＊Ａ２Ｄ－８０１（－Ｈ、－Ｓ＊＊）
 41
0.6
  7
MSｺﾞｼｯｸ
100
AcDbText
  0
TEXT
  5
84E7
330
18
100
AcDbEntity
  8
0
100
AcDbText
 10
419.9750167150134
 20
32.17937124457299
 30
0.0
 40
6.0
  1
ＮＣＲ－＊ＡＤ＊Ａ２Ｄ－８０１＊（－Ｈ、－Ｓ＊＊）
 41
0.6
  7
MSｺﾞｼｯｸ
100
AcDbText
  0
TEXT
  5
84E8
330
18
100
AcDbEntity
  8
0
100
AcDbText
 10
419.9750167150134
 20
46.05352177149464
 30
0.0
 40
6.0
  1
ＮＣＲ－＊ＡＢ＊Ａ２Ｄ－８０１＊（－Ｈ、－Ｓ＊＊）
 41
0.6
  7
MSｺﾞｼｯｸ
100
AcDbText
  0
TEXT
  5
84E9
330
18
100
AcDbEntity
  8
0
100
AcDbText
 10
419.9750167150134
 20
39.20665650145534
 30
0.0
 40
6.0
  1
ＮＣＲ－＊ＡＣ＊Ａ２Ｄ－８０１（－Ｈ、－Ｓ＊＊）
 41
0.6
  7
MSｺﾞｼｯｸ
100
AcDbText
  0
TEXT
  5
84EA
330
18
100
AcDbEntity
  8
0
100
AcDbText
 10
419.9750167150134
 20
17.7631596665266
 30
0.0
 40
6.0
  1
ＮＣＲ－＊Ａ＊＊Ａ２Ｃ－８０１－ＵＬ
 41
0.6
  7
MSｺﾞｼｯｸ
100
AcDbText
  0
TEXT
  5
84EB
330
18
100
AcDbEntity
  8
0
100
AcDbText
 10
458.4281402618353
 20
-57.15059192354849
 30
0.0
 40
7.0
  1
ＳＥ－３１８６１Ｂ
 41
0.9529999999999999
  7
MSｺﾞｼｯｸ
100
AcDbText
  0
ARC
  5
84EC
330
18
100
AcDbEntity
  8
0
100
AcDbCircle
 10
433.8810647098808
 20
-2.274382206459257
 30
0.0
 40
22.08197524384106
100
AcDbArc
 50
142.1748451196283
 51
221.5833942896595
  0
ARC
  5
84ED
330
18
100
AcDbEntity
  8
0
100
AcDbCircle
 10
449.868221880263
 20
34.20554294172623
 30
0.0
 40
37.53875245365184
100
AcDbArc
 50
149.2737021075378
 51
209.274888307385
  0
TEXT
  5
84EE
330
18
100
AcDbEntity
  8
0
100
AcDbText
 10
403.6469919542979
 20
34.41916254011229
 30
0.0
 40
5.0
  1
Ａ
  7
MSｺﾞｼｯｸ
100
AcDbText
  0
TEXT
  5
84EF
330
18
100
AcDbEntity
  8
0
100
AcDbText
 10
404.1224512783409
 20
-4.43422086344303
 30
0.0
 40
5.0
  1
Ｂ
  7
MSｺﾞｼｯｸ
100
AcDbText
  0
VIEWPORT
  5
854D
330
8549
100
AcDbEntity
 67
     1
  8
0
100
AcDbViewport
 10
202.4999999999999
 20
128.4999999999999
 30
0.0
 40
486.0
 41
308.3999999999999
 68
     1
 69
     1
 12
202.4999999999999
 22
128.4999999999999
 13
0.0
 23
0.0
 14
0.5
 24
0.5
 15
0.0
 25
0.0
 16
0.0
 26
0.0
 36
1.0
 17
0.0
 27
0.0
 37
0.0
 42
50.0
 43
0.0
 44
0.0
 45
308.3999999999999
 50
0.0
 51
0.0
 72
   100
 90
    32864
  1

281
     0
 71
     1
 74
     0
110
0.0
120
0.0
130
0.0
111
1.0
121
0.0
131
0.0
112
0.0
122
1.0
132
0.0
 79
     0
146
0.0
  0
VIEWPORT
  5
854E
330
8549
100
AcDbEntity
 67
     1
  8
0
100
AcDbViewport
 10
202.4999999999999
 20
128.4999999999999
 30
0.0
 40
324.0
 41
205.6
 68
     2
 69
     2
 12
324.5746958015975
 22
92.83770906391081
 13
0.0
 23
0.0
 14
0.5
 24
0.5
 15
0.0
 25
0.0
 16
0.0
 26
0.0
 36
1.0
 17
0.0
 27
0.0
 37
0.0
 42
50.0
 43
0.0
 44
0.0
 45
305.9761340144169
 50
0.0
 51
0.0
 72
   100
 90
    32864
  1

281
     0
 71
     1
 74
     0
110
0.0
120
0.0
130
0.0
111
1.0
121
0.0
131
0.0
112
0.0
122
1.0
132
0.0
 79
     0
146
0.0
  0
ENDSEC
  0
SECTION
  2
OBJECTS
  0
DICTIONARY
  5
C
330
0
100
AcDbDictionary
281
     1
  3
ACAD_GROUP
350
D
  3
ACAD_IMAGE_VARS
350
8547
  3
ACAD_LAYOUT
350
73F
  3
ACAD_MLINESTYLE
350
1B
  3
ACAD_PLOTSETTINGS
350
740
  3
ACAD_PLOTSTYLENAME
350
73D
  3
ACAD_SCALELIST
350
851B
  3
AcadDim
350
61D4
  3
AcDbVariableDictionary
350
7046
  3
APPDATA
350
8545
  3
DWGPROPS
350
8553
  0
DICTIONARY
  5
D
102
{ACAD_REACTORS
330
C
102
}
330
C
100
AcDbDictionary
281
     1
  0
RASTERVARIABLES
  5
8547
102
{ACAD_REACTORS
330
C
102
}
330
C
100
AcDbRasterVariables
 90
        0
 70
     1
 71
     1
 72
     0
  0
DICTIONARY
  5
73F
102
{ACAD_REACTORS
330
C
102
}
330
C
100
AcDbDictionary
281
     1
  3
Model
350
741
  3
Sheet1
350
854A
  0
DICTIONARY
  5
1B
102
{ACAD_REACTORS
330
C
102
}
330
C
100
AcDbDictionary
281
     1
  3
STANDARD
350
1C
  0
DICTIONARY
  5
740
102
{ACAD_REACTORS
330
C
102
}
330
C
100
AcDbDictionary
281
     1
  0
ACDBDICTIONARYWDFLT
  5
73D
102
{ACAD_REACTORS
330
C
102
}
330
C
100
AcDbDictionary
281
     1
  3
Normal
350
73E
100
AcDbDictionaryWithDefault
340
73E
  0
DICTIONARY
  5
851B
102
{ACAD_REACTORS
330
C
102
}
330
C
100
AcDbDictionary
281
     1
  3
A0
350
851C
  3
A1
350
851D
  3
A2
350
851E
  3
A3
350
851F
  3
A4
350
8520
  3
A5
350
8521
  3
A6
350
8522
  3
A7
350
8523
  3
A8
350
8524
  3
A9
350
8525
  3
B0
350
8526
  3
B1
350
8527
  3
B2
350
8528
  3
B3
350
8529
  3
B4
350
852A
  3
B5
350
852B
  3
B6
350
852C
  3
B7
350
852D
  3
B8
350
852E
  3
B9
350
852F
  3
C0
350
8530
  3
C1
350
8531
  3
C2
350
8532
  3
C3
350
8533
  3
C4
350
8534
  3
C5
350
8535
  3
C6
350
8536
  3
C7
350
8537
  3
C8
350
8538
  3
C9
350
8539
  3
D0
350
853A
  3
D1
350
853B
  3
D2
350
853C
  0
XRECORD
  5
61D4
102
{ACAD_REACTORS
330
C
102
}
330
C
100
AcDbXrecord
280
     1
 90
   990106
  3

 60
     0
 61
     0
 62
     1
 63
     3
 64
     0
 65
     0
 66
     0
 67
     3
 68
     1
 69
     0
 70
     0
 71
     0
 72
     0
 40
0.0
170
     0
  0
DICTIONARY
  5
7046
102
{ACAD_REACTORS
330
C
102
}
330
C
100
AcDbDictionary
281
     1
  3
DIMASSOC
350
7047
  0
DICTIONARY
  5
8545
102
{ACAD_REACTORS
330
C
102
}
330
C
100
AcDbDictionary
281
     1
  0
XRECORD
  5
8553
102
{ACAD_REACTORS
330
C
102
}
330
C
100
AcDbXrecord
280
     1
  1
DWGPROPS COOKIE
  2

  3

  4

  6

  7

  8
k-yoshida
  9

300
=
301
=
302
=
303
=
304
=
305
=
306
=
307
=
308
=
309
=
 40
0.0
 41
2451224.285162384
 42
2457315.193982581
  1

 90
        0
  0
LAYOUT
  5
741
102
{ACAD_REACTORS
330
73F
102
}
330
73F
100
AcDbPlotSettings
  1

  2
HP DesignJet 750C (D/A1) Color
  4
ISO_A3_(420.00_x_297.00_MM)
  6

 40
7.5
 41
20.0
 42
7.5
 43
20.0
 44
420.0
 45
297.0
 46
0.0
 47
0.0
 48
0.0
 49
0.0
140
0.0
141
0.0
142
1.0
143
0.662832978921069
 70
  1712
 72
     1
 73
     0
 74
     0
  7

 75
     0
147
1.508675687241387
148
-314.1355614828762
149
67.72098731918863
100
AcDbLayout
  1
Model
 70
     1
 71
     0
 10
0.0
 20
0.0
 11
12.0
 21
9.0
 12
0.0
 22
0.0
 32
0.0
 14
114.0981453413597
 24
-57.15059192354849
 34
0.0
 15
535.0512462618353
 25
242.82601005137
 35
0.0
146
0.0
 13
0.0
 23
0.0
 33
0.0
 16
1.0
 26
0.0
 36
0.0
 17
0.0
 27
1.0
 37
0.0
 76
     0
330
18
  0
LAYOUT
  5
854A
102
{ACAD_REACTORS
330
73F
102
}
330
73F
100
AcDbPlotSettings
  1

  2
none_device
  4
ISO_A3_(420.00_x_297.00_MM)
  6

 40
7.5
 41
20.0
 42
7.5
 43
20.0
 44
420.0
 45
297.0
 46
0.0
 47
0.0
 48
0.0
 49
0.0
140
0.0
141
0.0
142
1.0
143
1.0
 70
   688
 72
     1
 73
     0
 74
     5
  7

 75
    16
147
1.0
148
0.0
149
0.0
100
AcDbLayout
  1
Sheet1
 70
     1
 71
     1
 10
0.0
 20
0.0
 11
0.0
 21
0.0
 12
0.0
 22
0.0
 32
0.0
 14
40.49999999999999
 24
25.69999999999998
 34
0.0
 15
364.5
 25
231.3
 35
0.0
146
0.0
 13
0.0
 23
0.0
 33
0.0
 16
1.0
 26
0.0
 36
0.0
 17
0.0
 27
1.0
 37
0.0
 76
     0
330
8549
331
854D
  0
MLINESTYLE
  5
1C
102
{ACAD_REACTORS
330
1B
102
}
330
1B
100
AcDbMlineStyle
  2
STANDARD
 70
     0
  3

 62
   256
 51
90.0
 52
90.0
 71
     2
 49
0.5
 62
   256
  6
BYLAYER
 49
-0.5
 62
   256
  6
BYLAYER
  0
ACDBPLACEHOLDER
  5
73E
102
{ACAD_REACTORS
330
73D
102
}
330
73D
  0
ACAD_PROXY_OBJECT
  5
851C
102
{ACAD_REACTORS
330
851B
102
}
330
851B
100
AcDbProxyObject
 90
      499
 91
      507
 95
   655383
 70
     0
 93
       41
310
903313A31581
 94
        0
  0
ACAD_PROXY_OBJECT
  5
851D
102
{ACAD_REACTORS
330
851B
102
}
330
851B
100
AcDbProxyObject
 90
      499
 91
      507
 95
   655383
 70
     0
 93
      105
310
903313A324000000000000004042
 94
        0
  0
ACAD_PROXY_OBJECT
  5
851E
102
{ACAD_REACTORS
330
851B
102
}
330
851B
100
AcDbProxyObject
 90
      499
 91
      507
 95
   655383
 70
     0
 93
      105
310
903313A344000000000000104042
 94
        0
  0
ACAD_PROXY_OBJECT
  5
851F
102
{ACAD_REACTORS
330
851B
102
}
330
851B
100
AcDbProxyObject
 90
      499
 91
      507
 95
   655383
 70
     0
 93
      105
310
903313A354000000000000144042
 94
        0
  0
ACAD_PROXY_OBJECT
  5
8520
102
{ACAD_REACTORS
330
851B
102
}
330
851B
100
AcDbProxyObject
 90
      499
 91
      507
 95
   655383
 70
     0
 93
      105
310
903313A384000000000000204042
 94
        0
  0
ACAD_PROXY_OBJECT
  5
8521
102
{ACAD_REACTORS
330
851B
102
}
330
851B
100
AcDbProxyObject
 90
      499
 91
      507
 95
   655383
 70
     0
 93
      113
310
904313A31304000000000000244000
 94
        0
  0
ACAD_PROXY_OBJECT
  5
8522
102
{ACAD_REACTORS
330
851B
102
}
330
851B
100
AcDbProxyObject
 90
      499
 91
      507
 95
   655383
 70
     0
 93
      113
310
904313A31364000000000000304000
 94
        0
  0
ACAD_PROXY_OBJECT
  5
8523
102
{ACAD_REACTORS
330
851B
102
}
330
851B
100
AcDbProxyObject
 90
      499
 91
      507
 95
   655383
 70
     0
 93
      113
310
904313A32304000000000000344000
 94
        0
  0
ACAD_PROXY_OBJECT
  5
8524
102
{ACAD_REACTORS
330
851B
102
}
330
851B
100
AcDbProxyObject
 90
      499
 91
      507
 95
   655383
 70
     0
 93
      113
310
904313A333040000000000003E4000
 94
        0
  0
ACAD_PROXY_OBJECT
  5
8525
102
{ACAD_REACTORS
330
851B
102
}
330
851B
100
AcDbProxyObject
 90
      499
 91
      507
 95
   655383
 70
     0
 93
      113
310
904313A34304000000000000444000
 94
        0
  0
ACAD_PROXY_OBJECT
  5
8526
102
{ACAD_REACTORS
330
851B
102
}
330
851B
100
AcDbProxyObject
 90
      499
 91
      507
 95
   655383
 70
     0
 93
      113
310
904313A35304000000000000494000
 94
        0
  0
ACAD_PROXY_OBJECT
  5
8527
102
{ACAD_REACTORS
330
851B
102
}
330
851B
100
AcDbProxyObject
 90
      499
 91
      507
 95
   655383
 70
     0
 93
      121
310
905313A3130304000000000000594000
 94
        0
  0
ACAD_PROXY_OBJECT
  5
8528
102
{ACAD_REACTORS
330
851B
102
}
330
851B
100
AcDbProxyObject
 90
      499
 91
      507
 95
   655383
 70
     0
 93
      105
310
903323A310000000000000010159
 94
        0
  0
ACAD_PROXY_OBJECT
  5
8529
102
{ACAD_REACTORS
330
851B
102
}
330
851B
100
AcDbProxyObject
 90
      499
 91
      507
 95
   655383
 70
     0
 93
      105
310
903343A310000000000000410159
 94
        0
  0
ACAD_PROXY_OBJECT
  5
852A
102
{ACAD_REACTORS
330
851B
102
}
330
851B
100
AcDbProxyObject
 90
      499
 91
      507
 95
   655383
 70
     0
 93
      105
310
903383A310000000000000810159
 94
        0
  0
ACAD_PROXY_OBJECT
  5
852B
102
{ACAD_REACTORS
330
851B
102
}
330
851B
100
AcDbProxyObject
 90
      499
 91
      507
 95
   655383
 70
     0
 93
      113
310
90431303A310000000000000910140
 94
        0
  0
ACAD_PROXY_OBJECT
  5
852C
102
{ACAD_REACTORS
330
851B
102
}
330
851B
100
AcDbProxyObject
 90
      499
 91
      507
 95
   655383
 70
     0
 93
      121
310
9053130303A310000000000001650100
 94
        0
  0
ACAD_PROXY_OBJECT
  5
852D
102
{ACAD_REACTORS
330
851B
102
}
330
851B
100
AcDbProxyObject
 90
      499
 91
      507
 95
   655383
 70
     0
 93
      257
310
90E312F31323822203D2031272D3022000000000000200FC000000000000284000
 94
        0
  0
ACAD_PROXY_OBJECT
  5
852E
102
{ACAD_REACTORS
330
851B
102
}
330
851B
100
AcDbProxyObject
 90
      499
 91
      507
 95
   655383
 70
     0
 93
      249
310
90D312F363422203D2031272D3022000000000000240FC000000000000284040
 94
        0
  0
ACAD_PROXY_OBJECT
  5
852F
102
{ACAD_REACTORS
330
851B
102
}
330
851B
100
AcDbProxyObject
 90
      499
 91
      507
 95
   655383
 70
     0
 93
      249
310
90D312F333222203D2031272D3022000000000000280FC000000000000284040
 94
        0
  0
ACAD_PROXY_OBJECT
  5
8530
102
{ACAD_REACTORS
330
851B
102
}
330
851B
100
AcDbProxyObject
 90
      499
 91
      507
 95
   655383
 70
     0
 93
      249
310
90D312F313622203D2031272D30220000000000002C0FC000000000000284040
 94
        0
  0
ACAD_PROXY_OBJECT
  5
8531
102
{ACAD_REACTORS
330
851B
102
}
330
851B
100
AcDbProxyObject
 90
      499
 91
      507
 95
   655383
 70
     0
 93
      249
310
90D332F333222203D2031272D30220000000000002E0FC000000000000284040
 94
        0
  0
ACAD_PROXY_OBJECT
  5
8532
102
{ACAD_REACTORS
330
851B
102
}
330
851B
100
AcDbProxyObject
 90
      499
 91
      507
 95
   655383
 70
     0
 93
      241
310
90C312F3822203D2031272D3022000000000000300FC000000000000284040
 94
        0
  0
ACAD_PROXY_OBJECT
  5
8533
102
{ACAD_REACTORS
330
851B
102
}
330
851B
100
AcDbProxyObject
 90
      499
 91
      507
 95
   655383
 70
     0
 93
      249
310
90D332F313622203D2031272D3022000000000000320FC000000000000284040
 94
        0
  0
ACAD_PROXY_OBJECT
  5
8534
102
{ACAD_REACTORS
330
851B
102
}
330
851B
100
AcDbProxyObject
 90
      499
 91
      507
 95
   655383
 70
     0
 93
      241
310
90C312F3422203D2031272D3022000000000000340FC000000000000284040
 94
        0
  0
ACAD_PROXY_OBJECT
  5
8535
102
{ACAD_REACTORS
330
851B
102
}
330
851B
100
AcDbProxyObject
 90
      499
 91
      507
 95
   655383
 70
     0
 93
      241
310
90C332F3822203D2031272D3022000000000000360FC000000000000284040
 94
        0
  0
ACAD_PROXY_OBJECT
  5
8536
102
{ACAD_REACTORS
330
851B
102
}
330
851B
100
AcDbProxyObject
 90
      499
 91
      507
 95
   655383
 70
     0
 93
      241
310
90C312F3222203D2031272D3022000000000000380FC000000000000284040
 94
        0
  0
ACAD_PROXY_OBJECT
  5
8537
102
{ACAD_REACTORS
330
851B
102
}
330
851B
100
AcDbProxyObject
 90
      499
 91
      507
 95
   655383
 70
     0
 93
      241
310
90C332F3422203D2031272D30220000000000003A0FC000000000000284040
 94
        0
  0
ACAD_PROXY_OBJECT
  5
8538
102
{ACAD_REACTORS
330
851B
102
}
330
851B
100
AcDbProxyObject
 90
      499
 91
      507
 95
   655383
 70
     0
 93
      161
310
90A3122203D2031272D30224000000000000284020
 94
        0
  0
ACAD_PROXY_OBJECT
  5
8539
102
{ACAD_REACTORS
330
851B
102
}
330
851B
100
AcDbProxyObject
 90
      499
 91
      507
 95
   655383
 70
     0
 93
      257
310
90E312D312F3222203D2031272D30220000000000003E0FC000000000000284000
 94
        0
  0
ACAD_PROXY_OBJECT
  5
853A
102
{ACAD_REACTORS
330
851B
102
}
330
851B
100
AcDbProxyObject
 90
      499
 91
      507
 95
   655383
 70
     0
 93
      225
310
90A3322203D2031272D302200000000000002100000000000000284000
 94
        0
  0
ACAD_PROXY_OBJECT
  5
853B
102
{ACAD_REACTORS
330
851B
102
}
330
851B
100
AcDbProxyObject
 90
      499
 91
      507
 95
   655383
 70
     0
 93
      225
310
90A3622203D2031272D302200000000000006100000000000000284000
 94
        0
  0
ACAD_PROXY_OBJECT
  5
853C
102
{ACAD_REACTORS
330
851B
102
}
330
851B
100
AcDbProxyObject
 90
      499
 91
      507
 95
   655383
 70
     0
 93
      249
310
90D31272D3022203D2031272D30220000000000000A100000000000000284040
 94
        0
  0
DICTIONARYVAR
  5
7047
102
{ACAD_REACTORS
330
7046
102
}
330
7046
100
DictionaryVariables
280
     0
  1
1
  0
ENDSEC
  0
EOF
