  0
SECTION
  2
HEADER
  9
$ACADVER
  1
AC1015
  9
$ACADMAINTVER
 70
    10
  9
$DWGCODEPAGE
  3
ANSI_932
  9
$INSBASE
 10
0.0
 20
0.0
 30
0.0
  9
$EXTMIN
 10
98.05838392721467
 20
-560.1295927096775
 30
0.0
  9
$EXTMAX
 10
485.0095545159125
 20
-206.7155857461932
 30
0.0
  9
$LIMMIN
 10
0.0
 20
0.0
  9
$LIMMAX
 10
420.0
 20
297.0
  9
$ORTHOMODE
 70
     0
  9
$REGENMODE
 70
     1
  9
$FILLMODE
 70
     1
  9
$QTEXTMODE
 70
     0
  9
$MIRRTEXT
 70
     1
  9
$LTSCALE
 40
1.0
  9
$ATTMODE
 70
     1
  9
$TEXTSIZE
 40
3.0
  9
$TRACEWID
 40
1.0
  9
$TEXTSTYLE
  7
STANDARD
  9
$CLAYER
  8
0
  9
$CELTYPE
  6
BYLAYER
  9
$CECOLOR
 62
   256
  9
$CELTSCALE
 40
1.0
  9
$DISPSILH
 70
     0
  9
$DIMSCALE
 40
1.0
  9
$DIMASZ
 40
1.5
  9
$DIMEXO
 40
0.5
  9
$DIMDLI
 40
5.0
  9
$DIMRND
 40
0.0
  9
$DIMDLE
 40
0.0
  9
$DIMEXE
 40
0.75
  9
$DIMTP
 40
0.0
  9
$DIMTM
 40
0.0
  9
$DIMTXT
 40
3.0
  9
$DIMCEN
 40
2.5
  9
$DIMTSZ
 40
0.0
  9
$DIMTOL
 70
     0
  9
$DIMLIM
 70
     0
  9
$DIMTIH
 70
     0
  9
$DIMTOH
 70
     0
  9
$DIMSE1
 70
     0
  9
$DIMSE2
 70
     0
  9
$DIMTAD
 70
     1
  9
$DIMZIN
 70
     9
  9
$DIMBLK
  1

  9
$DIMASO
 70
     1
  9
$DIMSHO
 70
     1
  9
$DIMPOST
  1

  9
$DIMAPOST
  1

  9
$DIMALT
 70
     0
  9
$DIMALTD
 70
     4
  9
$DIMALTF
 40
0.0394
  9
$DIMLFAC
 40
1.0
  9
$DIMTOFL
 70
     1
  9
$DIMTVP
 40
0.0
  9
$DIMTIX
 70
     0
  9
$DIMSOXD
 70
     0
  9
$DIMSAH
 70
     1
  9
$DIMBLK1
  1
OPEN
  9
$DIMBLK2
  1
OPEN
  9
$DIMSTYLE
  2
STANDARD
  9
$DIMCLRD
 70
     0
  9
$DIMCLRE
 70
     0
  9
$DIMCLRT
 70
     7
  9
$DIMTFAC
 40
1.0
  9
$DIMGAP
 40
0.5
  9
$DIMJUST
 70
     0
  9
$DIMSD1
 70
     0
  9
$DIMSD2
 70
     0
  9
$DIMTOLJ
 70
     1
  9
$DIMTZIN
 70
     9
  9
$DIMALTZ
 70
     0
  9
$DIMALTTZ
 70
     0
  9
$DIMUPT
 70
     0
  9
$DIMDEC
 70
     4
  9
$DIMTDEC
 70
     4
  9
$DIMALTU
 70
     8
  9
$DIMALTTD
 70
     4
  9
$DIMTXSTY
  7
STANDARD
  9
$DIMAUNIT
 70
     0
  9
$DIMADEC
 70
     0
  9
$DIMALTRND
 40
0.0
  9
$DIMAZIN
 70
     2
  9
$DIMDSEP
 70
    46
  9
$DIMATFIT
 70
     3
  9
$DIMFRAC
 70
     0
  9
$DIMLDRBLK
  1
OPEN
  9
$DIMLUNIT
 70
     2
  9
$DIMLWD
 70
    -2
  9
$DIMLWE
 70
    -2
  9
$DIMTMOVE
 70
     2
  9
$LUNITS
 70
     2
  9
$LUPREC
 70
     4
  9
$SKETCHINC
 40
1.0
  9
$FILLETRAD
 40
10.0
  9
$AUNITS
 70
     0
  9
$AUPREC
 70
     0
  9
$MENU
  1
.
  9
$ELEVATION
 40
0.0
  9
$PELEVATION
 40
0.0
  9
$THICKNESS
 40
0.0
  9
$LIMCHECK
 70
     0
  9
$CHAMFERA
 40
10.0
  9
$CHAMFERB
 40
10.0
  9
$CHAMFERC
 40
20.0
  9
$CHAMFERD
 40
0.0
  9
$SKPOLY
 70
     0
  9
$TDCREATE
 40
2451224.660162384
  9
$TDUCREATE
 40
2451224.285162384
  9
$TDUPDATE
 40
2457366.481574791
  9
$TDUUPDATE
 40
2457366.106574791
  9
$TDINDWG
 40
1.3308356250
  9
$TDUSRTIMER
 40
2457315.080069850
  9
$USRTIMER
 70
     1
  9
$ANGBASE
 50
0.0
  9
$ANGDIR
 70
     0
  9
$PDMODE
 70
     0
  9
$PDSIZE
 40
0.0
  9
$PLINEWID
 40
0.0
  9
$SPLFRAME
 70
     0
  9
$SPLINETYPE
 70
     6
  9
$SPLINESEGS
 70
     8
  9
$HANDSEED
  5
8893
  9
$SURFTAB1
 70
     6
  9
$SURFTAB2
 70
     6
  9
$SURFTYPE
 70
     6
  9
$SURFU
 70
     6
  9
$SURFV
 70
     6
  9
$UCSBASE
  2

  9
$UCSNAME
  2

  9
$UCSORG
 10
0.0
 20
0.0
 30
0.0
  9
$UCSXDIR
 10
1.0
 20
0.0
 30
0.0
  9
$UCSYDIR
 10
0.0
 20
1.0
 30
0.0
  9
$UCSORTHOREF
  2

  9
$UCSORTHOVIEW
 70
     0
  9
$UCSORGTOP
 10
0.0
 20
0.0
 30
0.0
  9
$UCSORGBOTTOM
 10
0.0
 20
0.0
 30
0.0
  9
$UCSORGLEFT
 10
0.0
 20
0.0
 30
0.0
  9
$UCSORGRIGHT
 10
0.0
 20
0.0
 30
0.0
  9
$UCSORGFRONT
 10
0.0
 20
0.0
 30
0.0
  9
$UCSORGBACK
 10
0.0
 20
0.0
 30
0.0
  9
$PUCSBASE
  2

  9
$PUCSNAME
  2

  9
$PUCSORG
 10
0.0
 20
0.0
 30
0.0
  9
$PUCSXDIR
 10
1.0
 20
0.0
 30
0.0
  9
$PUCSYDIR
 10
0.0
 20
1.0
 30
0.0
  9
$PUCSORTHOREF
  2

  9
$PUCSORTHOVIEW
 70
     0
  9
$PUCSORGTOP
 10
0.0
 20
0.0
 30
0.0
  9
$PUCSORGBOTTOM
 10
0.0
 20
0.0
 30
0.0
  9
$PUCSORGLEFT
 10
0.0
 20
0.0
 30
0.0
  9
$PUCSORGRIGHT
 10
0.0
 20
0.0
 30
0.0
  9
$PUCSORGFRONT
 10
0.0
 20
0.0
 30
0.0
  9
$PUCSORGBACK
 10
0.0
 20
0.0
 30
0.0
  9
$USERI1
 70
     0
  9
$USERI2
 70
     0
  9
$USERI3
 70
     0
  9
$USERI4
 70
     0
  9
$USERI5
 70
     0
  9
$USERR1
 40
0.0
  9
$USERR2
 40
0.0
  9
$USERR3
 40
0.0
  9
$USERR4
 40
0.0
  9
$USERR5
 40
0.0
  9
$WORLDVIEW
 70
     1
  9
$SHADEDGE
 70
     3
  9
$SHADEDIF
 70
    70
  9
$TILEMODE
 70
     1
  9
$MAXACTVP
 70
    48
  9
$PINSBASE
 10
0.0
 20
0.0
 30
0.0
  9
$PLIMCHECK
 70
     0
  9
$PEXTMIN
 10
40.49999999999999
 20
25.69999999999998
 30
0.0
  9
$PEXTMAX
 10
364.5
 20
231.3
 30
0.0
  9
$PLIMMIN
 10
0.0
 20
0.0
  9
$PLIMMAX
 10
0.0
 20
0.0
  9
$UNITMODE
 70
     0
  9
$VISRETAIN
 70
     1
  9
$PLINEGEN
 70
     0
  9
$PSLTSCALE
 70
     1
  9
$TREEDEPTH
 70
  3020
  9
$CMLSTYLE
  2
STANDARD
  9
$CMLJUST
 70
     0
  9
$CMLSCALE
 40
20.0
  9
$PROXYGRAPHICS
 70
     1
  9
$MEASUREMENT
 70
     1
  9
$CELWEIGHT
370
    -1
  9
$ENDCAPS
280
     0
  9
$JOINSTYLE
280
     0
  9
$LWDISPLAY
290
     0
  9
$INSUNITS
 70
     0
  9
$HYPERLINKBASE
  1

  9
$STYLESHEET
  1

  9
$XEDIT
290
     1
  9
$CEPSNTYPE
380
     0
  9
$PSTYLEMODE
290
     1
  9
$FINGERPRINTGUID
  2
{6B368F64-F7EB-11D4-BFBA-00004C030E53}
  9
$VERSIONGUID
  2
{BB7C7F5C-B2A9-4D60-A917-2FD5AED29492}
  9
$EXTNAMES
290
     1
  9
$PSVPSCALE
 40
0.0
  9
$OLESTARTUP
290
     0
  0
ENDSEC
  0
SECTION
  2
CLASSES
  0
CLASS
  1
HATCH
  2
AcDbHatch
  3
AutoCAD 2000
 90
    32768
280
     0
281
     1
  0
CLASS
  1
LWPOLYLINE
  2
AcDbPolyline
  3
AutoCAD 2000
 90
    32768
280
     0
281
     1
  0
CLASS
  1
ACDBDICTIONARYWDFLT
  2
AcDbDictionaryWithDefault
  3
AutoCAD 2000
 90
        0
280
     0
281
     0
  0
CLASS
  1
ACDBPLACEHOLDER
  2
AcDbPlaceHolder
  3
AutoCAD 2000
 90
        0
280
     0
281
     0
  0
CLASS
  1
LAYOUT
  2
AcDbLayout
  3
AutoCAD 2000
 90
        0
280
     0
281
     0
  0
CLASS
  1
DICTIONARYVAR
  2
AcDbDictionaryVar
  3
AutoCAD 2000
 90
        0
280
     0
281
     0
  0
CLASS
  1
VISUALSTYLE
  2
AcDbVisualStyle
  3
ObjectDBX Classes
 90
    36863
280
     0
281
     0
  0
CLASS
  1
SCALE
  2
AcDbScale
  3
ObjectDBX Classes
 90
     1153
280
     0
281
     0
  0
CLASS
  1
MATERIAL
  2
AcDbMaterial
  3
ObjectDBX Classes
 90
    33921
280
     0
281
     0
  0
CLASS
  1
TABLESTYLE
  2
AcDbTableStyle
  3
ObjectDBX Classes
 90
    36863
280
     0
281
     0
  0
CLASS
  1
MLEADERSTYLE
  2
AcDbMLeaderStyle
  3
ACDB_MLEADERSTYLE_CLASS
 90
    36863
280
     0
281
     0
  0
CLASS
  1
SUN
  2
AcDbSun
  3
SCENEOE
 90
     1153
280
     0
281
     0
  0
CLASS
  1
RASTERVARIABLES
  2
AcDbRasterVariables
  3
ISM
 90
        0
280
     0
281
     0
  0
ENDSEC
  0
SECTION
  2
TABLES
  0
TABLE
  2
VPORT
  5
8
330
0
100
AcDbSymbolTable
 70
     2
  0
VPORT
  5
8892
330
8
100
AcDbSymbolTableRecord
100
AcDbViewportTableRecord
  2
*Active
 70
     0
 10
0.0
 20
0.0
 11
1.0
 21
1.0
 12
347.1388171591183
 22
-375.83689152014
 13
0.0
 23
0.0
 14
10.0
 24
10.0
 15
10.0
 25
10.0
 16
0.0
 26
0.0
 36
1.0
 17
0.0
 27
0.0
 37
0.0
 40
424.8612166917159
 41
1.562182741116751
 42
50.0
 43
0.0
 44
0.0
 50
0.0
 51
0.0
 71
    16
 72
   100
 73
     1
 74
     0
 75
     0
 76
     0
 77
     0
 78
     0
281
     0
 65
     1
110
0.0
120
0.0
130
0.0
111
1.0
121
0.0
131
0.0
112
0.0
122
1.0
132
0.0
 79
     0
146
0.0
  0
ENDTAB
  0
TABLE
  2
LTYPE
  5
5
330
0
100
AcDbSymbolTable
 70
     1
  0
LTYPE
  5
12
330
5
100
AcDbSymbolTableRecord
100
AcDbLinetypeTableRecord
  2
BYBLOCK
 70
     0
  3

 72
    65
 73
     0
 40
0.0
  0
LTYPE
  5
13
330
5
100
AcDbSymbolTableRecord
100
AcDbLinetypeTableRecord
  2
BYLAYER
 70
     0
  3

 72
    65
 73
     0
 40
0.0
  0
LTYPE
  5
14
330
5
100
AcDbSymbolTableRecord
100
AcDbLinetypeTableRecord
  2
CONTINUOUS
 70
     0
  3
Solid line
 72
    65
 73
     0
 40
0.0
  0
ENDTAB
  0
TABLE
  2
LAYER
  5
2
330
0
100
AcDbSymbolTable
 70
     1
  0
LAYER
  5
E
330
2
100
AcDbSymbolTableRecord
100
AcDbLayerTableRecord
  2
0
 70
     0
 62
     7
  6
CONTINUOUS
370
    -3
390
73E
  0
ENDTAB
  0
TABLE
  2
STYLE
  5
3
330
0
100
AcDbSymbolTable
 70
     2
  0
STYLE
  5
F
330
3
100
AcDbSymbolTableRecord
100
AcDbTextStyleTableRecord
  2
STANDARD
 70
     0
 40
0.0
 41
1.0
 50
0.0
 71
     0
 42
3.0
  3
isocp.shx
  4
bigfont.shx
  0
STYLE
  5
35
330
3
100
AcDbSymbolTableRecord
100
AcDbTextStyleTableRecord
  2
MSｺﾞｼｯｸ
 70
     0
 40
0.0
 41
1.0
 50
0.0
 71
     0
 42
5.0
  3
MS Gothic.ttf
  4

1001
ACAD
1000
MS Gothic
1071
    32817
  0
ENDTAB
  0
TABLE
  2
VIEW
  5
6
330
0
100
AcDbSymbolTable
 70
     0
  0
ENDTAB
  0
TABLE
  2
UCS
  5
7
330
0
100
AcDbSymbolTable
 70
     0
  0
ENDTAB
  0
TABLE
  2
APPID
  5
9
330
0
100
AcDbSymbolTable
 70
     1
  0
APPID
  5
10
330
9
100
AcDbSymbolTableRecord
100
AcDbRegAppTableRecord
  2
ACAD
 70
     0
  0
ENDTAB
  0
TABLE
  2
DIMSTYLE
  5
A
330
0
100
AcDbSymbolTable
 70
     1
100
AcDbDimStyleTable
 71
     0
  0
DIMSTYLE
105
1D
330
A
100
AcDbSymbolTableRecord
100
AcDbDimStyleTableRecord
  2
STANDARD
 70
     0
 78
     8
 79
     2
140
3.0
340
F
341
89E
342
89E
  0
ENDTAB
  0
TABLE
  2
BLOCK_RECORD
  5
1
330
0
100
AcDbSymbolTable
 70
     9
  0
BLOCK_RECORD
  5
18
330
1
100
AcDbSymbolTableRecord
100
AcDbBlockTableRecord
  2
*MODEL_SPACE
340
741
  0
BLOCK_RECORD
  5
8884
330
1
100
AcDbSymbolTableRecord
100
AcDbBlockTableRecord
  2
*Paper_Space
340
8885
  0
BLOCK_RECORD
  5
24
330
1
100
AcDbSymbolTableRecord
100
AcDbBlockTableRecord
  2
_OPEN
340
0
  0
BLOCK_RECORD
  5
89E
330
1
100
AcDbSymbolTableRecord
100
AcDbBlockTableRecord
  2
_Open30
340
0
  0
BLOCK_RECORD
  5
7058
330
1
100
AcDbSymbolTableRecord
100
AcDbBlockTableRecord
  2
A$C444F17A9
340
0
102
{BLKREFS
331
8275
102
}
  0
BLOCK_RECORD
  5
7064
330
1
100
AcDbSymbolTableRecord
100
AcDbBlockTableRecord
  2
A$C6C1277F2
340
0
102
{BLKREFS
331
821C
102
}
  0
BLOCK_RECORD
  5
7091
330
1
100
AcDbSymbolTableRecord
100
AcDbBlockTableRecord
  2
A$C2F696F30
340
0
102
{BLKREFS
331
825F
102
}
  0
BLOCK_RECORD
  5
70A9
330
1
100
AcDbSymbolTableRecord
100
AcDbBlockTableRecord
  2
A$C57095CDF
340
0
102
{BLKREFS
331
8260
102
}
  0
BLOCK_RECORD
  5
70DC
330
1
100
AcDbSymbolTableRecord
100
AcDbBlockTableRecord
  2
A$C3A6E1F00
340
0
102
{BLKREFS
331
823D
102
}
  0
BLOCK_RECORD
  5
711F
330
1
100
AcDbSymbolTableRecord
100
AcDbBlockTableRecord
  2
A$C5A3A0BB0
340
0
102
{BLKREFS
331
8261
102
}
  0
BLOCK_RECORD
  5
7160
330
1
100
AcDbSymbolTableRecord
100
AcDbBlockTableRecord
  2
A$C3413120B
340
0
102
{BLKREFS
331
8277
102
}
  0
ENDTAB
  0
ENDSEC
  0
SECTION
  2
BLOCKS
  0
BLOCK
  5
19
330
18
100
AcDbEntity
  8
0
100
AcDbBlockBegin
  2
*MODEL_SPACE
 70
     0
 10
0.0
 20
0.0
 30
0.0
  3
*MODEL_SPACE
  1

  0
ENDBLK
  5
1A
330
18
100
AcDbEntity
  8
0
100
AcDbBlockEnd
  0
BLOCK
  5
8886
330
8884
100
AcDbEntity
 67
     1
  8
0
100
AcDbBlockBegin
  2
*Paper_Space
 70
     0
 10
0.0
 20
0.0
 30
0.0
  3
*Paper_Space
  1

  0
ENDBLK
  5
8887
330
8884
100
AcDbEntity
 67
     1
  8
0
100
AcDbBlockEnd
  0
BLOCK
  5
25
330
24
100
AcDbEntity
  8
0
100
AcDbBlockBegin
  2
_OPEN
 70
     0
 10
0.0
 20
0.0
 30
0.0
  3
_OPEN
  1

  0
LINE
  5
26
330
24
100
AcDbEntity
  8
0
  6
ByBlock
 62
     0
100
AcDbLine
 10
-1.0
 20
0.1666666666666666
 30
0.0
 11
0.0
 21
0.0
 31
0.0
  0
LINE
  5
27
330
24
100
AcDbEntity
  8
0
  6
ByBlock
 62
     0
100
AcDbLine
 10
0.0
 20
0.0
 30
0.0
 11
-1.0
 21
-0.1666666666666666
 31
0.0
  0
LINE
  5
28
330
24
100
AcDbEntity
  8
0
  6
ByBlock
 62
     0
100
AcDbLine
 10
0.0
 20
0.0
 30
0.0
 11
-1.0
 21
0.0
 31
0.0
  0
ENDBLK
  5
29
330
24
100
AcDbEntity
  8
0
100
AcDbBlockEnd
  0
BLOCK
  5
8A2
330
89E
100
AcDbEntity
  8
0
100
AcDbBlockBegin
  2
_Open30
 70
     0
 10
0.0
 20
0.0
 30
0.0
  3
_Open30
  1

  0
LINE
  5
89F
330
89E
100
AcDbEntity
  8
0
  6
ByBlock
 62
     0
370
    -2
100
AcDbLine
 10
-1.0
 20
0.26794919
 30
0.0
 11
0.0
 21
0.0
 31
0.0
  0
LINE
  5
8A0
330
89E
100
AcDbEntity
  8
0
  6
ByBlock
 62
     0
370
    -2
100
AcDbLine
 10
0.0
 20
0.0
 30
0.0
 11
-1.0
 21
-0.26794919
 31
0.0
  0
LINE
  5
8A1
330
89E
100
AcDbEntity
  8
0
  6
ByBlock
 62
     0
370
    -2
100
AcDbLine
 10
0.0
 20
0.0
 30
0.0
 11
-1.0
 21
0.0
 31
0.0
  0
ENDBLK
  5
8A3
330
89E
100
AcDbEntity
  8
0
100
AcDbBlockEnd
  0
BLOCK
  5
7062
330
7058
100
AcDbEntity
  8
0
100
AcDbBlockBegin
  2
A$C444F17A9
 70
     0
 10
0.0
 20
0.0
 30
0.0
  3
A$C444F17A9
  1

  0
LWPOLYLINE
  5
7059
330
7058
100
AcDbEntity
  8
0
100
AcDbPolyline
 90
        4
 70
     1
 43
0.2
 10
0.1000006076973037
 20
13.1000004860266
 10
7.625000607697302
 20
13.1000004860266
 10
7.625000607697302
 20
0.1000004860266017
 10
0.1000006076973037
 20
0.1000004860266017
  0
ELLIPSE
  5
705A
330
7058
100
AcDbEntity
  8
0
100
AcDbEllipse
 10
6.125000607697302
 20
3.07500048602651
 30
0.0
 11
0.5
 21
0.0
 31
0.0
210
0.0
220
0.0
230
1.0
 40
0.95
 41
0.0
 42
6.283184999999999
  0
LWPOLYLINE
  5
705B
330
7058
100
AcDbEntity
  8
0
100
AcDbPolyline
 90
        6
 70
     1
 43
0.2
 10
2.175000607697299
 20
3.525000486026556
 10
1.725000607697296
 20
3.100000486026601
 10
2.175000607697299
 20
2.70000048602651
 10
4.275000607697307
 20
2.70000048602651
 10
4.700000607697305
 20
3.100000486026601
 10
4.275000607697307
 20
3.525000486026556
  0
LWPOLYLINE
  5
705C
330
7058
100
AcDbEntity
  8
0
100
AcDbPolyline
 90
        6
 70
     1
 43
0.2
 10
3.250000607697302
 20
10.80000048602664
 10
2.825000607697305
 20
10.42500048602664
 10
3.250000607697302
 20
10.00000048602669
 10
5.375000607697302
 20
10.00000048602669
 10
5.775000607697307
 20
10.42500048602664
 10
5.375000607697302
 20
10.80000048602664
  0
LWPOLYLINE
  5
705D
330
7058
100
AcDbEntity
  8
0
100
AcDbPolyline
 90
        6
 70
     1
 43
0.2
 10
5.525000607697307
 20
6.70000048602651
 10
5.125000607697302
 20
6.275000486026556
 10
4.700000607697305
 20
3.500000486026692
 10
5.125000607697302
 20
3.100000486026601
 10
5.525000607697307
 20
3.500000486026692
 10
5.975000607697296
 20
6.275000486026556
  0
LWPOLYLINE
  5
705E
330
7058
100
AcDbEntity
  8
0
100
AcDbPolyline
 90
        6
 70
     1
 43
0.2
 10
6.100000607697296
 20
10.42500048602664
 10
5.675000607697299
 20
10.02500048602655
 10
5.275000607697307
 20
7.225000486026601
 10
5.675000607697299
 20
6.82500048602651
 10
6.100000607697296
 20
7.225000486026601
 10
6.525000607697307
 20
10.02500048602655
  0
LWPOLYLINE
  5
705F
330
7058
100
AcDbEntity
  8
0
100
AcDbPolyline
 90
        6
 70
     1
 43
0.2
 10
1.875000607697302
 20
6.70000048602651
 10
1.450000607697305
 20
6.275000486026556
 10
1.050000607697299
 20
3.500000486026692
 10
1.450000607697305
 20
3.100000486026601
 10
1.875000607697302
 20
3.500000486026692
 10
2.300000607697299
 20
6.275000486026556
  0
LWPOLYLINE
  5
7060
330
7058
100
AcDbEntity
  8
0
100
AcDbPolyline
 90
        6
 70
     1
 43
0.2
 10
2.725000607697296
 20
7.225000486026601
 10
2.275000607697307
 20
6.82500048602651
 10
2.725000607697296
 20
6.425000486026647
 10
4.825000607697305
 20
6.425000486026647
 10
5.225000607697296
 20
6.82500048602651
 10
4.825000607697305
 20
7.225000486026601
  0
LWPOLYLINE
  5
7061
330
7058
100
AcDbEntity
  8
0
100
AcDbPolyline
 90
        6
 70
     1
 43
0.2
 10
2.425000607697299
 20
10.42500048602664
 10
2.025000607697307
 20
10.02500048602655
 10
1.600000607697296
 20
7.225000486026601
 10
2.025000607697307
 20
6.82500048602651
 10
2.425000607697299
 20
7.225000486026601
 10
2.875000607697302
 20
10.02500048602655
  0
ENDBLK
  5
7063
330
7058
100
AcDbEntity
  8
0
100
AcDbBlockEnd
  0
BLOCK
  5
708F
330
7064
100
AcDbEntity
  8
0
100
AcDbBlockBegin
  2
A$C6C1277F2
 70
     0
 10
0.0
 20
0.0
 30
0.0
  3
A$C6C1277F2
  1

  0
ELLIPSE
  5
7065
330
7064
100
AcDbEntity
  8
0
100
AcDbEllipse
 10
4.724999973973268
 20
26.39999951743493
 30
0.0
 11
0.0
 21
0.775
 31
0.0
210
0.0
220
0.0
230
1.0
 40
0.9677419999999999
 41
0.0
 42
6.283184999999999
  0
LWPOLYLINE
  5
7066
330
7064
100
AcDbEntity
  8
0
100
AcDbPolyline
 90
        4
 70
     1
 43
0.2
 10
0.0999999739732616
 20
28.77499951743493
 10
0.0999999739732616
 20
0.0999995174349806
 10
9.324999973973262
 20
0.0999995174349806
 10
9.324999973973262
 20
28.77499951743493
  0
ELLIPSE
  5
7067
330
7064
100
AcDbEntity
  8
0
100
AcDbEllipse
 10
4.724999973973268
 20
3.399999517434935
 30
0.0
 11
0.0
 21
0.775
 31
0.0
210
0.0
220
0.0
230
1.0
 40
0.9677419999999999
 41
0.0
 42
6.283184999999999
  0
LINE
  5
7068
330
7064
100
AcDbEntity
  8
0
100
AcDbLine
 10
0.8999999739732658
 20
4.299999517435026
 30
0.0
 11
0.8999999739732658
 21
6.374999517434844
 31
0.0
  0
LINE
  5
7069
330
7064
100
AcDbEntity
  8
0
100
AcDbLine
 10
8.524999973973265
 20
4.299999517435026
 30
0.0
 11
8.524999973973265
 21
6.374999517434844
 31
0.0
  0
LINE
  5
706A
330
7064
100
AcDbEntity
  8
0
100
AcDbLine
 10
6.599999973973268
 20
4.274999517434935
 30
0.0
 11
6.599999973973268
 21
5.249999517434844
 31
0.0
  0
LINE
  5
706B
330
7064
100
AcDbEntity
  8
0
100
AcDbLine
 10
6.599999973973268
 20
5.274999517434935
 30
0.0
 11
3.024999973973265
 21
5.274999517434935
 31
0.0
  0
LINE
  5
706C
330
7064
100
AcDbEntity
  8
0
100
AcDbLine
 10
3.024999973973265
 20
4.299999517435026
 30
0.0
 11
3.024999973973265
 21
5.274999517434935
 31
0.0
  0
LINE
  5
706D
330
7064
100
AcDbEntity
  8
0
100
AcDbLine
 10
3.024999973973265
 20
4.299999517435026
 30
0.0
 11
0.8999999739732658
 21
4.299999517435026
 31
0.0
  0
LINE
  5
706E
330
7064
100
AcDbEntity
  8
0
100
AcDbLine
 10
8.524999973973265
 20
4.299999517435026
 30
0.0
 11
6.599999973973268
 21
4.299999517435026
 31
0.0
  0
LINE
  5
706F
330
7064
100
AcDbEntity
  8
0
100
AcDbLine
 10
8.524999973973265
 20
6.374999517434844
 30
0.0
 11
0.8999999739732658
 21
6.374999517434844
 31
0.0
  0
LINE
  5
7070
330
7064
100
AcDbEntity
  8
0
100
AcDbLine
 10
0.8999999739732658
 20
25.17499951743502
 30
0.0
 11
0.8999999739732658
 21
23.09999951743498
 31
0.0
  0
LINE
  5
7071
330
7064
100
AcDbEntity
  8
0
100
AcDbLine
 10
8.524999973973265
 20
25.17499951743502
 30
0.0
 11
8.524999973973265
 21
23.09999951743498
 31
0.0
  0
LINE
  5
7072
330
7064
100
AcDbEntity
  8
0
100
AcDbLine
 10
6.599999973973268
 20
25.19999951743489
 30
0.0
 11
6.599999973973268
 21
24.22499951743498
 31
0.0
  0
LINE
  5
7073
330
7064
100
AcDbEntity
  8
0
100
AcDbLine
 10
6.599999973973268
 20
24.19999951743489
 30
0.0
 11
3.024999973973265
 21
24.19999951743489
 31
0.0
  0
LINE
  5
7074
330
7064
100
AcDbEntity
  8
0
100
AcDbLine
 10
3.024999973973265
 20
25.17499951743502
 30
0.0
 11
3.024999973973265
 21
24.19999951743489
 31
0.0
  0
LINE
  5
7075
330
7064
100
AcDbEntity
  8
0
100
AcDbLine
 10
3.024999973973265
 20
25.17499951743502
 30
0.0
 11
0.8999999739732658
 21
25.17499951743502
 31
0.0
  0
LINE
  5
7076
330
7064
100
AcDbEntity
  8
0
100
AcDbLine
 10
8.524999973973265
 20
25.17499951743502
 30
0.0
 11
6.599999973973268
 21
25.17499951743502
 31
0.0
  0
LWPOLYLINE
  5
7077
330
7064
100
AcDbEntity
  8
0
100
AcDbPolyline
 90
        4
 70
     1
 43
0.0
 10
3.474999973973268
 20
11.29999951743502
 10
3.12499997397326
 20
11.29999951743502
 10
3.12499997397326
 20
10.32499951743488
 10
3.474999973973268
 20
10.32499951743488
  0
LWPOLYLINE
  5
7078
330
7064
100
AcDbEntity
  8
0
100
AcDbPolyline
 90
        4
 70
     1
 43
0.0
 10
3.474999973973268
 20
12.47499951743498
 10
3.12499997397326
 20
12.47499951743498
 10
3.12499997397326
 20
11.49999951743484
 10
3.474999973973268
 20
11.49999951743484
  0
LWPOLYLINE
  5
7079
330
7064
100
AcDbEntity
  8
0
100
AcDbPolyline
 90
        4
 70
     1
 43
0.0
 10
3.474999973973268
 20
13.74999951743484
 10
3.12499997397326
 20
13.74999951743484
 10
3.12499997397326
 20
12.77499951743493
 10
3.474999973973268
 20
12.77499951743493
  0
LWPOLYLINE
  5
707A
330
7064
100
AcDbEntity
  8
0
100
AcDbPolyline
 90
        4
 70
     1
 43
0.0
 10
3.474999973973268
 20
15.07499951743489
 10
3.12499997397326
 20
15.07499951743489
 10
3.12499997397326
 20
14.12499951743484
 10
3.474999973973268
 20
14.12499951743484
  0
LWPOLYLINE
  5
707B
330
7064
100
AcDbEntity
  8
0
100
AcDbPolyline
 90
        4
 70
     1
 43
0.0
 10
3.474999973973268
 20
16.34999951743498
 10
3.12499997397326
 20
16.34999951743498
 10
3.12499997397326
 20
15.37499951743484
 10
3.474999973973268
 20
15.37499951743484
  0
LWPOLYLINE
  5
707C
330
7064
100
AcDbEntity
  8
0
100
AcDbPolyline
 90
        4
 70
     1
 43
0.0
 10
3.474999973973268
 20
17.57499951743489
 10
3.12499997397326
 20
17.57499951743489
 10
3.12499997397326
 20
16.59999951743498
 10
3.474999973973268
 20
16.59999951743498
  0
LWPOLYLINE
  5
707D
330
7064
100
AcDbEntity
  8
0
100
AcDbPolyline
 90
        4
 70
     1
 43
0.0
 10
3.474999973973268
 20
18.84999951743498
 10
3.12499997397326
 20
18.84999951743498
 10
3.12499997397326
 20
17.84999951743498
 10
3.474999973973268
 20
17.84999951743498
  0
LWPOLYLINE
  5
707E
330
7064
100
AcDbEntity
  8
0
100
AcDbPolyline
 90
        4
 70
     1
 43
0.0
 10
6.24999997397326
 20
11.29999951743502
 10
5.899999973973265
 20
11.29999951743502
 10
5.899999973973265
 20
10.32499951743488
 10
6.24999997397326
 20
10.32499951743488
  0
LWPOLYLINE
  5
707F
330
7064
100
AcDbEntity
  8
0
100
AcDbPolyline
 90
        4
 70
     1
 43
0.0
 10
6.24999997397326
 20
12.47499951743498
 10
5.899999973973265
 20
12.47499951743498
 10
5.899999973973265
 20
11.49999951743484
 10
6.24999997397326
 20
11.49999951743484
  0
LWPOLYLINE
  5
7080
330
7064
100
AcDbEntity
  8
0
100
AcDbPolyline
 90
        4
 70
     1
 43
0.0
 10
6.24999997397326
 20
13.74999951743484
 10
5.899999973973265
 20
13.74999951743484
 10
5.899999973973265
 20
12.77499951743493
 10
6.24999997397326
 20
12.77499951743493
  0
LWPOLYLINE
  5
7081
330
7064
100
AcDbEntity
  8
0
100
AcDbPolyline
 90
        4
 70
     1
 43
0.0
 10
6.24999997397326
 20
15.07499951743489
 10
5.899999973973265
 20
15.07499951743489
 10
5.899999973973265
 20
14.12499951743484
 10
6.24999997397326
 20
14.12499951743484
  0
LWPOLYLINE
  5
7082
330
7064
100
AcDbEntity
  8
0
100
AcDbPolyline
 90
        4
 70
     1
 43
0.0
 10
6.24999997397326
 20
16.34999951743498
 10
5.899999973973265
 20
16.34999951743498
 10
5.899999973973265
 20
15.37499951743484
 10
6.24999997397326
 20
15.37499951743484
  0
LWPOLYLINE
  5
7083
330
7064
100
AcDbEntity
  8
0
100
AcDbPolyline
 90
        4
 70
     1
 43
0.0
 10
6.24999997397326
 20
17.57499951743489
 10
5.899999973973265
 20
17.57499951743489
 10
5.899999973973265
 20
16.59999951743498
 10
6.24999997397326
 20
16.59999951743498
  0
LWPOLYLINE
  5
7084
330
7064
100
AcDbEntity
  8
0
100
AcDbPolyline
 90
        4
 70
     1
 43
0.0
 10
6.24999997397326
 20
18.84999951743498
 10
5.899999973973265
 20
18.84999951743498
 10
5.899999973973265
 20
17.84999951743498
 10
6.24999997397326
 20
17.84999951743498
  0
LWPOLYLINE
  5
7085
330
7064
100
AcDbEntity
  8
0
100
AcDbPolyline
 90
        4
 70
     1
 43
0.0
 10
6.599999973973268
 20
19.69999951743488
 10
2.899999973973265
 20
19.69999951743488
 10
2.899999973973265
 20
9.47499951743498
 10
6.599999973973268
 20
9.47499951743498
  0
ELLIPSE
  5
7086
330
7064
100
AcDbEntity
  8
0
100
AcDbEllipse
 10
6.549999973973257
 20
10.02499951743493
 30
0.0
 11
0.0
 21
1.25
 31
0.0
210
0.0
220
0.0
230
1.0
 40
0.98
 41
3.380894
 42
4.528311
  0
ELLIPSE
  5
7087
330
7064
100
AcDbEntity
  8
0
100
AcDbEllipse
 10
6.549999973973257
 20
19.37499951743484
 30
0.0
 11
0.0
 21
1.25
 31
0.0
210
0.0
220
0.0
230
1.0
 40
0.98
 41
4.509903999999999
 42
6.059223999999999
  0
ELLIPSE
  5
7088
330
7064
100
AcDbEntity
  8
0
100
AcDbEllipse
 10
2.87499997397326
 20
9.049999517435026
 30
0.0
 11
0.0
 21
1.25
 31
0.0
210
0.0
220
0.0
230
1.0
 40
0.98
 41
1.708854999999999
 42
3.380894
  0
ELLIPSE
  5
7089
330
7064
100
AcDbEntity
  8
0
100
AcDbEllipse
 10
2.87499997397326
 20
20.29999951743502
 30
0.0
 11
0.0
 21
1.25
 31
0.0
210
0.0
220
0.0
230
1.0
 40
0.98
 41
6.03468
 42
8.053399307179585
  0
LINE
  5
708A
330
7064
100
AcDbEntity
  8
0
100
AcDbLine
 10
6.849999973973268
 20
20.54999951743502
 30
0.0
 11
3.149999973973265
 21
21.47499951743498
 31
0.0
  0
LINE
  5
708B
330
7064
100
AcDbEntity
  8
0
100
AcDbLine
 10
7.774999973973265
 20
10.02499951743493
 30
0.0
 11
7.774999973973265
 21
19.37499951743484
 31
0.0
  0
LINE
  5
708C
330
7064
100
AcDbEntity
  8
0
100
AcDbLine
 10
3.149999973973265
 20
7.799999517435026
 30
0.0
 11
6.849999973973268
 21
8.774999517434935
 31
0.0
  0
LINE
  5
708D
330
7064
100
AcDbEntity
  8
0
100
AcDbLine
 10
1.649999973973265
 20
20.29999951743502
 30
0.0
 11
1.649999973973265
 21
8.949999517434889
 31
0.0
  0
LINE
  5
708E
330
7064
100
AcDbEntity
  8
0
100
AcDbLine
 10
8.524999973973265
 20
23.09999951743498
 30
0.0
 11
0.8999999739732658
 21
23.09999951743498
 31
0.0
  0
ENDBLK
  5
7090
330
7064
100
AcDbEntity
  8
0
100
AcDbBlockEnd
  0
BLOCK
  5
70A7
330
7091
100
AcDbEntity
  8
0
100
AcDbBlockBegin
  2
A$C2F696F30
 70
     0
 10
0.0
 20
0.0
 30
0.0
  3
A$C2F696F30
  1

  0
LINE
  5
7092
330
7091
100
AcDbEntity
  8
0
100
AcDbLine
 10
1.400000765164122
 20
-0.0000001933823341
 30
0.0
 11
5.400000765164122
 21
-0.0000001933823341
 31
0.0
  0
LINE
  5
7093
330
7091
100
AcDbEntity
  8
0
100
AcDbLine
 10
1.400000765164122
 20
13.77499980661764
 30
0.0
 11
5.400000765164122
 21
13.77499980661764
 31
0.0
  0
LWPOLYLINE
  5
7094
330
7091
100
AcDbEntity
  8
0
100
AcDbPolyline
 90
        4
 70
     1
 43
0.2
 10
15.40000076516412
 20
13.34999980661768
 10
15.40000076516412
 20
0.3499998066176886
 10
0.4000007651641227
 20
0.3499998066176886
 10
0.4000007651641227
 20
13.34999980661768
  0
LWPOLYLINE
  5
7095
330
7091
100
AcDbEntity
  8
0
100
AcDbPolyline
 90
        4
 70
     1
 43
0.2
 10
1.400000765164122
 20
12.34999980661768
 10
3.400000765164122
 20
12.34999980661768
 10
3.400000765164122
 20
1.349999806617688
 10
1.400000765164122
 20
1.349999806617688
  0
LWPOLYLINE
  5
7096
330
7091
100
AcDbEntity
  8
0
100
AcDbPolyline
 90
        4
 70
     1
 43
0.2
 10
3.950000765164119
 20
3.349999806617688
 10
3.950000765164119
 20
2.349999806617688
 10
3.400000765164122
 20
2.349999806617688
 10
3.400000765164122
 20
3.349999806617688
  0
LWPOLYLINE
  5
7097
330
7091
100
AcDbEntity
  8
0
100
AcDbPolyline
 90
        4
 70
     1
 43
0.2
 10
3.950000765164119
 20
5.749999806617665
 10
3.950000765164119
 20
4.749999806617665
 10
3.400000765164122
 20
4.749999806617665
 10
3.400000765164122
 20
5.749999806617665
  0
LINE
  5
7098
330
7091
100
AcDbEntity
  8
0
100
AcDbLine
 10
0.0000007651641241
 20
1.349999806617688
 30
0.0
 11
0.0000007651641241
 21
5.349999806617688
 31
0.0
  0
LWPOLYLINE
  5
7099
330
7091
100
AcDbEntity
  8
0
100
AcDbPolyline
 90
        4
 70
     1
 43
0.2
 10
3.950000765164119
 20
8.949999806617711
 10
3.950000765164119
 20
7.949999806617711
 10
3.400000765164122
 20
7.949999806617711
 10
3.400000765164122
 20
8.949999806617711
  0
LWPOLYLINE
  5
709A
330
7091
100
AcDbEntity
  8
0
100
AcDbPolyline
 90
        4
 70
     1
 43
0.2
 10
3.950000765164119
 20
11.34999980661768
 10
3.950000765164119
 20
10.34999980661768
 10
3.400000765164122
 20
10.34999980661768
 10
3.400000765164122
 20
11.34999980661768
  0
LINE
  5
709B
330
7091
100
AcDbEntity
  8
0
100
AcDbLine
 10
0.0000007651641241
 20
12.34999980661768
 30
0.0
 11
0.0000007651641241
 21
8.349999806617688
 31
0.0
  0
LWPOLYLINE
  5
709C
330
7091
100
AcDbEntity
  8
0
100
AcDbPolyline
 90
        4
 70
     1
 43
0.2
 10
10.40000076516412
 20
12.34999980661768
 10
12.40000076516412
 20
12.34999980661768
 10
12.40000076516412
 20
1.349999806617688
 10
10.40000076516412
 20
1.349999806617688
  0
LINE
  5
709D
330
7091
100
AcDbEntity
  8
0
100
AcDbLine
 10
9.400000765164122
 20
13.34999980661768
 30
0.0
 11
9.400000765164122
 21
0.3499998066176886
 31
0.0
  0
LINE
  5
709E
330
7091
100
AcDbEntity
  8
0
100
AcDbLine
 10
6.400000765164122
 20
13.34999980661768
 30
0.0
 11
6.400000765164122
 21
0.3499998066176886
 31
0.0
  0
LWPOLYLINE
  5
709F
330
7091
100
AcDbEntity
  8
0
100
AcDbPolyline
 90
        4
 70
     1
 43
0.2
 10
12.95000076516412
 20
3.349999806617688
 10
12.95000076516412
 20
2.349999806617688
 10
12.40000076516412
 20
2.349999806617688
 10
12.40000076516412
 20
3.349999806617688
  0
LWPOLYLINE
  5
70A0
330
7091
100
AcDbEntity
  8
0
100
AcDbPolyline
 90
        4
 70
     1
 43
0.2
 10
12.95000076516412
 20
5.749999806617665
 10
12.95000076516412
 20
4.749999806617665
 10
12.40000076516412
 20
4.749999806617665
 10
12.40000076516412
 20
5.749999806617665
  0
LINE
  5
70A1
330
7091
100
AcDbEntity
  8
0
100
AcDbLine
 10
14.40000076516412
 20
-0.0000001933823341
 30
0.0
 11
10.40000076516412
 21
-0.0000001933823341
 31
0.0
  0
LINE
  5
70A2
330
7091
100
AcDbEntity
  8
0
100
AcDbLine
 10
15.80000076516412
 20
1.349999806617688
 30
0.0
 11
15.80000076516412
 21
5.349999806617688
 31
0.0
  0
LWPOLYLINE
  5
70A3
330
7091
100
AcDbEntity
  8
0
100
AcDbPolyline
 90
        4
 70
     1
 43
0.2
 10
12.95000076516412
 20
8.949999806617711
 10
12.95000076516412
 20
7.949999806617711
 10
12.40000076516412
 20
7.949999806617711
 10
12.40000076516412
 20
8.949999806617711
  0
LWPOLYLINE
  5
70A4
330
7091
100
AcDbEntity
  8
0
100
AcDbPolyline
 90
        4
 70
     1
 43
0.2
 10
12.95000076516412
 20
11.34999980661768
 10
12.95000076516412
 20
10.34999980661768
 10
12.40000076516412
 20
10.34999980661768
 10
12.40000076516412
 20
11.34999980661768
  0
LINE
  5
70A5
330
7091
100
AcDbEntity
  8
0
100
AcDbLine
 10
14.40000076516412
 20
13.77499980661764
 30
0.0
 11
10.40000076516412
 21
13.77499980661764
 31
0.0
  0
LINE
  5
70A6
330
7091
100
AcDbEntity
  8
0
100
AcDbLine
 10
15.80000076516412
 20
12.34999980661768
 30
0.0
 11
15.80000076516412
 21
8.349999806617688
 31
0.0
  0
ENDBLK
  5
70A8
330
7091
100
AcDbEntity
  8
0
100
AcDbBlockEnd
  0
BLOCK
  5
70DA
330
70A9
100
AcDbEntity
  8
0
100
AcDbBlockBegin
  2
A$C57095CDF
 70
     0
 10
0.0
 20
0.0
 30
0.0
  3
A$C57095CDF
  1

  0
LWPOLYLINE
  5
70AA
330
70A9
100
AcDbEntity
  8
0
100
AcDbPolyline
 90
        4
 70
     1
 43
0.0
 10
3.474999973973268
 20
16.69999991295117
 10
3.12499997397326
 20
16.69999991295117
 10
3.12499997397326
 20
15.72499991295103
 10
3.474999973973268
 20
15.72499991295103
  0
LWPOLYLINE
  5
70AB
330
70A9
100
AcDbEntity
  8
0
100
AcDbPolyline
 90
        4
 70
     1
 43
0.0
 10
6.24999997397326
 20
16.69999991295117
 10
5.899999973973265
 20
16.69999991295117
 10
5.899999973973265
 20
15.72499991295103
 10
6.24999997397326
 20
15.72499991295103
  0
LWPOLYLINE
  5
70AC
330
70A9
100
AcDbEntity
  8
0
100
AcDbPolyline
 90
        4
 70
     1
 43
0.0
 10
6.599999973973268
 20
24.09999991295103
 10
2.899999973973265
 20
24.09999991295103
 10
2.899999973973265
 20
9.94999991295117
 10
6.599999973973268
 20
9.94999991295117
  0
LINE
  5
70AD
330
70A9
100
AcDbEntity
  8
0
100
AcDbLine
 10
7.774999973973265
 20
9.899999912950988
 30
0.0
 11
7.774999973973265
 21
24.02499991295099
 31
0.0
  0
LINE
  5
70AE
330
70A9
100
AcDbEntity
  8
0
100
AcDbLine
 10
1.649999973973265
 20
24.94999991295117
 30
0.0
 11
1.649999973973265
 21
8.849999912951034
 31
0.0
  0
LWPOLYLINE
  5
70AF
330
70A9
100
AcDbEntity
  8
0
100
AcDbPolyline
 90
        4
 70
     1
 43
0.2
 10
0.0999999739732616
 20
33.42499991295108
 10
0.0999999739732616
 20
0.0999999129510343
 10
9.324999973973262
 20
0.0999999129510343
 10
9.324999973973262
 20
33.42499991295108
  0
LWPOLYLINE
  5
70B0
330
70A9
100
AcDbEntity
  8
0
100
AcDbPolyline
 90
        4
 70
     1
 43
0.0
 10
3.449999973973262
 20
11.87499991295112
 10
3.099999973973261
 20
11.87499991295112
 10
3.099999973973261
 20
10.89999991295098
 10
3.449999973973262
 20
10.89999991295098
  0
LWPOLYLINE
  5
70B1
330
70A9
100
AcDbEntity
  8
0
100
AcDbPolyline
 90
        4
 70
     1
 43
0.0
 10
6.224999973973268
 20
11.87499991295112
 10
5.87499997397326
 20
11.87499991295112
 10
5.87499997397326
 20
10.89999991295098
 10
6.224999973973268
 20
10.89999991295098
  0
LWPOLYLINE
  5
70B2
330
70A9
100
AcDbEntity
  8
0
100
AcDbPolyline
 90
        4
 70
     1
 43
0.0
 10
3.449999973973262
 20
13.07499991295117
 10
3.099999973973261
 20
13.07499991295117
 10
3.099999973973261
 20
12.09999991295103
 10
3.449999973973262
 20
12.09999991295103
  0
LWPOLYLINE
  5
70B3
330
70A9
100
AcDbEntity
  8
0
100
AcDbPolyline
 90
        4
 70
     1
 43
0.0
 10
6.224999973973268
 20
13.07499991295117
 10
5.87499997397326
 20
13.07499991295117
 10
5.87499997397326
 20
12.09999991295103
 10
6.224999973973268
 20
12.09999991295103
  0
LWPOLYLINE
  5
70B4
330
70A9
100
AcDbEntity
  8
0
100
AcDbPolyline
 90
        4
 70
     1
 43
0.0
 10
3.474999973973268
 20
14.27499991295098
 10
3.12499997397326
 20
14.27499991295098
 10
3.12499997397326
 20
13.29999991295108
 10
3.474999973973268
 20
13.29999991295108
  0
LWPOLYLINE
  5
70B5
330
70A9
100
AcDbEntity
  8
0
100
AcDbPolyline
 90
        4
 70
     1
 43
0.0
 10
6.24999997397326
 20
14.27499991295098
 10
5.899999973973265
 20
14.27499991295098
 10
5.899999973973265
 20
13.29999991295108
 10
6.24999997397326
 20
13.29999991295108
  0
LINE
  5
70B6
330
70A9
100
AcDbEntity
  8
0
100
AcDbLine
 10
0.8999999739732658
 20
4.274999912950988
 30
0.0
 11
0.8999999739732658
 21
6.349999912951034
 31
0.0
  0
LINE
  5
70B7
330
70A9
100
AcDbEntity
  8
0
100
AcDbLine
 10
8.524999973973265
 20
4.274999912950988
 30
0.0
 11
8.524999973973265
 21
6.349999912951034
 31
0.0
  0
LINE
  5
70B8
330
70A9
100
AcDbEntity
  8
0
100
AcDbLine
 10
6.599999973973268
 20
4.249999912951125
 30
0.0
 11
6.599999973973268
 21
5.224999912951034
 31
0.0
  0
LINE
  5
70B9
330
70A9
100
AcDbEntity
  8
0
100
AcDbLine
 10
6.599999973973268
 20
5.249999912951125
 30
0.0
 11
3.024999973973265
 21
5.249999912951125
 31
0.0
  0
LINE
  5
70BA
330
70A9
100
AcDbEntity
  8
0
100
AcDbLine
 10
3.024999973973265
 20
4.274999912950988
 30
0.0
 11
3.024999973973265
 21
5.249999912951125
 31
0.0
  0
LINE
  5
70BB
330
70A9
100
AcDbEntity
  8
0
100
AcDbLine
 10
3.024999973973265
 20
4.274999912950988
 30
0.0
 11
0.8999999739732658
 21
4.274999912950988
 31
0.0
  0
LINE
  5
70BC
330
70A9
100
AcDbEntity
  8
0
100
AcDbLine
 10
8.524999973973265
 20
4.274999912950988
 30
0.0
 11
6.599999973973268
 21
4.274999912950988
 31
0.0
  0
LINE
  5
70BD
330
70A9
100
AcDbEntity
  8
0
100
AcDbLine
 10
8.524999973973265
 20
6.349999912951034
 30
0.0
 11
0.8999999739732658
 21
6.349999912951034
 31
0.0
  0
LWPOLYLINE
  5
70BE
330
70A9
100
AcDbEntity
  8
0
100
AcDbPolyline
 90
        4
 70
     1
 43
0.0
 10
3.474999973973268
 20
15.52499991295098
 10
3.12499997397326
 20
15.52499991295098
 10
3.12499997397326
 20
14.54999991295108
 10
3.474999973973268
 20
14.54999991295108
  0
LWPOLYLINE
  5
70BF
330
70A9
100
AcDbEntity
  8
0
100
AcDbPolyline
 90
        4
 70
     1
 43
0.0
 10
6.24999997397326
 20
15.52499991295098
 10
5.899999973973265
 20
15.52499991295098
 10
5.899999973973265
 20
14.54999991295108
 10
6.24999997397326
 20
14.54999991295108
  0
ELLIPSE
  5
70C0
330
70A9
100
AcDbEntity
  8
0
100
AcDbEllipse
 10
6.549999973973257
 20
9.999999912951125
 30
0.0
 11
0.0
 21
1.25
 31
0.0
210
0.0
220
0.0
230
1.0
 40
0.98
 41
3.380894
 42
4.528311
  0
ELLIPSE
  5
70C1
330
70A9
100
AcDbEntity
  8
0
100
AcDbEllipse
 10
2.87499997397326
 20
9.024999912950988
 30
0.0
 11
0.0
 21
1.25
 31
0.0
210
0.0
220
0.0
230
1.0
 40
0.98
 41
1.708854999999999
 42
3.380894
  0
LINE
  5
70C2
330
70A9
100
AcDbEntity
  8
0
100
AcDbLine
 10
3.149999973973265
 20
7.774999912950988
 30
0.0
 11
6.849999973973268
 21
8.749999912951125
 31
0.0
  0
ELLIPSE
  5
70C3
330
70A9
100
AcDbEntity
  8
0
100
AcDbEllipse
 10
4.724999973973268
 20
3.374999912951125
 30
0.0
 11
0.0
 21
0.775
 31
0.0
210
0.0
220
0.0
230
1.0
 40
0.9677419999999999
 41
0.0
 42
6.283184999999999
  0
LINE
  5
70C4
330
70A9
100
AcDbEntity
  8
0
100
AcDbLine
 10
0.8999999739732658
 20
29.82499991295117
 30
0.0
 11
0.8999999739732658
 21
27.74999991295112
 31
0.0
  0
LINE
  5
70C5
330
70A9
100
AcDbEntity
  8
0
100
AcDbLine
 10
8.524999973973265
 20
29.82499991295117
 30
0.0
 11
8.524999973973265
 21
27.74999991295112
 31
0.0
  0
LINE
  5
70C6
330
70A9
100
AcDbEntity
  8
0
100
AcDbLine
 10
6.599999973973268
 20
29.84999991295103
 30
0.0
 11
6.599999973973268
 21
28.87499991295112
 31
0.0
  0
LINE
  5
70C7
330
70A9
100
AcDbEntity
  8
0
100
AcDbLine
 10
6.599999973973268
 20
28.84999991295103
 30
0.0
 11
3.024999973973265
 21
28.84999991295103
 31
0.0
  0
LINE
  5
70C8
330
70A9
100
AcDbEntity
  8
0
100
AcDbLine
 10
3.024999973973265
 20
29.82499991295117
 30
0.0
 11
3.024999973973265
 21
28.84999991295103
 31
0.0
  0
LINE
  5
70C9
330
70A9
100
AcDbEntity
  8
0
100
AcDbLine
 10
3.024999973973265
 20
29.82499991295117
 30
0.0
 11
0.8999999739732658
 21
29.82499991295117
 31
0.0
  0
LINE
  5
70CA
330
70A9
100
AcDbEntity
  8
0
100
AcDbLine
 10
8.524999973973265
 20
29.82499991295117
 30
0.0
 11
6.599999973973268
 21
29.82499991295117
 31
0.0
  0
LWPOLYLINE
  5
70CB
330
70A9
100
AcDbEntity
  8
0
100
AcDbPolyline
 90
        4
 70
     1
 43
0.0
 10
3.474999973973268
 20
17.97499991295103
 10
3.12499997397326
 20
17.97499991295103
 10
3.12499997397326
 20
16.99999991295112
 10
3.474999973973268
 20
16.99999991295112
  0
LWPOLYLINE
  5
70CC
330
70A9
100
AcDbEntity
  8
0
100
AcDbPolyline
 90
        4
 70
     1
 43
0.0
 10
3.474999973973268
 20
19.29999991295107
 10
3.12499997397326
 20
19.29999991295107
 10
3.12499997397326
 20
18.34999991295103
 10
3.474999973973268
 20
18.34999991295103
  0
LWPOLYLINE
  5
70CD
330
70A9
100
AcDbEntity
  8
0
100
AcDbPolyline
 90
        4
 70
     1
 43
0.0
 10
3.474999973973268
 20
20.57499991295117
 10
3.12499997397326
 20
20.57499991295117
 10
3.12499997397326
 20
19.59999991295103
 10
3.474999973973268
 20
19.59999991295103
  0
LWPOLYLINE
  5
70CE
330
70A9
100
AcDbEntity
  8
0
100
AcDbPolyline
 90
        4
 70
     1
 43
0.0
 10
3.474999973973268
 20
21.79999991295108
 10
3.12499997397326
 20
21.79999991295108
 10
3.12499997397326
 20
20.82499991295116
 10
3.474999973973268
 20
20.82499991295116
  0
LWPOLYLINE
  5
70CF
330
70A9
100
AcDbEntity
  8
0
100
AcDbPolyline
 90
        4
 70
     1
 43
0.0
 10
3.474999973973268
 20
23.07499991295117
 10
3.12499997397326
 20
23.07499991295117
 10
3.12499997397326
 20
22.07499991295116
 10
3.474999973973268
 20
22.07499991295116
  0
LWPOLYLINE
  5
70D0
330
70A9
100
AcDbEntity
  8
0
100
AcDbPolyline
 90
        4
 70
     1
 43
0.0
 10
6.24999997397326
 20
17.97499991295103
 10
5.899999973973265
 20
17.97499991295103
 10
5.899999973973265
 20
16.99999991295112
 10
6.24999997397326
 20
16.99999991295112
  0
LWPOLYLINE
  5
70D1
330
70A9
100
AcDbEntity
  8
0
100
AcDbPolyline
 90
        4
 70
     1
 43
0.0
 10
6.24999997397326
 20
19.29999991295107
 10
5.899999973973265
 20
19.29999991295107
 10
5.899999973973265
 20
18.34999991295103
 10
6.24999997397326
 20
18.34999991295103
  0
LWPOLYLINE
  5
70D2
330
70A9
100
AcDbEntity
  8
0
100
AcDbPolyline
 90
        4
 70
     1
 43
0.0
 10
6.24999997397326
 20
20.57499991295117
 10
5.899999973973265
 20
20.57499991295117
 10
5.899999973973265
 20
19.59999991295103
 10
6.24999997397326
 20
19.59999991295103
  0
LWPOLYLINE
  5
70D3
330
70A9
100
AcDbEntity
  8
0
100
AcDbPolyline
 90
        4
 70
     1
 43
0.0
 10
6.24999997397326
 20
21.79999991295108
 10
5.899999973973265
 20
21.79999991295108
 10
5.899999973973265
 20
20.82499991295116
 10
6.24999997397326
 20
20.82499991295116
  0
LWPOLYLINE
  5
70D4
330
70A9
100
AcDbEntity
  8
0
100
AcDbPolyline
 90
        4
 70
     1
 43
0.0
 10
6.24999997397326
 20
23.07499991295117
 10
5.899999973973265
 20
23.07499991295117
 10
5.899999973973265
 20
22.07499991295116
 10
6.24999997397326
 20
22.07499991295116
  0
ELLIPSE
  5
70D5
330
70A9
100
AcDbEntity
  8
0
100
AcDbEllipse
 10
6.549999973973257
 20
24.02499991295099
 30
0.0
 11
0.0
 21
1.25
 31
0.0
210
0.0
220
0.0
230
1.0
 40
0.98
 41
4.509903999999999
 42
6.059223999999999
  0
ELLIPSE
  5
70D6
330
70A9
100
AcDbEntity
  8
0
100
AcDbEllipse
 10
2.87499997397326
 20
24.94999991295117
 30
0.0
 11
0.0
 21
1.25
 31
0.0
210
0.0
220
0.0
230
1.0
 40
0.98
 41
6.03468
 42
8.053399307179585
  0
LINE
  5
70D7
330
70A9
100
AcDbEntity
  8
0
100
AcDbLine
 10
6.849999973973268
 20
25.19999991295117
 30
0.0
 11
3.149999973973265
 21
26.12499991295112
 31
0.0
  0
ELLIPSE
  5
70D8
330
70A9
100
AcDbEntity
  8
0
100
AcDbEllipse
 10
4.724999973973268
 20
31.04999991295108
 30
0.0
 11
0.0
 21
0.775
 31
0.0
210
0.0
220
0.0
230
1.0
 40
0.9677419999999999
 41
0.0
 42
6.283184999999999
  0
LINE
  5
70D9
330
70A9
100
AcDbEntity
  8
0
100
AcDbLine
 10
8.524999973973265
 20
27.74999991295112
 30
0.0
 11
0.8999999739732658
 21
27.74999991295112
 31
0.0
  0
ENDBLK
  5
70DB
330
70A9
100
AcDbEntity
  8
0
100
AcDbBlockEnd
  0
BLOCK
  5
711D
330
70DC
100
AcDbEntity
  8
0
100
AcDbBlockBegin
  2
A$C3A6E1F00
 70
     0
 10
0.0
 20
0.0
 30
0.0
  3
A$C3A6E1F00
  1

  0
LWPOLYLINE
  5
70DD
330
70DC
100
AcDbEntity
  8
0
100
AcDbPolyline
 90
        4
 70
     1
 43
0.0
 10
3.449999973973262
 20
15.9499995198721
 10
3.099999973973261
 20
15.9499995198721
 10
3.099999973973261
 20
14.9749995198722
 10
3.449999973973262
 20
14.9749995198722
  0
LWPOLYLINE
  5
70DE
330
70DC
100
AcDbEntity
  8
0
100
AcDbPolyline
 90
        4
 70
     1
 43
0.0
 10
6.224999973973268
 20
15.9499995198721
 10
5.87499997397326
 20
15.9499995198721
 10
5.87499997397326
 20
14.9749995198722
 10
6.224999973973268
 20
14.9749995198722
  0
LWPOLYLINE
  5
70DF
330
70DC
100
AcDbEntity
  8
0
100
AcDbPolyline
 90
        4
 70
     1
 43
0.0
 10
6.599999973973268
 20
34.0749995198721
 10
2.899999973973265
 20
34.0749995198721
 10
2.899999973973265
 20
10.27499951987215
 10
6.599999973973268
 20
10.27499951987215
  0
LINE
  5
70E0
330
70DC
100
AcDbEntity
  8
0
100
AcDbLine
 10
7.774999973973265
 20
9.824999519872108
 30
0.0
 11
7.774999973973265
 21
33.99999951987206
 31
0.0
  0
LINE
  5
70E1
330
70DC
100
AcDbEntity
  8
0
100
AcDbLine
 10
1.649999973973265
 20
34.92499951987224
 30
0.0
 11
1.649999973973265
 21
8.899999519872153
 31
0.0
  0
LWPOLYLINE
  5
70E2
330
70DC
100
AcDbEntity
  8
0
100
AcDbPolyline
 90
        4
 70
     1
 43
0.2
 10
0.0999999739732616
 20
43.39999951987215
 10
0.0999999739732616
 20
0.099999519872199
 10
9.324999973973262
 20
0.099999519872199
 10
9.324999973973262
 20
43.39999951987215
  0
LWPOLYLINE
  5
70E3
330
70DC
100
AcDbEntity
  8
0
100
AcDbPolyline
 90
        4
 70
     1
 43
0.0
 10
3.449999973973262
 20
12.29999951987224
 10
3.099999973973261
 20
12.29999951987224
 10
3.099999973973261
 20
11.3249995198721
 10
3.449999973973262
 20
11.3249995198721
  0
LWPOLYLINE
  5
70E4
330
70DC
100
AcDbEntity
  8
0
100
AcDbPolyline
 90
        4
 70
     1
 43
0.0
 10
6.224999973973268
 20
12.29999951987224
 10
5.87499997397326
 20
12.29999951987224
 10
5.87499997397326
 20
11.3249995198721
 10
6.224999973973268
 20
11.3249995198721
  0
LWPOLYLINE
  5
70E5
330
70DC
100
AcDbEntity
  8
0
100
AcDbPolyline
 90
        4
 70
     1
 43
0.0
 10
3.449999973973262
 20
13.52499951987215
 10
3.099999973973261
 20
13.52499951987215
 10
3.099999973973261
 20
12.54999951987224
 10
3.449999973973262
 20
12.54999951987224
  0
LWPOLYLINE
  5
70E6
330
70DC
100
AcDbEntity
  8
0
100
AcDbPolyline
 90
        4
 70
     1
 43
0.0
 10
6.224999973973268
 20
13.52499951987215
 10
5.87499997397326
 20
13.52499951987215
 10
5.87499997397326
 20
12.54999951987224
 10
6.224999973973268
 20
12.54999951987224
  0
LWPOLYLINE
  5
70E7
330
70DC
100
AcDbEntity
  8
0
100
AcDbPolyline
 90
        4
 70
     1
 43
0.0
 10
3.449999973973262
 20
14.74999951987206
 10
3.099999973973261
 20
14.74999951987206
 10
3.099999973973261
 20
13.77499951987215
 10
3.449999973973262
 20
13.77499951987215
  0
LWPOLYLINE
  5
70E8
330
70DC
100
AcDbEntity
  8
0
100
AcDbPolyline
 90
        4
 70
     1
 43
0.0
 10
6.224999973973268
 20
14.74999951987206
 10
5.87499997397326
 20
14.74999951987206
 10
5.87499997397326
 20
13.77499951987215
 10
6.224999973973268
 20
13.77499951987215
  0
LINE
  5
70E9
330
70DC
100
AcDbEntity
  8
0
100
AcDbLine
 10
0.8999999739732658
 20
4.374999519872176
 30
0.0
 11
0.8999999739732658
 21
6.449999519872108
 31
0.0
  0
LINE
  5
70EA
330
70DC
100
AcDbEntity
  8
0
100
AcDbLine
 10
8.524999973973265
 20
4.374999519872176
 30
0.0
 11
8.524999973973265
 21
6.449999519872108
 31
0.0
  0
LINE
  5
70EB
330
70DC
100
AcDbEntity
  8
0
100
AcDbLine
 10
6.599999973973268
 20
4.349999519872199
 30
0.0
 11
6.599999973973268
 21
5.324999519872108
 31
0.0
  0
LINE
  5
70EC
330
70DC
100
AcDbEntity
  8
0
100
AcDbLine
 10
6.599999973973268
 20
5.349999519872199
 30
0.0
 11
3.024999973973265
 21
5.349999519872199
 31
0.0
  0
LINE
  5
70ED
330
70DC
100
AcDbEntity
  8
0
100
AcDbLine
 10
3.024999973973265
 20
4.374999519872176
 30
0.0
 11
3.024999973973265
 21
5.349999519872199
 31
0.0
  0
LINE
  5
70EE
330
70DC
100
AcDbEntity
  8
0
100
AcDbLine
 10
3.024999973973265
 20
4.374999519872176
 30
0.0
 11
0.8999999739732658
 21
4.374999519872176
 31
0.0
  0
LINE
  5
70EF
330
70DC
100
AcDbEntity
  8
0
100
AcDbLine
 10
8.524999973973265
 20
4.374999519872176
 30
0.0
 11
6.599999973973268
 21
4.374999519872176
 31
0.0
  0
LINE
  5
70F0
330
70DC
100
AcDbEntity
  8
0
100
AcDbLine
 10
8.524999973973265
 20
6.449999519872108
 30
0.0
 11
0.8999999739732658
 21
6.449999519872108
 31
0.0
  0
ELLIPSE
  5
70F1
330
70DC
100
AcDbEntity
  8
0
100
AcDbEllipse
 10
6.549999973973257
 20
10.04999951987224
 30
0.0
 11
0.0
 21
1.25
 31
0.0
210
0.0
220
0.0
230
1.0
 40
0.98
 41
3.380894
 42
4.528311
  0
ELLIPSE
  5
70F2
330
70DC
100
AcDbEntity
  8
0
100
AcDbEllipse
 10
2.87499997397326
 20
9.074999519872108
 30
0.0
 11
0.0
 21
1.25
 31
0.0
210
0.0
220
0.0
230
1.0
 40
0.98
 41
1.708854999999999
 42
3.380894
  0
LINE
  5
70F3
330
70DC
100
AcDbEntity
  8
0
100
AcDbLine
 10
3.149999973973265
 20
7.824999519872108
 30
0.0
 11
6.849999973973268
 21
8.799999519872244
 31
0.0
  0
ELLIPSE
  5
70F4
330
70DC
100
AcDbEntity
  8
0
100
AcDbEllipse
 10
4.724999973973268
 20
3.474999519872199
 30
0.0
 11
0.0
 21
0.775
 31
0.0
210
0.0
220
0.0
230
1.0
 40
0.9677419999999999
 41
0.0
 42
6.283184999999999
  0
LINE
  5
70F5
330
70DC
100
AcDbEntity
  8
0
100
AcDbLine
 10
0.8999999739732658
 20
39.79999951987224
 30
0.0
 11
0.8999999739732658
 21
37.72499951987219
 31
0.0
  0
LINE
  5
70F6
330
70DC
100
AcDbEntity
  8
0
100
AcDbLine
 10
8.524999973973265
 20
39.79999951987224
 30
0.0
 11
8.524999973973265
 21
37.72499951987219
 31
0.0
  0
LWPOLYLINE
  5
70F7
330
70DC
100
AcDbEntity
  8
0
100
AcDbPolyline
 90
        4
 70
     1
 43
0.0
 10
3.449999973973262
 20
17.12499951987206
 10
3.099999973973261
 20
17.12499951987206
 10
3.099999973973261
 20
16.14999951987215
 10
3.449999973973262
 20
16.14999951987215
  0
LWPOLYLINE
  5
70F8
330
70DC
100
AcDbEntity
  8
0
100
AcDbPolyline
 90
        4
 70
     1
 43
0.0
 10
6.224999973973268
 20
17.12499951987206
 10
5.87499997397326
 20
17.12499951987206
 10
5.87499997397326
 20
16.14999951987215
 10
6.224999973973268
 20
16.14999951987215
  0
LWPOLYLINE
  5
70F9
330
70DC
100
AcDbEntity
  8
0
100
AcDbPolyline
 90
        4
 70
     1
 43
0.0
 10
3.449999973973262
 20
18.29999951987224
 10
3.099999973973261
 20
18.29999951987224
 10
3.099999973973261
 20
17.3249995198721
 10
3.449999973973262
 20
17.3249995198721
  0
LWPOLYLINE
  5
70FA
330
70DC
100
AcDbEntity
  8
0
100
AcDbPolyline
 90
        4
 70
     1
 43
0.0
 10
6.224999973973268
 20
18.29999951987224
 10
5.87499997397326
 20
18.29999951987224
 10
5.87499997397326
 20
17.3249995198721
 10
6.224999973973268
 20
17.3249995198721
  0
LWPOLYLINE
  5
70FB
330
70DC
100
AcDbEntity
  8
0
100
AcDbPolyline
 90
        4
 70
     1
 43
0.0
 10
3.449999973973262
 20
19.4749995198722
 10
3.099999973973261
 20
19.4749995198722
 10
3.099999973973261
 20
18.49999951987206
 10
3.449999973973262
 20
18.49999951987206
  0
LWPOLYLINE
  5
70FC
330
70DC
100
AcDbEntity
  8
0
100
AcDbPolyline
 90
        4
 70
     1
 43
0.0
 10
6.224999973973268
 20
19.4749995198722
 10
5.87499997397326
 20
19.4749995198722
 10
5.87499997397326
 20
18.49999951987206
 10
6.224999973973268
 20
18.49999951987206
  0
LWPOLYLINE
  5
70FD
330
70DC
100
AcDbEntity
  8
0
100
AcDbPolyline
 90
        4
 70
     1
 43
0.0
 10
3.449999973973262
 20
20.67499951987224
 10
3.099999973973261
 20
20.67499951987224
 10
3.099999973973261
 20
19.6999995198721
 10
3.449999973973262
 20
19.6999995198721
  0
LWPOLYLINE
  5
70FE
330
70DC
100
AcDbEntity
  8
0
100
AcDbPolyline
 90
        4
 70
     1
 43
0.0
 10
6.224999973973268
 20
20.67499951987224
 10
5.87499997397326
 20
20.67499951987224
 10
5.87499997397326
 20
19.6999995198721
 10
6.224999973973268
 20
19.6999995198721
  0
LWPOLYLINE
  5
70FF
330
70DC
100
AcDbEntity
  8
0
100
AcDbPolyline
 90
        4
 70
     1
 43
0.0
 10
3.449999973973262
 20
21.8499995198722
 10
3.099999973973261
 20
21.8499995198722
 10
3.099999973973261
 20
20.87499951987206
 10
3.449999973973262
 20
20.87499951987206
  0
LWPOLYLINE
  5
7100
330
70DC
100
AcDbEntity
  8
0
100
AcDbPolyline
 90
        4
 70
     1
 43
0.0
 10
6.224999973973268
 20
21.8499995198722
 10
5.87499997397326
 20
21.8499995198722
 10
5.87499997397326
 20
20.87499951987206
 10
6.224999973973268
 20
20.87499951987206
  0
LWPOLYLINE
  5
7101
330
70DC
100
AcDbEntity
  8
0
100
AcDbPolyline
 90
        4
 70
     1
 43
0.0
 10
3.449999973973262
 20
23.04999951987224
 10
3.099999973973261
 20
23.04999951987224
 10
3.099999973973261
 20
22.0749995198721
 10
3.449999973973262
 20
22.0749995198721
  0
LWPOLYLINE
  5
7102
330
70DC
100
AcDbEntity
  8
0
100
AcDbPolyline
 90
        4
 70
     1
 43
0.0
 10
6.224999973973268
 20
23.04999951987224
 10
5.87499997397326
 20
23.04999951987224
 10
5.87499997397326
 20
22.0749995198721
 10
6.224999973973268
 20
22.0749995198721
  0
LWPOLYLINE
  5
7103
330
70DC
100
AcDbEntity
  8
0
100
AcDbPolyline
 90
        4
 70
     1
 43
0.0
 10
3.474999973973268
 20
24.24999951987206
 10
3.12499997397326
 20
24.24999951987206
 10
3.12499997397326
 20
23.27499951987215
 10
3.474999973973268
 20
23.27499951987215
  0
LWPOLYLINE
  5
7104
330
70DC
100
AcDbEntity
  8
0
100
AcDbPolyline
 90
        4
 70
     1
 43
0.0
 10
6.24999997397326
 20
24.24999951987206
 10
5.899999973973265
 20
24.24999951987206
 10
5.899999973973265
 20
23.27499951987215
 10
6.24999997397326
 20
23.27499951987215
  0
LWPOLYLINE
  5
7105
330
70DC
100
AcDbEntity
  8
0
100
AcDbPolyline
 90
        4
 70
     1
 43
0.0
 10
3.474999973973268
 20
25.49999951987206
 10
3.12499997397326
 20
25.49999951987206
 10
3.12499997397326
 20
24.52499951987215
 10
3.474999973973268
 20
24.52499951987215
  0
LWPOLYLINE
  5
7106
330
70DC
100
AcDbEntity
  8
0
100
AcDbPolyline
 90
        4
 70
     1
 43
0.0
 10
3.474999973973268
 20
26.67499951987224
 10
3.12499997397326
 20
26.67499951987224
 10
3.12499997397326
 20
25.6999995198721
 10
3.474999973973268
 20
25.6999995198721
  0
LWPOLYLINE
  5
7107
330
70DC
100
AcDbEntity
  8
0
100
AcDbPolyline
 90
        4
 70
     1
 43
0.0
 10
3.474999973973268
 20
27.94999951987211
 10
3.12499997397326
 20
27.94999951987211
 10
3.12499997397326
 20
26.9749995198722
 10
3.474999973973268
 20
26.9749995198722
  0
LWPOLYLINE
  5
7108
330
70DC
100
AcDbEntity
  8
0
100
AcDbPolyline
 90
        4
 70
     1
 43
0.0
 10
3.474999973973268
 20
29.27499951987215
 10
3.12499997397326
 20
29.27499951987215
 10
3.12499997397326
 20
28.32499951987211
 10
3.474999973973268
 20
28.32499951987211
  0
LWPOLYLINE
  5
7109
330
70DC
100
AcDbEntity
  8
0
100
AcDbPolyline
 90
        4
 70
     1
 43
0.0
 10
3.474999973973268
 20
30.54999951987224
 10
3.12499997397326
 20
30.54999951987224
 10
3.12499997397326
 20
29.57499951987211
 10
3.474999973973268
 20
29.57499951987211
  0
LWPOLYLINE
  5
710A
330
70DC
100
AcDbEntity
  8
0
100
AcDbPolyline
 90
        4
 70
     1
 43
0.0
 10
3.474999973973268
 20
31.77499951987215
 10
3.12499997397326
 20
31.77499951987215
 10
3.12499997397326
 20
30.79999951987224
 10
3.474999973973268
 20
30.79999951987224
  0
LWPOLYLINE
  5
710B
330
70DC
100
AcDbEntity
  8
0
100
AcDbPolyline
 90
        4
 70
     1
 43
0.0
 10
3.474999973973268
 20
33.04999951987224
 10
3.12499997397326
 20
33.04999951987224
 10
3.12499997397326
 20
32.04999951987224
 10
3.474999973973268
 20
32.04999951987224
  0
LWPOLYLINE
  5
710C
330
70DC
100
AcDbEntity
  8
0
100
AcDbPolyline
 90
        4
 70
     1
 43
0.0
 10
6.24999997397326
 20
25.49999951987206
 10
5.899999973973265
 20
25.49999951987206
 10
5.899999973973265
 20
24.52499951987215
 10
6.24999997397326
 20
24.52499951987215
  0
LWPOLYLINE
  5
710D
330
70DC
100
AcDbEntity
  8
0
100
AcDbPolyline
 90
        4
 70
     1
 43
0.0
 10
6.24999997397326
 20
26.67499951987224
 10
5.899999973973265
 20
26.67499951987224
 10
5.899999973973265
 20
25.6999995198721
 10
6.24999997397326
 20
25.6999995198721
  0
LWPOLYLINE
  5
710E
330
70DC
100
AcDbEntity
  8
0
100
AcDbPolyline
 90
        4
 70
     1
 43
0.0
 10
6.24999997397326
 20
27.94999951987211
 10
5.899999973973265
 20
27.94999951987211
 10
5.899999973973265
 20
26.9749995198722
 10
6.24999997397326
 20
26.9749995198722
  0
LWPOLYLINE
  5
710F
330
70DC
100
AcDbEntity
  8
0
100
AcDbPolyline
 90
        4
 70
     1
 43
0.0
 10
6.24999997397326
 20
29.27499951987215
 10
5.899999973973265
 20
29.27499951987215
 10
5.899999973973265
 20
28.32499951987211
 10
6.24999997397326
 20
28.32499951987211
  0
LWPOLYLINE
  5
7110
330
70DC
100
AcDbEntity
  8
0
100
AcDbPolyline
 90
        4
 70
     1
 43
0.0
 10
6.24999997397326
 20
30.54999951987224
 10
5.899999973973265
 20
30.54999951987224
 10
5.899999973973265
 20
29.57499951987211
 10
6.24999997397326
 20
29.57499951987211
  0
LWPOLYLINE
  5
7111
330
70DC
100
AcDbEntity
  8
0
100
AcDbPolyline
 90
        4
 70
     1
 43
0.0
 10
6.24999997397326
 20
31.77499951987215
 10
5.899999973973265
 20
31.77499951987215
 10
5.899999973973265
 20
30.79999951987224
 10
6.24999997397326
 20
30.79999951987224
  0
LWPOLYLINE
  5
7112
330
70DC
100
AcDbEntity
  8
0
100
AcDbPolyline
 90
        4
 70
     1
 43
0.0
 10
6.24999997397326
 20
33.04999951987224
 10
5.899999973973265
 20
33.04999951987224
 10
5.899999973973265
 20
32.04999951987224
 10
6.24999997397326
 20
32.04999951987224
  0
ELLIPSE
  5
7113
330
70DC
100
AcDbEntity
  8
0
100
AcDbEllipse
 10
6.549999973973257
 20
33.99999951987206
 30
0.0
 11
0.0
 21
1.25
 31
0.0
210
0.0
220
0.0
230
1.0
 40
0.98
 41
4.509903999999999
 42
6.059223999999999
  0
ELLIPSE
  5
7114
330
70DC
100
AcDbEntity
  8
0
100
AcDbEllipse
 10
2.87499997397326
 20
34.92499951987224
 30
0.0
 11
0.0
 21
1.25
 31
0.0
210
0.0
220
0.0
230
1.0
 40
0.98
 41
6.03468
 42
8.053399307179585
  0
LINE
  5
7115
330
70DC
100
AcDbEntity
  8
0
100
AcDbLine
 10
6.849999973973268
 20
35.17499951987224
 30
0.0
 11
3.149999973973265
 21
36.09999951987219
 31
0.0
  0
LINE
  5
7116
330
70DC
100
AcDbEntity
  8
0
100
AcDbLine
 10
8.524999973973265
 20
37.72499951987219
 30
0.0
 11
0.8999999739732658
 21
37.72499951987219
 31
0.0
  0
LINE
  5
7117
330
70DC
100
AcDbEntity
  8
0
100
AcDbLine
 10
6.599999973973268
 20
39.82499951987211
 30
0.0
 11
6.599999973973268
 21
38.8499995198722
 31
0.0
  0
LINE
  5
7118
330
70DC
100
AcDbEntity
  8
0
100
AcDbLine
 10
6.599999973973268
 20
38.8249995198721
 30
0.0
 11
3.024999973973265
 21
38.8249995198721
 31
0.0
  0
LINE
  5
7119
330
70DC
100
AcDbEntity
  8
0
100
AcDbLine
 10
3.024999973973265
 20
39.79999951987224
 30
0.0
 11
3.024999973973265
 21
38.8249995198721
 31
0.0
  0
LINE
  5
711A
330
70DC
100
AcDbEntity
  8
0
100
AcDbLine
 10
3.024999973973265
 20
39.79999951987224
 30
0.0
 11
0.8999999739732658
 21
39.79999951987224
 31
0.0
  0
LINE
  5
711B
330
70DC
100
AcDbEntity
  8
0
100
AcDbLine
 10
8.524999973973265
 20
39.79999951987224
 30
0.0
 11
6.599999973973268
 21
39.79999951987224
 31
0.0
  0
ELLIPSE
  5
711C
330
70DC
100
AcDbEntity
  8
0
100
AcDbEllipse
 10
4.724999973973268
 20
41.02499951987215
 30
0.0
 11
0.0
 21
0.775
 31
0.0
210
0.0
220
0.0
230
1.0
 40
0.9677419999999999
 41
0.0
 42
6.283184999999999
  0
ENDBLK
  5
711E
330
70DC
100
AcDbEntity
  8
0
100
AcDbBlockEnd
  0
BLOCK
  5
715E
330
711F
100
AcDbEntity
  8
0
100
AcDbBlockBegin
  2
A$C5A3A0BB0
 70
     0
 10
0.0
 20
0.0
 30
0.0
  3
A$C5A3A0BB0
  1

  0
LWPOLYLINE
  5
7120
330
711F
100
AcDbEntity
  8
0
100
AcDbPolyline
 90
        4
 70
     1
 43
0.2
 10
0.0999993794071088
 20
51.09999997583827
 10
15.0999993794071
 20
51.09999997583827
 10
15.0999993794071
 20
0.0999999758382728
 10
0.0999993794071088
 20
0.0999999758382728
  0
LINE
  5
7121
330
711F
100
AcDbEntity
  8
0
100
AcDbLine
 10
5.099999379407108
 20
4.099999975838272
 30
0.0
 11
7.099999379407108
 21
5.099999975838272
 31
0.0
  0
LINE
  5
7122
330
711F
100
AcDbEntity
  8
0
100
AcDbLine
 10
3.099999379407108
 20
4.099999975838272
 30
0.0
 11
2.099999379407108
 21
5.099999975838272
 31
0.0
  0
LWPOLYLINE
  5
7123
330
711F
100
AcDbEntity
  8
0
100
AcDbPolyline
 90
        4
 70
     1
 43
0.2
 10
2.099999379407108
 20
5.099999975838272
 10
7.099999379407108
 20
5.099999975838272
 10
7.099999379407108
 20
1.099999975838272
 10
2.099999379407108
 20
1.099999975838272
  0
LINE
  5
7124
330
711F
100
AcDbEntity
  8
0
100
AcDbLine
 10
10.0999993794071
 20
51.09999997583827
 30
0.0
 11
10.0999993794071
 21
0.0999999758382728
 31
0.0
  0
LINE
  5
7125
330
711F
100
AcDbEntity
  8
0
100
AcDbLine
 10
5.099999379407108
 20
2.099999975838272
 30
0.0
 11
7.099999379407108
 21
1.099999975838272
 31
0.0
  0
LINE
  5
7126
330
711F
100
AcDbEntity
  8
0
100
AcDbLine
 10
3.099999379407108
 20
2.099999975838272
 30
0.0
 11
2.099999379407108
 21
1.099999975838272
 31
0.0
  0
LWPOLYLINE
  5
7127
330
711F
100
AcDbEntity
  8
0
100
AcDbPolyline
 90
        4
 70
     1
 43
0.2
 10
3.099999379407108
 20
4.099999975838272
 10
5.099999379407108
 20
4.099999975838272
 10
5.099999379407108
 20
2.099999975838272
 10
3.099999379407108
 20
2.099999975838272
  0
LINE
  5
7128
330
711F
100
AcDbEntity
  8
0
100
AcDbLine
 10
5.099999379407108
 20
49.09999997583827
 30
0.0
 11
7.099999379407108
 21
50.09999997583827
 31
0.0
  0
LINE
  5
7129
330
711F
100
AcDbEntity
  8
0
100
AcDbLine
 10
3.099999379407108
 20
49.09999997583827
 30
0.0
 11
2.099999379407108
 21
50.09999997583827
 31
0.0
  0
LWPOLYLINE
  5
712A
330
711F
100
AcDbEntity
  8
0
100
AcDbPolyline
 90
        4
 70
     1
 43
0.2
 10
2.099999379407108
 20
50.09999997583827
 10
7.099999379407108
 20
50.09999997583827
 10
7.099999379407108
 20
46.09999997583827
 10
2.099999379407108
 20
46.09999997583827
  0
LINE
  5
712B
330
711F
100
AcDbEntity
  8
0
100
AcDbLine
 10
5.099999379407108
 20
27.09999997583827
 30
0.0
 11
7.099999379407108
 21
26.09999997583827
 31
0.0
  0
LINE
  5
712C
330
711F
100
AcDbEntity
  8
0
100
AcDbLine
 10
3.099999379407108
 20
27.09999997583827
 30
0.0
 11
2.099999379407108
 21
26.09999997583827
 31
0.0
  0
LWPOLYLINE
  5
712D
330
711F
100
AcDbEntity
  8
0
100
AcDbPolyline
 90
        4
 70
     1
 43
0.2
 10
2.099999379407108
 20
30.09999997583827
 10
7.099999379407108
 20
30.09999997583827
 10
7.099999379407108
 20
26.09999997583827
 10
2.099999379407108
 20
26.09999997583827
  0
LINE
  5
712E
330
711F
100
AcDbEntity
  8
0
100
AcDbLine
 10
5.099999379407108
 20
9.099999975838272
 30
0.0
 11
7.099999379407108
 21
10.09999997583827
 31
0.0
  0
LINE
  5
712F
330
711F
100
AcDbEntity
  8
0
100
AcDbLine
 10
5.099999379407108
 20
7.099999975838272
 30
0.0
 11
7.099999379407108
 21
6.099999975838272
 31
0.0
  0
LINE
  5
7130
330
711F
100
AcDbEntity
  8
0
100
AcDbLine
 10
3.099999379407108
 20
7.099999975838272
 30
0.0
 11
2.099999379407108
 21
6.099999975838272
 31
0.0
  0
LINE
  5
7131
330
711F
100
AcDbEntity
  8
0
100
AcDbLine
 10
3.099999379407108
 20
9.099999975838272
 30
0.0
 11
2.099999379407108
 21
10.09999997583827
 31
0.0
  0
LWPOLYLINE
  5
7132
330
711F
100
AcDbEntity
  8
0
100
AcDbPolyline
 90
        4
 70
     1
 43
0.2
 10
3.099999379407108
 20
9.099999975838272
 10
5.099999379407108
 20
9.099999975838272
 10
5.099999379407108
 20
7.099999975838272
 10
3.099999379407108
 20
7.099999975838272
  0
LWPOLYLINE
  5
7133
330
711F
100
AcDbEntity
  8
0
100
AcDbPolyline
 90
        4
 70
     1
 43
0.2
 10
2.099999379407108
 20
10.09999997583827
 10
7.099999379407108
 20
10.09999997583827
 10
7.099999379407108
 20
6.099999975838272
 10
2.099999379407108
 20
6.099999975838272
  0
LINE
  5
7134
330
711F
100
AcDbEntity
  8
0
100
AcDbLine
 10
5.099999379407108
 20
14.09999997583827
 30
0.0
 11
7.099999379407108
 21
15.09999997583827
 31
0.0
  0
LINE
  5
7135
330
711F
100
AcDbEntity
  8
0
100
AcDbLine
 10
5.099999379407108
 20
12.09999997583827
 30
0.0
 11
7.099999379407108
 21
11.09999997583827
 31
0.0
  0
LINE
  5
7136
330
711F
100
AcDbEntity
  8
0
100
AcDbLine
 10
3.099999379407108
 20
12.09999997583827
 30
0.0
 11
2.099999379407108
 21
11.09999997583827
 31
0.0
  0
LINE
  5
7137
330
711F
100
AcDbEntity
  8
0
100
AcDbLine
 10
3.099999379407108
 20
14.09999997583827
 30
0.0
 11
2.099999379407108
 21
15.09999997583827
 31
0.0
  0
LWPOLYLINE
  5
7138
330
711F
100
AcDbEntity
  8
0
100
AcDbPolyline
 90
        4
 70
     1
 43
0.2
 10
3.099999379407108
 20
14.09999997583827
 10
5.099999379407108
 20
14.09999997583827
 10
5.099999379407108
 20
12.09999997583827
 10
3.099999379407108
 20
12.09999997583827
  0
LWPOLYLINE
  5
7139
330
711F
100
AcDbEntity
  8
0
100
AcDbPolyline
 90
        4
 70
     1
 43
0.2
 10
2.099999379407108
 20
15.09999997583827
 10
7.099999379407108
 20
15.09999997583827
 10
7.099999379407108
 20
11.09999997583827
 10
2.099999379407108
 20
11.09999997583827
  0
LINE
  5
713A
330
711F
100
AcDbEntity
  8
0
100
AcDbLine
 10
5.099999379407108
 20
19.09999997583827
 30
0.0
 11
7.099999379407108
 21
20.09999997583827
 31
0.0
  0
LINE
  5
713B
330
711F
100
AcDbEntity
  8
0
100
AcDbLine
 10
5.099999379407108
 20
17.09999997583827
 30
0.0
 11
7.099999379407108
 21
16.09999997583827
 31
0.0
  0
LINE
  5
713C
330
711F
100
AcDbEntity
  8
0
100
AcDbLine
 10
3.099999379407108
 20
17.09999997583827
 30
0.0
 11
2.099999379407108
 21
16.09999997583827
 31
0.0
  0
LINE
  5
713D
330
711F
100
AcDbEntity
  8
0
100
AcDbLine
 10
3.099999379407108
 20
19.09999997583827
 30
0.0
 11
2.099999379407108
 21
20.09999997583827
 31
0.0
  0
LWPOLYLINE
  5
713E
330
711F
100
AcDbEntity
  8
0
100
AcDbPolyline
 90
        4
 70
     1
 43
0.2
 10
3.099999379407108
 20
19.09999997583827
 10
5.099999379407108
 20
19.09999997583827
 10
5.099999379407108
 20
17.09999997583827
 10
3.099999379407108
 20
17.09999997583827
  0
LWPOLYLINE
  5
713F
330
711F
100
AcDbEntity
  8
0
100
AcDbPolyline
 90
        4
 70
     1
 43
0.2
 10
2.099999379407108
 20
20.09999997583827
 10
7.099999379407108
 20
20.09999997583827
 10
7.099999379407108
 20
16.09999997583827
 10
2.099999379407108
 20
16.09999997583827
  0
LINE
  5
7140
330
711F
100
AcDbEntity
  8
0
100
AcDbLine
 10
5.099999379407108
 20
24.09999997583827
 30
0.0
 11
7.099999379407108
 21
25.09999997583827
 31
0.0
  0
LINE
  5
7141
330
711F
100
AcDbEntity
  8
0
100
AcDbLine
 10
5.099999379407108
 20
22.09999997583827
 30
0.0
 11
7.099999379407108
 21
21.09999997583827
 31
0.0
  0
LINE
  5
7142
330
711F
100
AcDbEntity
  8
0
100
AcDbLine
 10
3.099999379407108
 20
22.09999997583827
 30
0.0
 11
2.099999379407108
 21
21.09999997583827
 31
0.0
  0
LINE
  5
7143
330
711F
100
AcDbEntity
  8
0
100
AcDbLine
 10
3.099999379407108
 20
24.09999997583827
 30
0.0
 11
2.099999379407108
 21
25.09999997583827
 31
0.0
  0
LWPOLYLINE
  5
7144
330
711F
100
AcDbEntity
  8
0
100
AcDbPolyline
 90
        4
 70
     1
 43
0.2
 10
3.099999379407108
 20
24.09999997583827
 10
5.099999379407108
 20
24.09999997583827
 10
5.099999379407108
 20
22.09999997583827
 10
3.099999379407108
 20
22.09999997583827
  0
LWPOLYLINE
  5
7145
330
711F
100
AcDbEntity
  8
0
100
AcDbPolyline
 90
        4
 70
     1
 43
0.2
 10
2.099999379407108
 20
25.09999997583827
 10
7.099999379407108
 20
25.09999997583827
 10
7.099999379407108
 20
21.09999997583827
 10
2.099999379407108
 20
21.09999997583827
  0
LINE
  5
7146
330
711F
100
AcDbEntity
  8
0
100
AcDbLine
 10
5.099999379407108
 20
29.09999997583827
 30
0.0
 11
7.099999379407108
 21
30.09999997583827
 31
0.0
  0
LINE
  5
7147
330
711F
100
AcDbEntity
  8
0
100
AcDbLine
 10
3.099999379407108
 20
29.09999997583827
 30
0.0
 11
2.099999379407108
 21
30.09999997583827
 31
0.0
  0
LWPOLYLINE
  5
7148
330
711F
100
AcDbEntity
  8
0
100
AcDbPolyline
 90
        4
 70
     1
 43
0.2
 10
3.099999379407108
 20
29.09999997583827
 10
5.099999379407108
 20
29.09999997583827
 10
5.099999379407108
 20
27.09999997583827
 10
3.099999379407108
 20
27.09999997583827
  0
LINE
  5
7149
330
711F
100
AcDbEntity
  8
0
100
AcDbLine
 10
5.099999379407108
 20
34.09999997583827
 30
0.0
 11
7.099999379407108
 21
35.09999997583827
 31
0.0
  0
LINE
  5
714A
330
711F
100
AcDbEntity
  8
0
100
AcDbLine
 10
5.099999379407108
 20
32.09999997583827
 30
0.0
 11
7.099999379407108
 21
31.09999997583827
 31
0.0
  0
LINE
  5
714B
330
711F
100
AcDbEntity
  8
0
100
AcDbLine
 10
3.099999379407108
 20
32.09999997583827
 30
0.0
 11
2.099999379407108
 21
31.09999997583827
 31
0.0
  0
LINE
  5
714C
330
711F
100
AcDbEntity
  8
0
100
AcDbLine
 10
3.099999379407108
 20
34.09999997583827
 30
0.0
 11
2.099999379407108
 21
35.09999997583827
 31
0.0
  0
LWPOLYLINE
  5
714D
330
711F
100
AcDbEntity
  8
0
100
AcDbPolyline
 90
        4
 70
     1
 43
0.2
 10
3.099999379407108
 20
34.09999997583827
 10
5.099999379407108
 20
34.09999997583827
 10
5.099999379407108
 20
32.09999997583827
 10
3.099999379407108
 20
32.09999997583827
  0
LWPOLYLINE
  5
714E
330
711F
100
AcDbEntity
  8
0
100
AcDbPolyline
 90
        4
 70
     1
 43
0.2
 10
2.099999379407108
 20
35.09999997583827
 10
7.099999379407108
 20
35.09999997583827
 10
7.099999379407108
 20
31.09999997583827
 10
2.099999379407108
 20
31.09999997583827
  0
LINE
  5
714F
330
711F
100
AcDbEntity
  8
0
100
AcDbLine
 10
5.099999379407108
 20
39.09999997583827
 30
0.0
 11
7.099999379407108
 21
40.09999997583827
 31
0.0
  0
LINE
  5
7150
330
711F
100
AcDbEntity
  8
0
100
AcDbLine
 10
5.099999379407108
 20
37.09999997583827
 30
0.0
 11
7.099999379407108
 21
36.09999997583827
 31
0.0
  0
LINE
  5
7151
330
711F
100
AcDbEntity
  8
0
100
AcDbLine
 10
3.099999379407108
 20
37.09999997583827
 30
0.0
 11
2.099999379407108
 21
36.09999997583827
 31
0.0
  0
LINE
  5
7152
330
711F
100
AcDbEntity
  8
0
100
AcDbLine
 10
3.099999379407108
 20
39.09999997583827
 30
0.0
 11
2.099999379407108
 21
40.09999997583827
 31
0.0
  0
LWPOLYLINE
  5
7153
330
711F
100
AcDbEntity
  8
0
100
AcDbPolyline
 90
        4
 70
     1
 43
0.2
 10
3.099999379407108
 20
39.09999997583827
 10
5.099999379407108
 20
39.09999997583827
 10
5.099999379407108
 20
37.09999997583827
 10
3.099999379407108
 20
37.09999997583827
  0
LWPOLYLINE
  5
7154
330
711F
100
AcDbEntity
  8
0
100
AcDbPolyline
 90
        4
 70
     1
 43
0.2
 10
2.099999379407108
 20
40.09999997583827
 10
7.099999379407108
 20
40.09999997583827
 10
7.099999379407108
 20
36.09999997583827
 10
2.099999379407108
 20
36.09999997583827
  0
LINE
  5
7155
330
711F
100
AcDbEntity
  8
0
100
AcDbLine
 10
5.099999379407108
 20
44.09999997583827
 30
0.0
 11
7.099999379407108
 21
45.09999997583827
 31
0.0
  0
LINE
  5
7156
330
711F
100
AcDbEntity
  8
0
100
AcDbLine
 10
5.099999379407108
 20
42.09999997583827
 30
0.0
 11
7.099999379407108
 21
41.09999997583827
 31
0.0
  0
LINE
  5
7157
330
711F
100
AcDbEntity
  8
0
100
AcDbLine
 10
3.099999379407108
 20
42.09999997583827
 30
0.0
 11
2.099999379407108
 21
41.09999997583827
 31
0.0
  0
LINE
  5
7158
330
711F
100
AcDbEntity
  8
0
100
AcDbLine
 10
3.099999379407108
 20
44.09999997583827
 30
0.0
 11
2.099999379407108
 21
45.09999997583827
 31
0.0
  0
LWPOLYLINE
  5
7159
330
711F
100
AcDbEntity
  8
0
100
AcDbPolyline
 90
        4
 70
     1
 43
0.2
 10
3.099999379407108
 20
44.09999997583827
 10
5.099999379407108
 20
44.09999997583827
 10
5.099999379407108
 20
42.09999997583827
 10
3.099999379407108
 20
42.09999997583827
  0
LWPOLYLINE
  5
715A
330
711F
100
AcDbEntity
  8
0
100
AcDbPolyline
 90
        4
 70
     1
 43
0.2
 10
2.099999379407108
 20
45.09999997583827
 10
7.099999379407108
 20
45.09999997583827
 10
7.099999379407108
 20
41.09999997583827
 10
2.099999379407108
 20
41.09999997583827
  0
LINE
  5
715B
330
711F
100
AcDbEntity
  8
0
100
AcDbLine
 10
5.099999379407108
 20
47.09999997583827
 30
0.0
 11
7.099999379407108
 21
46.09999997583827
 31
0.0
  0
LINE
  5
715C
330
711F
100
AcDbEntity
  8
0
100
AcDbLine
 10
3.099999379407108
 20
47.09999997583827
 30
0.0
 11
2.099999379407108
 21
46.09999997583827
 31
0.0
  0
LWPOLYLINE
  5
715D
330
711F
100
AcDbEntity
  8
0
100
AcDbPolyline
 90
        4
 70
     1
 43
0.2
 10
3.099999379407108
 20
49.09999997583827
 10
5.099999379407108
 20
49.09999997583827
 10
5.099999379407108
 20
47.09999997583827
 10
3.099999379407108
 20
47.09999997583827
  0
ENDBLK
  5
715F
330
711F
100
AcDbEntity
  8
0
100
AcDbBlockEnd
  0
BLOCK
  5
7175
330
7160
100
AcDbEntity
  8
0
100
AcDbBlockBegin
  2
A$C3413120B
 70
     0
 10
0.0
 20
0.0
 30
0.0
  3
A$C3413120B
  1

  0
LWPOLYLINE
  5
7161
330
7160
100
AcDbEntity
  8
0
100
AcDbPolyline
 90
        4
 70
     1
 43
0.0
 10
-0.0000002802582912
 20
16.02466200946787
 10
14.99999971974171
 20
16.02466200946787
 10
14.99999971974171
 20
0.0
 10
-0.0000002802582912
 20
0.0
  0
LINE
  5
7162
330
7160
100
AcDbEntity
  8
0
100
AcDbLine
 10
9.999999719741708
 20
16.02466200946787
 30
0.0
 11
9.999999719741708
 21
0.0
 31
0.0
  0
LINE
  5
7163
330
7160
100
AcDbEntity
  8
0
100
AcDbLine
 10
4.999999719741708
 20
14.02466200946787
 30
0.0
 11
6.999999719741708
 21
15.02466200946787
 31
0.0
  0
LINE
  5
7164
330
7160
100
AcDbEntity
  8
0
100
AcDbLine
 10
2.999999719741708
 20
14.02466200946787
 30
0.0
 11
1.999999719741708
 21
15.02466200946787
 31
0.0
  0
LWPOLYLINE
  5
7165
330
7160
100
AcDbEntity
  8
0
100
AcDbPolyline
 90
        4
 70
     1
 43
0.2
 10
1.999999719741708
 20
15.02466200946787
 10
6.999999719741708
 20
15.02466200946787
 10
6.999999719741708
 20
11.02466200946787
 10
1.999999719741708
 20
11.02466200946787
  0
LINE
  5
7166
330
7160
100
AcDbEntity
  8
0
100
AcDbLine
 10
4.999999719741708
 20
4.024662009467874
 30
0.0
 11
6.999999719741708
 21
5.024662009467874
 31
0.0
  0
LINE
  5
7167
330
7160
100
AcDbEntity
  8
0
100
AcDbLine
 10
4.999999719741708
 20
2.024662009467874
 30
0.0
 11
6.999999719741708
 21
1.024662009467874
 31
0.0
  0
LINE
  5
7168
330
7160
100
AcDbEntity
  8
0
100
AcDbLine
 10
2.999999719741708
 20
2.024662009467874
 30
0.0
 11
1.999999719741708
 21
1.024662009467874
 31
0.0
  0
LINE
  5
7169
330
7160
100
AcDbEntity
  8
0
100
AcDbLine
 10
2.999999719741708
 20
4.024662009467874
 30
0.0
 11
1.999999719741708
 21
5.024662009467874
 31
0.0
  0
LWPOLYLINE
  5
716A
330
7160
100
AcDbEntity
  8
0
100
AcDbPolyline
 90
        4
 70
     1
 43
0.2
 10
2.999999719741708
 20
4.024662009467874
 10
4.999999719741708
 20
4.024662009467874
 10
4.999999719741708
 20
2.024662009467874
 10
2.999999719741708
 20
2.024662009467874
  0
LWPOLYLINE
  5
716B
330
7160
100
AcDbEntity
  8
0
100
AcDbPolyline
 90
        4
 70
     1
 43
0.2
 10
1.999999719741708
 20
5.024662009467874
 10
6.999999719741708
 20
5.024662009467874
 10
6.999999719741708
 20
1.024662009467874
 10
1.999999719741708
 20
1.024662009467874
  0
LINE
  5
716C
330
7160
100
AcDbEntity
  8
0
100
AcDbLine
 10
4.999999719741708
 20
9.024662009467874
 30
0.0
 11
6.999999719741708
 21
10.02466200946787
 31
0.0
  0
LINE
  5
716D
330
7160
100
AcDbEntity
  8
0
100
AcDbLine
 10
4.999999719741708
 20
7.024662009467874
 30
0.0
 11
6.999999719741708
 21
6.024662009467874
 31
0.0
  0
LINE
  5
716E
330
7160
100
AcDbEntity
  8
0
100
AcDbLine
 10
2.999999719741708
 20
7.024662009467874
 30
0.0
 11
1.999999719741708
 21
6.024662009467874
 31
0.0
  0
LINE
  5
716F
330
7160
100
AcDbEntity
  8
0
100
AcDbLine
 10
2.999999719741708
 20
9.024662009467874
 30
0.0
 11
1.999999719741708
 21
10.02466200946787
 31
0.0
  0
LWPOLYLINE
  5
7170
330
7160
100
AcDbEntity
  8
0
100
AcDbPolyline
 90
        4
 70
     1
 43
0.2
 10
2.999999719741708
 20
9.024662009467874
 10
4.999999719741708
 20
9.024662009467874
 10
4.999999719741708
 20
7.024662009467874
 10
2.999999719741708
 20
7.024662009467874
  0
LWPOLYLINE
  5
7171
330
7160
100
AcDbEntity
  8
0
100
AcDbPolyline
 90
        4
 70
     1
 43
0.2
 10
1.999999719741708
 20
10.02466200946787
 10
6.999999719741708
 20
10.02466200946787
 10
6.999999719741708
 20
6.024662009467874
 10
1.999999719741708
 20
6.024662009467874
  0
LINE
  5
7172
330
7160
100
AcDbEntity
  8
0
100
AcDbLine
 10
4.999999719741708
 20
12.02466200946787
 30
0.0
 11
6.999999719741708
 21
11.02466200946787
 31
0.0
  0
LINE
  5
7173
330
7160
100
AcDbEntity
  8
0
100
AcDbLine
 10
2.999999719741708
 20
12.02466200946787
 30
0.0
 11
1.999999719741708
 21
11.02466200946787
 31
0.0
  0
LWPOLYLINE
  5
7174
330
7160
100
AcDbEntity
  8
0
100
AcDbPolyline
 90
        4
 70
     1
 43
0.2
 10
2.999999719741708
 20
14.02466200946787
 10
4.999999719741708
 20
14.02466200946787
 10
4.999999719741708
 20
12.02466200946787
 10
2.999999719741708
 20
12.02466200946787
  0
ENDBLK
  5
7176
330
7160
100
AcDbEntity
  8
0
100
AcDbBlockEnd
  0
ENDSEC
  0
SECTION
  2
ENTITIES
  0
LINE
  5
8217
330
18
100
AcDbEntity
  8
0
100
AcDbLine
 10
98.05838392721467
 20
-318.7478314428467
 30
0.0
 11
98.05838392721467
 21
-478.7478314428467
 31
0.0
  0
LINE
  5
8218
330
18
100
AcDbEntity
  8
0
100
AcDbLine
 10
163.0583839272146
 20
-319.7478314428467
 30
0.0
 11
163.0583839272146
 21
-477.7478314428467
 31
0.0
  0
LINE
  5
8219
330
18
100
AcDbEntity
  8
0
100
AcDbLine
 10
110.0583839272146
 20
-318.7478314428467
 30
0.0
 11
110.0583839272146
 21
-478.7478314428467
 31
0.0
  0
INSERT
  5
821C
102
{ACAD_REACTORS
330
87B9
102
}
330
18
100
AcDbEntity
  8
0
100
AcDbBlockReference
  2
A$C6C1277F2
 10
146.7333839532414
 20
-375.0228309602817
 30
0.0
  0
LINE
  5
8221
330
18
100
AcDbEntity
  8
0
100
AcDbLine
 10
163.0583839272146
 20
-477.7478314428467
 30
0.0
 11
163.0583839272146
 21
-492.7478314428469
 31
0.0
  0
LINE
  5
8222
330
18
100
AcDbEntity
  8
0
100
AcDbLine
 10
136.3083839272146
 20
-488.7478314428467
 30
0.0
 11
136.3083839272146
 21
-492.7478314428469
 31
0.0
  0
LINE
  5
8223
330
18
100
AcDbEntity
  8
0
100
AcDbLine
 10
141.8083839272146
 20
-488.7478314428467
 30
0.0
 11
141.8083839272146
 21
-492.7478314428469
 31
0.0
  0
LINE
  5
8224
330
18
100
AcDbEntity
  8
0
100
AcDbLine
 10
115.0583839272146
 20
-480.4061438380244
 30
0.0
 11
115.0583839272146
 21
-492.7478314428467
 31
0.0
  0
LINE
  5
8226
330
18
100
AcDbEntity
  8
0
100
AcDbLine
 10
135.3083839272146
 20
-493.7478314428469
 30
0.0
 11
116.0583839272146
 21
-493.7478314428467
 31
0.0
  0
LINE
  5
8228
330
18
100
AcDbEntity
  8
0
100
AcDbLine
 10
116.0583839272146
 20
-493.7478314428467
 30
0.0
 11
115.0583839272146
 21
-492.7478314428467
 31
0.0
  0
LINE
  5
822A
330
18
100
AcDbEntity
  8
0
100
AcDbLine
 10
162.0583839272146
 20
-493.7478314428469
 30
0.0
 11
142.8083839272146
 21
-493.7478314428469
 31
0.0
  0
LINE
  5
822B
330
18
100
AcDbEntity
  8
0
100
AcDbLine
 10
136.3083839272146
 20
-492.7478314428469
 30
0.0
 11
135.3083839272146
 21
-493.7478314428469
 31
0.0
  0
LINE
  5
822C
330
18
100
AcDbEntity
  8
0
100
AcDbLine
 10
142.8083839272146
 20
-493.7478314428469
 30
0.0
 11
141.8083839272146
 21
-492.7478314428469
 31
0.0
  0
LINE
  5
822D
330
18
100
AcDbEntity
  8
0
100
AcDbLine
 10
163.0583839272146
 20
-492.7478314428469
 30
0.0
 11
162.0583839272146
 21
-493.7478314428469
 31
0.0
  0
CIRCLE
  5
8236
330
18
100
AcDbEntity
  8
0
370
    40
100
AcDbCircle
 10
117.0583839272146
 20
-471.7478314428467
 30
0.0
 40
3.0
  0
LINE
  5
8237
330
18
100
AcDbEntity
  8
0
370
    40
100
AcDbLine
 10
118.3083839272146
 20
-472.5478314428467
 30
0.0
 11
115.8083839272146
 21
-472.5478314428467
 31
0.0
  0
LINE
  5
8238
330
18
100
AcDbEntity
  8
0
370
    40
100
AcDbLine
 10
119.0583839272146
 20
-471.3478314428469
 30
0.0
 11
115.0583839272146
 21
-471.3478314428468
 31
0.0
  0
ARC
  5
8239
330
18
100
AcDbEntity
  8
0
100
AcDbCircle
 10
117.5583839272146
 20
-478.7478314428467
 30
0.0
 40
3.0
100
AcDbArc
 50
180.0
 51
0.0
  0
LINE
  5
823A
330
18
100
AcDbEntity
  8
0
100
AcDbLine
 10
98.05838392721467
 20
-478.7478314428467
 30
0.0
 11
162.0583839272146
 21
-478.7478314428467
 31
0.0
  0
LINE
  5
823B
330
18
100
AcDbEntity
  8
0
370
    40
100
AcDbLine
 10
117.5583839272146
 20
-473.7478314428468
 30
0.0
 11
116.5583839272146
 21
-473.7478314428468
 31
0.0
  0
LINE
  5
823C
330
18
100
AcDbEntity
  8
0
370
    40
100
AcDbLine
 10
117.0583839272146
 20
-469.7478314428466
 30
0.0
 11
117.0583839272146
 21
-471.3478314428469
 31
0.0
  0
INSERT
  5
823D
102
{ACAD_REACTORS
330
87B9
102
}
330
18
100
AcDbEntity
  8
0
100
AcDbBlockReference
  2
A$C3A6E1F00
 10
146.7333839532414
 20
-467.1478309627189
 30
0.0
  0
CIRCLE
  5
8240
330
18
100
AcDbEntity
  8
0
100
AcDbCircle
 10
128.0583839272146
 20
-471.7478314428467
 30
0.0
 40
4.0
  0
CIRCLE
  5
8241
330
18
100
AcDbEntity
  8
0
100
AcDbCircle
 10
128.0583839272146
 20
-471.7478314428467
 30
0.0
 40
3.333333333333333
  0
LINE
  5
8242
330
18
100
AcDbEntity
  8
0
100
AcDbLine
 10
125.4763950297435
 20
-471.08116477618
 30
0.0
 11
127.391717260548
 21
-471.08116477618
 31
0.0
  0
LINE
  5
8243
330
18
100
AcDbEntity
  8
0
100
AcDbLine
 10
125.4763950297435
 20
-472.4144981095134
 30
0.0
 11
127.391717260548
 21
-472.4144981095134
 31
0.0
  0
ARC
  5
8244
330
18
100
AcDbEntity
  8
0
100
AcDbCircle
 10
128.0583839272146
 20
-471.7478314428467
 30
0.0
 40
2.666666666666666
100
AcDbArc
 50
165.5224878140701
 51
194.4775121859298
  0
ARC
  5
8245
330
18
100
AcDbEntity
  8
0
100
AcDbCircle
 10
128.0583839272146
 20
-471.7478314428467
 30
0.0
 40
2.666666666666666
100
AcDbArc
 50
345.5224878140701
 51
14.47751218592986
  0
ARC
  5
8246
330
18
100
AcDbEntity
  8
0
100
AcDbCircle
 10
128.0583839272146
 20
-471.7478314428467
 30
0.0
 40
2.666666666666666
100
AcDbArc
 50
75.52248781407055
 51
104.4775121859294
  0
LINE
  5
8247
330
18
100
AcDbEntity
  8
0
100
AcDbLine
 10
127.391717260548
 20
-471.08116477618
 30
0.0
 11
127.391717260548
 21
-469.1658425453749
 31
0.0
  0
LINE
  5
8248
330
18
100
AcDbEntity
  8
0
100
AcDbLine
 10
128.7250505938814
 20
-471.08116477618
 30
0.0
 11
130.6403728246864
 21
-471.08116477618
 31
0.0
  0
LINE
  5
8249
330
18
100
AcDbEntity
  8
0
100
AcDbLine
 10
128.7250505938814
 20
-471.08116477618
 30
0.0
 11
128.7250505938814
 21
-469.1658425453749
 31
0.0
  0
LINE
  5
824A
330
18
100
AcDbEntity
  8
0
100
AcDbLine
 10
128.7250505938814
 20
-472.4144981095134
 30
0.0
 11
130.6403728246864
 21
-472.4144981095134
 31
0.0
  0
ARC
  5
824B
330
18
100
AcDbEntity
  8
0
100
AcDbCircle
 10
128.0583839272146
 20
-471.7478314428467
 30
0.0
 40
2.666666666666666
100
AcDbArc
 50
255.5224878140705
 51
284.4775121859294
  0
LINE
  5
824C
330
18
100
AcDbEntity
  8
0
100
AcDbLine
 10
127.391717260548
 20
-474.3298203403185
 30
0.0
 11
127.391717260548
 21
-472.4144981095134
 31
0.0
  0
LINE
  5
824D
330
18
100
AcDbEntity
  8
0
100
AcDbLine
 10
128.7250505938814
 20
-474.3298203403185
 30
0.0
 11
128.7250505938814
 21
-472.4144981095134
 31
0.0
  0
CIRCLE
  5
824E
330
18
100
AcDbEntity
  8
0
100
AcDbCircle
 10
139.0583839272146
 20
-471.7478314428467
 30
0.0
 40
4.0
  0
CIRCLE
  5
824F
330
18
100
AcDbEntity
  8
0
100
AcDbCircle
 10
139.0583839272146
 20
-471.7478314428467
 30
0.0
 40
3.333333333333333
  0
ARC
  5
8250
330
18
100
AcDbEntity
  8
0
100
AcDbCircle
 10
139.0583839272146
 20
-488.7478314428469
 30
0.0
 40
2.75
100
AcDbArc
 50
0.0
 51
180.0
  0
ARC
  5
8251
330
18
100
AcDbEntity
  8
0
100
AcDbCircle
 10
139.0583839272146
 20
-471.7478314428467
 30
0.0
 40
2.666666666666666
100
AcDbArc
 50
75.52248781407055
 51
104.4775121859294
  0
ARC
  5
8252
330
18
100
AcDbEntity
  8
0
100
AcDbCircle
 10
139.0583839272146
 20
-471.7478314428467
 30
0.0
 40
2.666666666666666
100
AcDbArc
 50
255.5224878140705
 51
284.4775121859294
  0
LINE
  5
8253
330
18
100
AcDbEntity
  8
0
100
AcDbLine
 10
138.391717260548
 20
-471.08116477618
 30
0.0
 11
138.391717260548
 21
-469.1658425453749
 31
0.0
  0
ARC
  5
8254
330
18
100
AcDbEntity
  8
0
100
AcDbCircle
 10
139.0583839272146
 20
-471.7478314428467
 30
0.0
 40
2.666666666666666
100
AcDbArc
 50
165.5224878140701
 51
194.4775121859298
  0
LINE
  5
8255
330
18
100
AcDbEntity
  8
0
100
AcDbLine
 10
136.4763950297435
 20
-471.08116477618
 30
0.0
 11
138.391717260548
 21
-471.08116477618
 31
0.0
  0
LINE
  5
8256
330
18
100
AcDbEntity
  8
0
100
AcDbLine
 10
136.4763950297435
 20
-472.4144981095134
 30
0.0
 11
138.391717260548
 21
-472.4144981095134
 31
0.0
  0
LINE
  5
8257
330
18
100
AcDbEntity
  8
0
100
AcDbLine
 10
138.391717260548
 20
-474.3298203403185
 30
0.0
 11
138.391717260548
 21
-472.4144981095134
 31
0.0
  0
LINE
  5
8258
330
18
100
AcDbEntity
  8
0
100
AcDbLine
 10
139.7250505938814
 20
-471.08116477618
 30
0.0
 11
141.6403728246864
 21
-471.08116477618
 31
0.0
  0
LINE
  5
8259
330
18
100
AcDbEntity
  8
0
100
AcDbLine
 10
139.7250505938814
 20
-471.08116477618
 30
0.0
 11
139.7250505938814
 21
-469.1658425453749
 31
0.0
  0
LINE
  5
825A
330
18
100
AcDbEntity
  8
0
100
AcDbLine
 10
139.7250505938814
 20
-472.4144981095134
 30
0.0
 11
141.6403728246864
 21
-472.4144981095134
 31
0.0
  0
ARC
  5
825B
330
18
100
AcDbEntity
  8
0
100
AcDbCircle
 10
139.0583839272146
 20
-471.7478314428467
 30
0.0
 40
2.666666666666666
100
AcDbArc
 50
345.5224878140701
 51
14.47751218592986
  0
LINE
  5
825C
330
18
100
AcDbEntity
  8
0
100
AcDbLine
 10
139.7250505938814
 20
-474.3298203403185
 30
0.0
 11
139.7250505938814
 21
-472.4144981095134
 31
0.0
  0
LINE
  5
825E
330
18
100
AcDbEntity
  8
0
100
AcDbLine
 10
163.0583839272146
 20
-477.7478314428467
 30
0.0
 11
162.0583839272146
 21
-478.7478314428467
 31
0.0
  0
INSERT
  5
825F
102
{ACAD_REACTORS
330
87B9
102
}
330
18
100
AcDbEntity
  8
0
100
AcDbBlockReference
  2
A$C2F696F30
 10
139.6583831620505
 20
-389.5978312494644
 30
0.0
  0
INSERT
  5
8260
102
{ACAD_REACTORS
330
87B9
102
}
330
18
100
AcDbEntity
  8
0
100
AcDbBlockReference
  2
A$C57095CDF
 10
146.7333839532414
 20
-423.1728313557978
 30
0.0
  0
INSERT
  5
8261
330
18
100
AcDbEntity
  8
0
100
AcDbBlockReference
  2
A$C5A3A0BB0
 10
122.0046666007795
 20
-426.9663550905504
 30
0.0
  0
ARC
  5
826B
330
18
100
AcDbEntity
  8
0
100
AcDbCircle
 10
117.5583839272146
 20
-318.7478314428467
 30
0.0
 40
3.0
100
AcDbArc
 50
0.0
 51
180.0
  0
LINE
  5
826D
330
18
100
AcDbEntity
  8
0
100
AcDbLine
 10
98.05838392721467
 20
-318.7478314428467
 30
0.0
 11
162.0583839272146
 21
-318.7478314428467
 31
0.0
  0
LINE
  5
826F
330
18
100
AcDbEntity
  8
0
100
AcDbLine
 10
135.3083839272146
 20
-303.7478314428467
 30
0.0
 11
116.0583839272147
 21
-303.7478314428465
 31
0.0
  0
LINE
  5
8272
330
18
100
AcDbEntity
  8
0
100
AcDbLine
 10
115.0583839272146
 20
-317.089519047669
 30
0.0
 11
115.0583839272147
 21
-304.7478314428465
 31
0.0
  0
LINE
  5
8273
330
18
100
AcDbEntity
  8
0
100
AcDbLine
 10
116.0583839272147
 20
-303.7478314428465
 30
0.0
 11
115.0583839272147
 21
-304.7478314428465
 31
0.0
  0
LINE
  5
8274
330
18
100
AcDbEntity
  8
0
100
AcDbLine
 10
163.0583839272146
 20
-319.7478314428467
 30
0.0
 11
163.0583839272146
 21
-304.7478314428467
 31
0.0
  0
INSERT
  5
8275
102
{ACAD_REACTORS
330
87B9
102
}
330
18
100
AcDbEntity
  8
0
100
AcDbBlockReference
  2
A$C444F17A9
 10
148.4333833195173
 20
-342.8478319288733
 30
0.0
  0
INSERT
  5
8277
330
18
100
AcDbEntity
  8
0
100
AcDbBlockReference
  2
A$C3413120B
 10
121.9759815402935
 20
-357.1045630726672
 30
0.0
  0
LINE
  5
8281
330
18
100
AcDbEntity
  8
0
100
AcDbLine
 10
163.0583839272146
 20
-319.7478314428467
 30
0.0
 11
162.0583839272146
 21
-318.7478314428467
 31
0.0
  0
LINE
  5
8282
330
18
100
AcDbEntity
  8
0
100
AcDbLine
 10
162.0583839272146
 20
-303.7478314428466
 30
0.0
 11
142.8083839272146
 21
-303.7478314428467
 31
0.0
  0
ARC
  5
8284
330
18
100
AcDbEntity
  8
0
100
AcDbCircle
 10
139.0583839272146
 20
-308.7478314428465
 30
0.0
 40
2.75
100
AcDbArc
 50
180.0
 51
0.0
  0
LINE
  5
8285
330
18
100
AcDbEntity
  8
0
100
AcDbLine
 10
136.3083839272146
 20
-308.7478314428467
 30
0.0
 11
136.3083839272146
 21
-304.7478314428467
 31
0.0
  0
LINE
  5
8286
330
18
100
AcDbEntity
  8
0
100
AcDbLine
 10
136.3083839272146
 20
-304.7478314428467
 30
0.0
 11
135.3083839272146
 21
-303.7478314428467
 31
0.0
  0
LINE
  5
8287
330
18
100
AcDbEntity
  8
0
100
AcDbLine
 10
141.8083839272146
 20
-308.7478314428467
 30
0.0
 11
141.8083839272146
 21
-304.7478314428467
 31
0.0
  0
LINE
  5
8288
330
18
100
AcDbEntity
  8
0
100
AcDbLine
 10
142.8083839272146
 20
-303.7478314428467
 30
0.0
 11
141.8083839272146
 21
-304.7478314428467
 31
0.0
  0
LINE
  5
8289
330
18
100
AcDbEntity
  8
0
100
AcDbLine
 10
163.0583839272146
 20
-304.7478314428467
 30
0.0
 11
162.0583839272146
 21
-303.7478314428466
 31
0.0
  0
ARC
  5
828B
330
18
100
AcDbEntity
  8
0
100
AcDbCircle
 10
399.6363448404806
 20
-372.7478314428468
 30
0.0
 40
1.75
100
AcDbArc
 50
270.0
 51
90.0
  0
ARC
  5
828C
330
18
100
AcDbEntity
  8
0
100
AcDbCircle
 10
388.1363448404806
 20
-372.7478314428468
 30
0.0
 40
1.75
100
AcDbArc
 50
90.0
 51
270.0
  0
ARC
  5
828D
330
18
100
AcDbEntity
  8
0
100
AcDbCircle
 10
364.1363448404806
 20
-372.7478314428468
 30
0.0
 40
1.75
100
AcDbArc
 50
90.0
 51
270.0
  0
ARC
  5
828E
330
18
100
AcDbEntity
  8
0
100
AcDbCircle
 10
375.6363448404806
 20
-372.7478314428468
 30
0.0
 40
1.75
100
AcDbArc
 50
270.0
 51
90.0
  0
LINE
  5
828F
330
18
100
AcDbEntity
  8
0
100
AcDbLine
 10
409.3863448404806
 20
-303.7478314428468
 30
0.0
 11
409.3863448404806
 21
-493.7478314428467
 31
0.0
  0
LINE
  5
8290
330
18
100
AcDbEntity
  8
0
100
AcDbLine
 10
407.3863448404806
 20
-303.7478314428468
 30
0.0
 11
407.3863448404806
 21
-493.7478314428467
 31
0.0
  0
LINE
  5
8291
330
18
100
AcDbEntity
  8
0
100
AcDbLine
 10
407.3863448404806
 20
-319.7478314428466
 30
0.0
 11
407.3863448404806
 21
-477.7478314428468
 31
0.0
  0
LINE
  5
8292
330
18
100
AcDbEntity
  8
0
100
AcDbLine
 10
258.3863448404806
 20
-318.7478314428467
 30
0.0
 11
258.3863448404806
 21
-478.7478314428467
 31
0.0
  0
LINE
  5
8293
330
18
100
AcDbEntity
  8
0
100
AcDbLine
 10
260.3863448404806
 20
-318.7478314428467
 30
0.0
 11
260.3863448404806
 21
-478.7478314428467
 31
0.0
  0
LINE
  5
8294
330
18
100
AcDbEntity
  8
0
100
AcDbLine
 10
260.3863448404806
 20
-477.7478314428468
 30
0.0
 11
260.3863448404806
 21
-319.7478314428466
 31
0.0
  0
LINE
  5
8295
330
18
100
AcDbEntity
  8
0
100
AcDbLine
 10
316.1363448404806
 20
-461.9978314428466
 30
0.0
 11
327.6363448404806
 21
-461.9978314428468
 31
0.0
  0
LINE
  5
8296
330
18
100
AcDbEntity
  8
0
100
AcDbLine
 10
316.1363448404806
 20
-465.4978314428468
 30
0.0
 11
327.6363448404806
 21
-465.4978314428468
 31
0.0
  0
LINE
  5
8297
330
18
100
AcDbEntity
  8
0
100
AcDbLine
 10
316.1363448404806
 20
-471.9978314428468
 30
0.0
 11
327.6363448404806
 21
-471.9978314428468
 31
0.0
  0
LINE
  5
8298
330
18
100
AcDbEntity
  8
0
100
AcDbLine
 10
316.1363448404806
 20
-468.4978314428466
 30
0.0
 11
327.6363448404806
 21
-468.4978314428469
 31
0.0
  0
LINE
  5
8299
330
18
100
AcDbEntity
  8
0
100
AcDbLine
 10
316.1363448404806
 20
-458.9978314428468
 30
0.0
 11
327.6363448404806
 21
-458.9978314428468
 31
0.0
  0
LINE
  5
829A
330
18
100
AcDbEntity
  8
0
100
AcDbLine
 10
316.1363448404806
 20
-455.4978314428466
 30
0.0
 11
327.6363448404806
 21
-455.4978314428468
 31
0.0
  0
ARC
  5
829B
330
18
100
AcDbEntity
  8
0
100
AcDbCircle
 10
328.3863448404806
 20
-478.7478314428467
 30
0.0
 40
3.0
100
AcDbArc
 50
180.0
 51
0.0
  0
LINE
  5
829C
330
18
100
AcDbEntity
  8
0
100
AcDbLine
 10
406.3863448404807
 20
-478.7478314428468
 30
0.0
 11
261.3863448404806
 21
-478.7478314428468
 31
0.0
  0
LINE
  5
829D
330
18
100
AcDbEntity
  8
0
100
AcDbLine
 10
257.0530115071473
 20
-468.4144981095135
 30
0.0
 11
255.9863448404804
 21
-468.4144981095135
 31
0.0
  0
LINE
  5
829E
330
18
100
AcDbEntity
  8
0
100
AcDbLine
 10
255.9863448404804
 20
-475.0811647761802
 30
0.0
 11
257.0530115071473
 21
-475.0811647761802
 31
0.0
  0
LINE
  5
829F
330
18
100
AcDbEntity
  8
0
100
AcDbLine
 10
258.3863448404806
 20
-375.8478314428467
 30
0.0
 11
248.8863448404806
 21
-375.8478314428466
 31
0.0
  0
LINE
  5
82A0
330
18
100
AcDbEntity
  8
0
 48
0.2
100
AcDbLine
 10
258.3863448404806
 20
-390.3478314428468
 30
0.0
 11
237.5863448404804
 21
-390.3478314428468
 31
0.0
  0
LINE
  5
82A1
330
18
100
AcDbEntity
  8
0
100
AcDbLine
 10
258.3863448404806
 20
-426.6478314428467
 30
0.0
 11
248.8863448404806
 21
-426.6478314428465
 31
0.0
  0
LINE
  5
82A2
330
18
100
AcDbEntity
  8
0
 48
0.2
100
AcDbLine
 10
258.3863448404806
 20
-423.6478314428468
 30
0.0
 11
237.5863448404804
 21
-423.6478314428466
 31
0.0
  0
ARC
  5
82A3
330
18
100
AcDbEntity
  8
0
100
AcDbCircle
 10
255.9863448404803
 20
-473.4811647761801
 30
0.0
 40
1.599999999999999
100
AcDbArc
 50
180.0
 51
270.0
  0
LINE
  5
82A4
330
18
100
AcDbEntity
  8
0
100
AcDbLine
 10
254.3863448404806
 20
-470.0144981095133
 30
0.0
 11
254.3863448404806
 21
-473.4811647761798
 31
0.0
  0
ARC
  5
82A5
330
18
100
AcDbEntity
  8
0
100
AcDbCircle
 10
255.9863448404803
 20
-470.0144981095135
 30
0.0
 40
1.599999999999999
100
AcDbArc
 50
90.0
 51
180.0
  0
ARC
  5
82A6
330
18
100
AcDbEntity
  8
0
 48
0.2
100
AcDbCircle
 10
225.4863448404808
 20
-414.8978314428465
 30
0.0
 40
3.100000000000022
100
AcDbArc
 50
180.0
 51
319.1213648534821
  0
ARC
  5
82A7
330
18
100
AcDbEntity
  8
0
 48
0.2
100
AcDbCircle
 10
225.4863448404805
 20
-399.0978314428468
 30
0.0
 40
3.100000000000022
100
AcDbArc
 50
40.87863514651785
 51
180.0
  0
CIRCLE
  5
82A8
330
18
100
AcDbEntity
  8
0
100
AcDbCircle
 10
254.1863448404803
 20
-403.7878314428466
 30
0.0
 40
2.0
  0
LINE
  5
82A9
330
18
100
AcDbEntity
  8
0
100
AcDbLine
 10
253.0002637294253
 20
-405.3981766226135
 30
0.0
 11
255.7966900202472
 21
-402.6017503317916
 31
0.0
  0
LINE
  5
82AA
330
18
100
AcDbEntity
  8
0
100
AcDbLine
 10
252.5759996607134
 20
-404.9739125539017
 30
0.0
 11
255.3724259515354
 21
-402.1774862630797
 31
0.0
  0
LINE
  5
82AB
330
18
100
AcDbEntity
  8
0
100
AcDbLine
 10
250.3863448404806
 20
-375.8478314428466
 30
0.0
 11
250.3863448404806
 21
-426.6478314428465
 31
0.0
  0
LINE
  5
82AC
330
18
100
AcDbEntity
  8
0
100
AcDbLine
 10
248.8863448404806
 20
-375.8478314428466
 30
0.0
 11
248.8863448404806
 21
-426.6478314428465
 31
0.0
  0
LINE
  5
82AD
330
18
100
AcDbEntity
  8
0
 48
0.2
100
AcDbLine
 10
243.3863448404806
 20
-414.8978314428465
 30
0.0
 11
243.3863448404804
 21
-399.0978314428468
 31
0.0
  0
LINE
  5
82AE
330
18
100
AcDbEntity
  8
0
 48
0.2
100
AcDbLine
 10
238.3863448404806
 20
-414.8978314428465
 30
0.0
 11
238.3863448404804
 21
-399.0978314428468
 31
0.0
  0
LINE
  5
82AF
330
18
100
AcDbEntity
  8
0
 48
0.2
100
AcDbLine
 10
222.3863448404806
 20
-414.8978314428465
 30
0.0
 11
222.3863448404804
 21
-399.0978314428468
 31
0.0
  0
LINE
  5
82B0
330
18
100
AcDbEntity
  8
0
 48
0.2
100
AcDbLine
 10
243.3863448404806
 20
-414.8978314428465
 30
0.0
 11
222.3863448404806
 21
-414.8978314428468
 31
0.0
  0
LINE
  5
82B1
330
18
100
AcDbEntity
  8
0
 48
0.2
100
AcDbLine
 10
233.5863448404807
 20
-414.8978314428465
 30
0.0
 11
237.5863448404806
 21
-417.9978314428467
 31
0.0
  0
LINE
  5
82B2
330
18
100
AcDbEntity
  8
0
 48
0.2
100
AcDbLine
 10
237.5863448404804
 20
-423.6478314428466
 30
0.0
 11
237.5863448404804
 21
-417.9978314428467
 31
0.0
  0
ARC
  5
82B3
330
18
100
AcDbEntity
  8
0
 48
0.2
100
AcDbCircle
 10
238.7563448404805
 20
-421.0478314428466
 30
0.0
 40
2.669999999999886
100
AcDbArc
 50
115.9892335838274
 51
244.0107664161725
  0
LINE
  5
82B4
330
18
100
AcDbEntity
  8
0
 48
0.2
100
AcDbLine
 10
229.5863448404807
 20
-414.8978314428465
 30
0.0
 11
227.8302472795051
 21
-416.9266540956025
 31
0.0
  0
LINE
  5
82B5
330
18
100
AcDbEntity
  8
0
 48
0.2
100
AcDbLine
 10
248.2806824077781
 20
-419.3128949523076
 30
0.0
 11
249.6750199750754
 21
-416.8978314428466
 31
0.0
  0
LINE
  5
82B6
330
18
100
AcDbEntity
  8
0
 48
0.2
100
AcDbLine
 10
248.1363448404806
 20
-419.0628949523077
 30
0.0
 11
249.3863448404806
 21
-416.8978314428466
 31
0.0
  0
CIRCLE
  5
82B7
330
18
100
AcDbEntity
  8
0
100
AcDbCircle
 10
254.1863448404803
 20
-419.0278314428466
 30
0.0
 40
2.0
  0
LINE
  5
82B8
330
18
100
AcDbEntity
  8
0
 48
0.2
100
AcDbLine
 10
244.0976697058859
 20
-416.8978314428466
 30
0.0
 11
245.4920072731831
 21
-419.3128949523076
 31
0.0
  0
LINE
  5
82B9
330
18
100
AcDbEntity
  8
0
 48
0.2
100
AcDbLine
 10
244.3863448404806
 20
-416.8978314428466
 30
0.0
 11
245.6363448404806
 21
-419.0628949523077
 31
0.0
  0
CIRCLE
  5
82BA
330
18
100
AcDbEntity
  8
0
 48
0.2
100
AcDbCircle
 10
246.8863448404806
 20
-416.8978314428465
 30
0.0
 40
1.5
  0
LINE
  5
82BB
330
18
100
AcDbEntity
  8
0
 48
0.2
100
AcDbLine
 10
245.4920072731831
 20
-419.3128949523076
 30
0.0
 11
248.2806824077781
 21
-419.3128949523076
 31
0.0
  0
LINE
  5
82BC
330
18
100
AcDbEntity
  8
0
 48
0.2
100
AcDbLine
 10
245.6363448404806
 20
-419.0628949523077
 30
0.0
 11
248.1363448404806
 21
-419.0628949523077
 31
0.0
  0
CIRCLE
  5
82BD
330
18
100
AcDbEntity
  8
0
100
AcDbCircle
 10
254.1863448404803
 20
-424.1078314428466
 30
0.0
 40
2.0
  0
LINE
  5
82BE
330
18
100
AcDbEntity
  8
0
100
AcDbLine
 10
252.5759996607134
 20
-425.2939125539016
 30
0.0
 11
255.3724259515354
 21
-422.4974862630796
 31
0.0
  0
LINE
  5
82BF
330
18
100
AcDbEntity
  8
0
100
AcDbLine
 10
253.0002637294253
 20
-425.7181766226135
 30
0.0
 11
255.7966900202472
 21
-422.9217503317916
 31
0.0
  0
LINE
  5
82C0
330
18
100
AcDbEntity
  8
0
100
AcDbLine
 10
253.0002637294253
 20
-420.6381766226135
 30
0.0
 11
255.7966900202472
 21
-417.8417503317915
 31
0.0
  0
LINE
  5
82C1
330
18
100
AcDbEntity
  8
0
100
AcDbLine
 10
252.5759996607134
 20
-420.2139125539016
 30
0.0
 11
255.3724259515354
 21
-417.4174862630796
 31
0.0
  0
LINE
  5
82C2
330
18
100
AcDbEntity
  8
0
 48
0.2
100
AcDbLine
 10
245.4920072731831
 20
-414.4827679333855
 30
0.0
 11
248.2806824077781
 21
-414.4827679333855
 31
0.0
  0
LINE
  5
82C3
330
18
100
AcDbEntity
  8
0
 48
0.2
100
AcDbLine
 10
245.6363448404806
 20
-414.7327679333854
 30
0.0
 11
248.1363448404806
 21
-414.7327679333854
 31
0.0
  0
LINE
  5
82C4
330
18
100
AcDbEntity
  8
0
 48
0.2
100
AcDbLine
 10
244.0976697058859
 20
-416.8978314428466
 30
0.0
 11
245.4920072731831
 21
-414.4827679333855
 31
0.0
  0
LINE
  5
82C5
330
18
100
AcDbEntity
  8
0
 48
0.2
100
AcDbLine
 10
244.3863448404806
 20
-416.8978314428466
 30
0.0
 11
245.6363448404806
 21
-414.7327679333854
 31
0.0
  0
CIRCLE
  5
82C6
330
18
100
AcDbEntity
  8
0
100
AcDbCircle
 10
254.1863448404803
 20
-408.8678314428466
 30
0.0
 40
2.0
  0
LINE
  5
82C7
330
18
100
AcDbEntity
  8
0
100
AcDbLine
 10
253.0002637294253
 20
-410.4781766226135
 30
0.0
 11
255.7966900202472
 21
-407.6817503317916
 31
0.0
  0
CIRCLE
  5
82C8
330
18
100
AcDbEntity
  8
0
100
AcDbCircle
 10
254.1863448404803
 20
-413.9478314428465
 30
0.0
 40
2.0
  0
LINE
  5
82C9
330
18
100
AcDbEntity
  8
0
 48
0.2
100
AcDbLine
 10
249.6750199750754
 20
-416.8978314428466
 30
0.0
 11
248.2806824077781
 21
-414.4827679333855
 31
0.0
  0
LINE
  5
82CA
330
18
100
AcDbEntity
  8
0
 48
0.2
100
AcDbLine
 10
249.3863448404806
 20
-416.8978314428466
 30
0.0
 11
248.1363448404806
 21
-414.7327679333854
 31
0.0
  0
LINE
  5
82CB
330
18
100
AcDbEntity
  8
0
100
AcDbLine
 10
252.5759996607134
 20
-415.1339125539016
 30
0.0
 11
255.3724259515354
 21
-412.3374862630797
 31
0.0
  0
LINE
  5
82CC
330
18
100
AcDbEntity
  8
0
100
AcDbLine
 10
253.0002637294253
 20
-415.5581766226135
 30
0.0
 11
255.7966900202472
 21
-412.7617503317916
 31
0.0
  0
LINE
  5
82CD
330
18
100
AcDbEntity
  8
0
100
AcDbLine
 10
252.5759996607134
 20
-410.0539125539016
 30
0.0
 11
255.3724259515354
 21
-407.2574862630797
 31
0.0
  0
LINE
  5
82CE
330
18
100
AcDbEntity
  8
0
 48
0.2
100
AcDbLine
 10
243.3863448404804
 20
-399.0978314428468
 30
0.0
 11
222.3863448404804
 21
-399.0978314428468
 31
0.0
  0
LINE
  5
82CF
330
18
100
AcDbEntity
  8
0
 48
0.2
100
AcDbLine
 10
229.5863448404805
 20
-399.0978314428468
 30
0.0
 11
227.8302472795051
 21
-397.0690087900909
 31
0.0
  0
LINE
  5
82D0
330
18
100
AcDbEntity
  8
0
 48
0.2
100
AcDbLine
 10
237.5863448404804
 20
-395.9978314428467
 30
0.0
 11
237.5863448404804
 21
-390.3478314428468
 31
0.0
  0
LINE
  5
82D1
330
18
100
AcDbEntity
  8
0
 48
0.2
100
AcDbLine
 10
233.5863448404804
 20
-399.0978314428468
 30
0.0
 11
237.5863448404804
 21
-395.997831442847
 31
0.0
  0
ARC
  5
82D2
330
18
100
AcDbEntity
  8
0
 48
0.2
100
AcDbCircle
 10
238.7563448404803
 20
-392.9478314428467
 30
0.0
 40
2.669999999999886
100
AcDbArc
 50
115.9892335838274
 51
244.0107664161725
  0
CIRCLE
  5
82D3
330
18
100
AcDbEntity
  8
0
100
AcDbCircle
 10
254.1863448404806
 20
-388.5478314428467
 30
0.0
 40
2.0
  0
LINE
  5
82D4
330
18
100
AcDbEntity
  8
0
100
AcDbLine
 10
253.0002637294255
 20
-390.1581766226136
 30
0.0
 11
255.7966900202475
 21
-387.3617503317916
 31
0.0
  0
LINE
  5
82D5
330
18
100
AcDbEntity
  8
0
100
AcDbLine
 10
252.5759996607137
 20
-389.7339125539017
 30
0.0
 11
255.3724259515354
 21
-386.9374862630797
 31
0.0
  0
CIRCLE
  5
82D6
330
18
100
AcDbEntity
  8
0
 48
0.2
100
AcDbCircle
 10
246.8863448404806
 20
-397.0978314428468
 30
0.0
 40
1.5
  0
LINE
  5
82D7
330
18
100
AcDbEntity
  8
0
 48
0.2
100
AcDbLine
 10
245.6363448404806
 20
-399.262894952308
 30
0.0
 11
248.1363448404806
 21
-399.262894952308
 31
0.0
  0
LINE
  5
82D8
330
18
100
AcDbEntity
  8
0
 48
0.2
100
AcDbLine
 10
245.4920072731831
 20
-399.5128949523079
 30
0.0
 11
248.2806824077781
 21
-399.5128949523079
 31
0.0
  0
LINE
  5
82D9
330
18
100
AcDbEntity
  8
0
 48
0.2
100
AcDbLine
 10
245.6363448404806
 20
-394.9327679333857
 30
0.0
 11
248.1363448404806
 21
-394.9327679333857
 31
0.0
  0
LINE
  5
82DA
330
18
100
AcDbEntity
  8
0
 48
0.2
100
AcDbLine
 10
245.4920072731831
 20
-394.6827679333857
 30
0.0
 11
248.2806824077781
 21
-394.6827679333857
 31
0.0
  0
LINE
  5
82DB
330
18
100
AcDbEntity
  8
0
 48
0.2
100
AcDbLine
 10
244.3863448404806
 20
-397.0978314428468
 30
0.0
 11
245.6363448404806
 21
-394.9327679333857
 31
0.0
  0
LINE
  5
82DC
330
18
100
AcDbEntity
  8
0
 48
0.2
100
AcDbLine
 10
244.0976697058859
 20
-397.0978314428468
 30
0.0
 11
245.4920072731831
 21
-394.6827679333857
 31
0.0
  0
LINE
  5
82DD
330
18
100
AcDbEntity
  8
0
 48
0.2
100
AcDbLine
 10
244.3863448404806
 20
-397.0978314428468
 30
0.0
 11
245.6363448404806
 21
-399.262894952308
 31
0.0
  0
LINE
  5
82DE
330
18
100
AcDbEntity
  8
0
 48
0.2
100
AcDbLine
 10
244.0976697058859
 20
-397.0978314428468
 30
0.0
 11
245.4920072731831
 21
-399.5128949523079
 31
0.0
  0
LINE
  5
82DF
330
18
100
AcDbEntity
  8
0
 48
0.2
100
AcDbLine
 10
248.1363448404806
 20
-394.9327679333857
 30
0.0
 11
249.3863448404806
 21
-397.0978314428468
 31
0.0
  0
LINE
  5
82E0
330
18
100
AcDbEntity
  8
0
 48
0.2
100
AcDbLine
 10
248.2806824077781
 20
-394.6827679333857
 30
0.0
 11
249.6750199750754
 21
-397.0978314428468
 31
0.0
  0
CIRCLE
  5
82E1
330
18
100
AcDbEntity
  8
0
100
AcDbCircle
 10
254.1863448404806
 20
-398.7078314428466
 30
0.0
 40
2.0
  0
LINE
  5
82E2
330
18
100
AcDbEntity
  8
0
 48
0.2
100
AcDbLine
 10
249.3863448404806
 20
-397.0978314428468
 30
0.0
 11
248.1363448404806
 21
-399.262894952308
 31
0.0
  0
LINE
  5
82E3
330
18
100
AcDbEntity
  8
0
 48
0.2
100
AcDbLine
 10
249.6750199750754
 20
-397.0978314428468
 30
0.0
 11
248.2806824077781
 21
-399.5128949523079
 31
0.0
  0
LINE
  5
82E4
330
18
100
AcDbEntity
  8
0
100
AcDbLine
 10
252.5759996607137
 20
-399.8939125539017
 30
0.0
 11
255.3724259515354
 21
-397.0974862630797
 31
0.0
  0
LINE
  5
82E5
330
18
100
AcDbEntity
  8
0
100
AcDbLine
 10
253.0002637294255
 20
-400.3181766226135
 30
0.0
 11
255.7966900202475
 21
-397.5217503317916
 31
0.0
  0
CIRCLE
  5
82E6
330
18
100
AcDbEntity
  8
0
100
AcDbCircle
 10
254.1863448404806
 20
-393.6278314428466
 30
0.0
 40
2.0
  0
LINE
  5
82E7
330
18
100
AcDbEntity
  8
0
100
AcDbLine
 10
253.0002637294255
 20
-395.2381766226136
 30
0.0
 11
255.7966900202475
 21
-392.4417503317917
 31
0.0
  0
LINE
  5
82E8
330
18
100
AcDbEntity
  8
0
100
AcDbLine
 10
252.5759996607137
 20
-394.8139125539017
 30
0.0
 11
255.3724259515354
 21
-392.0174862630797
 31
0.0
  0
CIRCLE
  5
82E9
330
18
100
AcDbEntity
  8
0
100
AcDbCircle
 10
254.1863448404806
 20
-383.4678314428467
 30
0.0
 40
2.0
  0
LINE
  5
82EA
330
18
100
AcDbEntity
  8
0
100
AcDbLine
 10
253.0002637294255
 20
-385.0781766226136
 30
0.0
 11
255.7966900202475
 21
-382.2817503317917
 31
0.0
  0
LINE
  5
82EB
330
18
100
AcDbEntity
  8
0
100
AcDbLine
 10
252.5759996607137
 20
-384.6539125539017
 30
0.0
 11
255.3724259515354
 21
-381.8574862630798
 31
0.0
  0
CIRCLE
  5
82EC
330
18
100
AcDbEntity
  8
0
100
AcDbCircle
 10
254.1863448404806
 20
-378.3878314428467
 30
0.0
 40
2.0
  0
LINE
  5
82ED
330
18
100
AcDbEntity
  8
0
100
AcDbLine
 10
252.5759996607137
 20
-379.5739125539018
 30
0.0
 11
255.3724259515354
 21
-376.7774862630798
 31
0.0
  0
LINE
  5
82EE
330
18
100
AcDbEntity
  8
0
100
AcDbLine
 10
253.0002637294255
 20
-379.9981766226136
 30
0.0
 11
255.7966900202475
 21
-377.2017503317917
 31
0.0
  0
ARC
  5
82EF
330
18
100
AcDbEntity
  8
0
100
AcDbCircle
 10
292.1363448404806
 20
-470.2478314428468
 30
0.0
 40
1.75
100
AcDbArc
 50
90.0
 51
270.0
  0
ARC
  5
82F0
330
18
100
AcDbEntity
  8
0
100
AcDbCircle
 10
292.1363448404806
 20
-457.2478314428468
 30
0.0
 40
1.75
100
AcDbArc
 50
90.0
 51
270.0
  0
ARC
  5
82F1
330
18
100
AcDbEntity
  8
0
100
AcDbCircle
 10
292.1363448404806
 20
-463.7478314428468
 30
0.0
 40
1.75
100
AcDbArc
 50
90.0
 51
270.0
  0
LINE
  5
82F2
330
18
100
AcDbEntity
  8
0
100
AcDbLine
 10
260.3863448404806
 20
-478.7478314428467
 30
0.0
 11
321.3863448404806
 21
-478.7478314428468
 31
0.0
  0
LINE
  5
82F3
330
18
100
AcDbEntity
  8
0
100
AcDbLine
 10
268.1363448404806
 20
-471.9978314428468
 30
0.0
 11
279.6363448404806
 21
-471.9978314428468
 31
0.0
  0
LINE
  5
82F4
330
18
100
AcDbEntity
  8
0
100
AcDbLine
 10
268.1363448404806
 20
-468.4978314428466
 30
0.0
 11
279.6363448404806
 21
-468.4978314428469
 31
0.0
  0
LINE
  5
82F5
330
18
100
AcDbEntity
  8
0
100
AcDbLine
 10
268.1363448404806
 20
-461.9978314428466
 30
0.0
 11
279.6363448404806
 21
-461.9978314428468
 31
0.0
  0
LINE
  5
82F6
330
18
100
AcDbEntity
  8
0
100
AcDbLine
 10
268.1363448404806
 20
-465.4978314428468
 30
0.0
 11
279.6363448404806
 21
-465.4978314428468
 31
0.0
  0
LWPOLYLINE
  5
82F7
330
18
100
AcDbEntity
  8
0
100
AcDbPolyline
 90
        4
 70
     1
 43
0.0
 10
257.0530115071473
 20
-468.4144981095135
 10
257.0530115071473
 20
-475.0811647761802
 10
257.719678173814
 20
-475.0811647761802
 10
257.719678173814
 20
-468.4144981095135
  0
LWPOLYLINE
  5
82F8
330
18
100
AcDbEntity
  8
0
100
AcDbPolyline
 90
        4
 70
     1
 43
0.0
 10
257.719678173814
 20
-467.7478314428468
 10
257.719678173814
 20
-475.7478314428468
 10
258.3863448404806
 20
-475.7478314428468
 10
258.3863448404806
 20
-467.7478314428468
  0
LINE
  5
82F9
330
18
100
AcDbEntity
  8
0
100
AcDbLine
 10
261.3863448404806
 20
-478.7478314428468
 30
0.0
 11
260.3863448404806
 21
-477.7478314428468
 31
0.0
  0
LINE
  5
82FA
330
18
100
AcDbEntity
  8
0
100
AcDbLine
 10
258.3863448404806
 20
-478.7478314428467
 30
0.0
 11
260.3863448404806
 21
-478.7478314428467
 31
0.0
  0
ARC
  5
82FB
330
18
100
AcDbEntity
  8
0
100
AcDbCircle
 10
268.1363448404806
 20
-470.2478314428468
 30
0.0
 40
1.75
100
AcDbArc
 50
90.0
 51
270.0
  0
ARC
  5
82FC
330
18
100
AcDbEntity
  8
0
100
AcDbCircle
 10
268.1363448404806
 20
-463.7478314428468
 30
0.0
 40
1.75
100
AcDbArc
 50
90.0
 51
270.0
  0
ARC
  5
82FD
330
18
100
AcDbEntity
  8
0
100
AcDbCircle
 10
279.6363448404806
 20
-470.2478314428468
 30
0.0
 40
1.75
100
AcDbArc
 50
270.0
 51
90.0
  0
ARC
  5
82FE
330
18
100
AcDbEntity
  8
0
100
AcDbCircle
 10
279.6363448404806
 20
-463.7478314428468
 30
0.0
 40
1.75
100
AcDbArc
 50
270.0
 51
90.0
  0
LINE
  5
82FF
330
18
100
AcDbEntity
  8
0
100
AcDbLine
 10
268.1363448404806
 20
-458.9978314428468
 30
0.0
 11
279.6363448404806
 21
-458.9978314428468
 31
0.0
  0
LINE
  5
8300
330
18
100
AcDbEntity
  8
0
100
AcDbLine
 10
268.1363448404806
 20
-455.4978314428466
 30
0.0
 11
279.6363448404806
 21
-455.4978314428468
 31
0.0
  0
ARC
  5
8301
330
18
100
AcDbEntity
  8
0
100
AcDbCircle
 10
268.1363448404806
 20
-457.2478314428468
 30
0.0
 40
1.75
100
AcDbArc
 50
90.0
 51
270.0
  0
ARC
  5
8302
330
18
100
AcDbEntity
  8
0
100
AcDbCircle
 10
279.6363448404806
 20
-457.2478314428468
 30
0.0
 40
1.75
100
AcDbArc
 50
270.0
 51
90.0
  0
LINE
  5
8303
330
18
100
AcDbEntity
  8
0
100
AcDbLine
 10
292.1363448404806
 20
-471.9978314428468
 30
0.0
 11
303.6363448404806
 21
-471.9978314428468
 31
0.0
  0
LINE
  5
8304
330
18
100
AcDbEntity
  8
0
100
AcDbLine
 10
292.1363448404806
 20
-468.4978314428466
 30
0.0
 11
303.6363448404806
 21
-468.4978314428469
 31
0.0
  0
LINE
  5
8305
330
18
100
AcDbEntity
  8
0
100
AcDbLine
 10
292.1363448404806
 20
-461.9978314428466
 30
0.0
 11
303.6363448404806
 21
-461.9978314428468
 31
0.0
  0
LINE
  5
8306
330
18
100
AcDbEntity
  8
0
100
AcDbLine
 10
292.1363448404806
 20
-465.4978314428468
 30
0.0
 11
303.6363448404806
 21
-465.4978314428468
 31
0.0
  0
ARC
  5
8307
330
18
100
AcDbEntity
  8
0
100
AcDbCircle
 10
303.6363448404806
 20
-470.2478314428468
 30
0.0
 40
1.75
100
AcDbArc
 50
270.0
 51
90.0
  0
ARC
  5
8308
330
18
100
AcDbEntity
  8
0
100
AcDbCircle
 10
303.6363448404806
 20
-463.7478314428468
 30
0.0
 40
1.75
100
AcDbArc
 50
270.0
 51
90.0
  0
ARC
  5
8309
330
18
100
AcDbEntity
  8
0
100
AcDbCircle
 10
316.1363448404806
 20
-470.2478314428468
 30
0.0
 40
1.75
100
AcDbArc
 50
90.0
 51
270.0
  0
ARC
  5
830A
330
18
100
AcDbEntity
  8
0
100
AcDbCircle
 10
316.1363448404806
 20
-463.7478314428468
 30
0.0
 40
1.75
100
AcDbArc
 50
90.0
 51
270.0
  0
LINE
  5
830B
330
18
100
AcDbEntity
  8
0
100
AcDbLine
 10
292.1363448404806
 20
-458.9978314428468
 30
0.0
 11
303.6363448404806
 21
-458.9978314428468
 31
0.0
  0
LINE
  5
830C
330
18
100
AcDbEntity
  8
0
100
AcDbLine
 10
292.1363448404806
 20
-455.4978314428466
 30
0.0
 11
303.6363448404806
 21
-455.4978314428468
 31
0.0
  0
ARC
  5
830D
330
18
100
AcDbEntity
  8
0
100
AcDbCircle
 10
303.6363448404806
 20
-457.2478314428468
 30
0.0
 40
1.75
100
AcDbArc
 50
270.0
 51
90.0
  0
ARC
  5
830E
330
18
100
AcDbEntity
  8
0
100
AcDbCircle
 10
316.1363448404806
 20
-457.2478314428468
 30
0.0
 40
1.75
100
AcDbArc
 50
90.0
 51
270.0
  0
LINE
  5
830F
330
18
100
AcDbEntity
  8
0
100
AcDbLine
 10
257.6863448404806
 20
-375.8478314428467
 30
0.0
 11
257.6863448404803
 21
-426.6478314428467
 31
0.0
  0
LINE
  5
8310
330
18
100
AcDbEntity
  8
0
100
AcDbLine
 10
258.3863448404806
 20
-375.8478314428467
 30
0.0
 11
258.3863448404806
 21
-426.6478314428467
 31
0.0
  0
LINE
  5
8311
330
18
100
AcDbEntity
  8
0
100
AcDbLine
 10
407.3863448404806
 20
-493.7478314428467
 30
0.0
 11
409.3863448404806
 21
-493.7478314428467
 31
0.0
  0
LINE
  5
8312
330
18
100
AcDbEntity
  8
0
100
AcDbLine
 10
388.1363448404806
 20
-374.4978314428468
 30
0.0
 11
399.6363448404806
 21
-374.4978314428468
 31
0.0
  0
LINE
  5
8313
330
18
100
AcDbEntity
  8
0
100
AcDbLine
 10
388.1363448404806
 20
-377.4978314428466
 30
0.0
 11
399.6363448404806
 21
-377.4978314428468
 31
0.0
  0
LINE
  5
8314
330
18
100
AcDbEntity
  8
0
100
AcDbLine
 10
388.1363448404806
 20
-409.9978314428466
 30
0.0
 11
399.6363448404806
 21
-409.9978314428468
 31
0.0
  0
LINE
  5
8315
330
18
100
AcDbEntity
  8
0
100
AcDbLine
 10
388.1363448404806
 20
-406.9978314428468
 30
0.0
 11
399.6363448404806
 21
-406.9978314428468
 31
0.0
  0
LINE
  5
8316
330
18
100
AcDbEntity
  8
0
100
AcDbLine
 10
388.1363448404806
 20
-400.4978314428468
 30
0.0
 11
399.6363448404806
 21
-400.4978314428468
 31
0.0
  0
LINE
  5
8317
330
18
100
AcDbEntity
  8
0
100
AcDbLine
 10
388.1363448404806
 20
-403.4978314428466
 30
0.0
 11
399.6363448404806
 21
-403.4978314428468
 31
0.0
  0
LINE
  5
8318
330
18
100
AcDbEntity
  8
0
100
AcDbLine
 10
388.1363448404806
 20
-393.9978314428468
 30
0.0
 11
399.6363448404806
 21
-393.9978314428468
 31
0.0
  0
LINE
  5
8319
330
18
100
AcDbEntity
  8
0
100
AcDbLine
 10
388.1363448404806
 20
-396.9978314428466
 30
0.0
 11
399.6363448404806
 21
-396.9978314428468
 31
0.0
  0
LINE
  5
831A
330
18
100
AcDbEntity
  8
0
100
AcDbLine
 10
388.1363448404806
 20
-387.4978314428468
 30
0.0
 11
399.6363448404806
 21
-387.4978314428468
 31
0.0
  0
LINE
  5
831B
330
18
100
AcDbEntity
  8
0
100
AcDbLine
 10
388.1363448404806
 20
-390.4978314428466
 30
0.0
 11
399.6363448404806
 21
-390.4978314428468
 31
0.0
  0
LINE
  5
831C
330
18
100
AcDbEntity
  8
0
100
AcDbLine
 10
388.1363448404806
 20
-383.9978314428466
 30
0.0
 11
399.6363448404806
 21
-383.9978314428468
 31
0.0
  0
LINE
  5
831D
330
18
100
AcDbEntity
  8
0
100
AcDbLine
 10
388.1363448404806
 20
-380.9978314428468
 30
0.0
 11
399.6363448404806
 21
-380.9978314428468
 31
0.0
  0
LINE
  5
831E
330
18
100
AcDbEntity
  8
0
100
AcDbLine
 10
388.1363448404806
 20
-439.4978314428469
 30
0.0
 11
399.6363448404806
 21
-439.4978314428469
 31
0.0
  0
LINE
  5
831F
330
18
100
AcDbEntity
  8
0
100
AcDbLine
 10
388.1363448404806
 20
-442.4978314428466
 30
0.0
 11
399.6363448404806
 21
-442.4978314428468
 31
0.0
  0
LINE
  5
8320
330
18
100
AcDbEntity
  8
0
100
AcDbLine
 10
388.1363448404806
 20
-432.9978314428468
 30
0.0
 11
399.6363448404806
 21
-432.9978314428468
 31
0.0
  0
LINE
  5
8321
330
18
100
AcDbEntity
  8
0
100
AcDbLine
 10
388.1363448404806
 20
-435.9978314428466
 30
0.0
 11
399.6363448404806
 21
-435.9978314428468
 31
0.0
  0
LINE
  5
8322
330
18
100
AcDbEntity
  8
0
100
AcDbLine
 10
388.1363448404806
 20
-429.4978314428466
 30
0.0
 11
399.6363448404806
 21
-429.4978314428468
 31
0.0
  0
LINE
  5
8323
330
18
100
AcDbEntity
  8
0
100
AcDbLine
 10
388.1363448404806
 20
-426.4978314428468
 30
0.0
 11
399.6363448404806
 21
-426.4978314428468
 31
0.0
  0
LINE
  5
8324
330
18
100
AcDbEntity
  8
0
100
AcDbLine
 10
388.1363448404806
 20
-422.9978314428466
 30
0.0
 11
399.6363448404806
 21
-422.9978314428469
 31
0.0
  0
LINE
  5
8325
330
18
100
AcDbEntity
  8
0
100
AcDbLine
 10
388.1363448404806
 20
-419.9978314428468
 30
0.0
 11
399.6363448404806
 21
-419.9978314428468
 31
0.0
  0
LINE
  5
8326
330
18
100
AcDbEntity
  8
0
100
AcDbLine
 10
388.1363448404806
 20
-416.4978314428465
 30
0.0
 11
399.6363448404806
 21
-416.4978314428468
 31
0.0
  0
LINE
  5
8327
330
18
100
AcDbEntity
  8
0
100
AcDbLine
 10
388.1363448404806
 20
-413.4978314428468
 30
0.0
 11
399.6363448404806
 21
-413.4978314428468
 31
0.0
  0
LINE
  5
8328
330
18
100
AcDbEntity
  8
0
100
AcDbLine
 10
388.1363448404806
 20
-471.9978314428468
 30
0.0
 11
399.6363448404806
 21
-471.9978314428468
 31
0.0
  0
LINE
  5
8329
330
18
100
AcDbEntity
  8
0
100
AcDbLine
 10
388.1363448404806
 20
-468.4978314428466
 30
0.0
 11
399.6363448404806
 21
-468.4978314428469
 31
0.0
  0
LINE
  5
832A
330
18
100
AcDbEntity
  8
0
100
AcDbLine
 10
388.1363448404806
 20
-461.9978314428466
 30
0.0
 11
399.6363448404806
 21
-461.9978314428468
 31
0.0
  0
LINE
  5
832B
330
18
100
AcDbEntity
  8
0
100
AcDbLine
 10
388.1363448404806
 20
-465.4978314428468
 30
0.0
 11
399.6363448404806
 21
-465.4978314428468
 31
0.0
  0
LINE
  5
832C
330
18
100
AcDbEntity
  8
0
100
AcDbLine
 10
388.1363448404806
 20
-458.9978314428468
 30
0.0
 11
399.6363448404806
 21
-458.9978314428468
 31
0.0
  0
LINE
  5
832D
330
18
100
AcDbEntity
  8
0
100
AcDbLine
 10
388.1363448404806
 20
-452.4978314428468
 30
0.0
 11
399.6363448404806
 21
-452.4978314428468
 31
0.0
  0
LINE
  5
832E
330
18
100
AcDbEntity
  8
0
100
AcDbLine
 10
388.1363448404806
 20
-455.4978314428466
 30
0.0
 11
399.6363448404806
 21
-455.4978314428468
 31
0.0
  0
LINE
  5
832F
330
18
100
AcDbEntity
  8
0
100
AcDbLine
 10
388.1363448404806
 20
-445.9978314428468
 30
0.0
 11
399.6363448404806
 21
-445.9978314428468
 31
0.0
  0
LINE
  5
8330
330
18
100
AcDbEntity
  8
0
100
AcDbLine
 10
388.1363448404806
 20
-448.9978314428466
 30
0.0
 11
399.6363448404806
 21
-448.9978314428468
 31
0.0
  0
LINE
  5
8331
330
18
100
AcDbEntity
  8
0
100
AcDbLine
 10
335.3863448404806
 20
-478.747831442847
 30
0.0
 11
407.3863448404806
 21
-478.7478314428468
 31
0.0
  0
ARC
  5
8332
330
18
100
AcDbEntity
  8
0
100
AcDbCircle
 10
388.1363448404806
 20
-431.2478314428468
 30
0.0
 40
1.75
100
AcDbArc
 50
90.0
 51
270.0
  0
ARC
  5
8333
330
18
100
AcDbEntity
  8
0
100
AcDbCircle
 10
364.1363448404806
 20
-431.2478314428468
 30
0.0
 40
1.75
100
AcDbArc
 50
90.0
 51
270.0
  0
ARC
  5
8334
330
18
100
AcDbEntity
  8
0
100
AcDbCircle
 10
375.6363448404806
 20
-431.2478314428468
 30
0.0
 40
1.75
100
AcDbArc
 50
270.0
 51
90.0
  0
LINE
  5
8335
330
18
100
AcDbEntity
  8
0
100
AcDbLine
 10
340.1363448404806
 20
-461.9978314428466
 30
0.0
 11
351.6363448404806
 21
-461.9978314428468
 31
0.0
  0
LINE
  5
8336
330
18
100
AcDbEntity
  8
0
100
AcDbLine
 10
340.1363448404806
 20
-465.4978314428468
 30
0.0
 11
351.6363448404806
 21
-465.4978314428468
 31
0.0
  0
LINE
  5
8337
330
18
100
AcDbEntity
  8
0
100
AcDbLine
 10
340.1363448404806
 20
-471.9978314428468
 30
0.0
 11
351.6363448404806
 21
-471.9978314428468
 31
0.0
  0
LINE
  5
8338
330
18
100
AcDbEntity
  8
0
100
AcDbLine
 10
340.1363448404806
 20
-468.4978314428466
 30
0.0
 11
351.6363448404806
 21
-468.4978314428469
 31
0.0
  0
ARC
  5
8339
330
18
100
AcDbEntity
  8
0
100
AcDbCircle
 10
327.6363448404806
 20
-470.2478314428468
 30
0.0
 40
1.75
100
AcDbArc
 50
270.0
 51
90.0
  0
ARC
  5
833A
330
18
100
AcDbEntity
  8
0
100
AcDbCircle
 10
327.6363448404806
 20
-463.7478314428468
 30
0.0
 40
1.75
100
AcDbArc
 50
270.0
 51
90.0
  0
ARC
  5
833B
330
18
100
AcDbEntity
  8
0
100
AcDbCircle
 10
340.1363448404806
 20
-470.2478314428468
 30
0.0
 40
1.75
100
AcDbArc
 50
90.0
 51
270.0
  0
ARC
  5
833C
330
18
100
AcDbEntity
  8
0
100
AcDbCircle
 10
340.1363448404806
 20
-463.7478314428468
 30
0.0
 40
1.75
100
AcDbArc
 50
90.0
 51
270.0
  0
ARC
  5
833D
330
18
100
AcDbEntity
  8
0
100
AcDbCircle
 10
351.6363448404806
 20
-470.2478314428468
 30
0.0
 40
1.75
100
AcDbArc
 50
270.0
 51
90.0
  0
ARC
  5
833E
330
18
100
AcDbEntity
  8
0
100
AcDbCircle
 10
351.6363448404806
 20
-463.7478314428468
 30
0.0
 40
1.75
100
AcDbArc
 50
270.0
 51
90.0
  0
LINE
  5
833F
330
18
100
AcDbEntity
  8
0
100
AcDbLine
 10
340.1363448404806
 20
-455.4978314428466
 30
0.0
 11
351.6363448404806
 21
-455.4978314428468
 31
0.0
  0
LINE
  5
8340
330
18
100
AcDbEntity
  8
0
100
AcDbLine
 10
340.1363448404806
 20
-458.9978314428468
 30
0.0
 11
351.6363448404806
 21
-458.9978314428468
 31
0.0
  0
ARC
  5
8341
330
18
100
AcDbEntity
  8
0
100
AcDbCircle
 10
327.6363448404806
 20
-457.2478314428468
 30
0.0
 40
1.75
100
AcDbArc
 50
270.0
 51
90.0
  0
ARC
  5
8342
330
18
100
AcDbEntity
  8
0
100
AcDbCircle
 10
340.1363448404806
 20
-457.2478314428468
 30
0.0
 40
1.75
100
AcDbArc
 50
90.0
 51
270.0
  0
ARC
  5
8343
330
18
100
AcDbEntity
  8
0
100
AcDbCircle
 10
351.6363448404806
 20
-457.2478314428468
 30
0.0
 40
1.75
100
AcDbArc
 50
270.0
 51
90.0
  0
LINE
  5
8344
330
18
100
AcDbEntity
  8
0
100
AcDbLine
 10
364.1363448404806
 20
-471.9978314428468
 30
0.0
 11
375.6363448404806
 21
-471.9978314428468
 31
0.0
  0
LINE
  5
8345
330
18
100
AcDbEntity
  8
0
100
AcDbLine
 10
364.1363448404806
 20
-468.4978314428466
 30
0.0
 11
375.6363448404806
 21
-468.4978314428469
 31
0.0
  0
LINE
  5
8346
330
18
100
AcDbEntity
  8
0
100
AcDbLine
 10
364.1363448404806
 20
-461.9978314428466
 30
0.0
 11
375.6363448404806
 21
-461.9978314428468
 31
0.0
  0
LINE
  5
8347
330
18
100
AcDbEntity
  8
0
100
AcDbLine
 10
364.1363448404806
 20
-465.4978314428468
 30
0.0
 11
375.6363448404806
 21
-465.4978314428468
 31
0.0
  0
ARC
  5
8348
330
18
100
AcDbEntity
  8
0
100
AcDbCircle
 10
364.1363448404806
 20
-470.2478314428468
 30
0.0
 40
1.75
100
AcDbArc
 50
90.0
 51
270.0
  0
ARC
  5
8349
330
18
100
AcDbEntity
  8
0
100
AcDbCircle
 10
364.1363448404806
 20
-463.7478314428468
 30
0.0
 40
1.75
100
AcDbArc
 50
90.0
 51
270.0
  0
ARC
  5
834A
330
18
100
AcDbEntity
  8
0
100
AcDbCircle
 10
375.6363448404806
 20
-470.2478314428468
 30
0.0
 40
1.75
100
AcDbArc
 50
270.0
 51
90.0
  0
ARC
  5
834B
330
18
100
AcDbEntity
  8
0
100
AcDbCircle
 10
375.6363448404806
 20
-463.7478314428468
 30
0.0
 40
1.75
100
AcDbArc
 50
270.0
 51
90.0
  0
ARC
  5
834C
330
18
100
AcDbEntity
  8
0
100
AcDbCircle
 10
388.1363448404806
 20
-470.2478314428468
 30
0.0
 40
1.75
100
AcDbArc
 50
90.0
 51
270.0
  0
ARC
  5
834D
330
18
100
AcDbEntity
  8
0
100
AcDbCircle
 10
388.1363448404806
 20
-463.7478314428468
 30
0.0
 40
1.75
100
AcDbArc
 50
90.0
 51
270.0
  0
ARC
  5
834E
330
18
100
AcDbEntity
  8
0
100
AcDbCircle
 10
364.1363448404806
 20
-444.2478314428468
 30
0.0
 40
1.75
100
AcDbArc
 50
90.0
 51
270.0
  0
ARC
  5
834F
330
18
100
AcDbEntity
  8
0
100
AcDbCircle
 10
375.6363448404806
 20
-444.2478314428468
 30
0.0
 40
1.75
100
AcDbArc
 50
270.0
 51
90.0
  0
LINE
  5
8350
330
18
100
AcDbEntity
  8
0
100
AcDbLine
 10
364.1363448404806
 20
-452.4978314428468
 30
0.0
 11
375.6363448404806
 21
-452.4978314428468
 31
0.0
  0
LINE
  5
8351
330
18
100
AcDbEntity
  8
0
100
AcDbLine
 10
364.1363448404806
 20
-455.4978314428466
 30
0.0
 11
375.6363448404806
 21
-455.4978314428468
 31
0.0
  0
LINE
  5
8352
330
18
100
AcDbEntity
  8
0
100
AcDbLine
 10
364.1363448404806
 20
-458.9978314428468
 30
0.0
 11
375.6363448404806
 21
-458.9978314428468
 31
0.0
  0
LINE
  5
8353
330
18
100
AcDbEntity
  8
0
100
AcDbLine
 10
364.1363448404806
 20
-445.9978314428468
 30
0.0
 11
375.6363448404806
 21
-445.9978314428468
 31
0.0
  0
LINE
  5
8354
330
18
100
AcDbEntity
  8
0
100
AcDbLine
 10
364.1363448404806
 20
-448.9978314428466
 30
0.0
 11
375.6363448404806
 21
-448.9978314428468
 31
0.0
  0
ARC
  5
8355
330
18
100
AcDbEntity
  8
0
100
AcDbCircle
 10
364.1363448404806
 20
-457.2478314428468
 30
0.0
 40
1.75
100
AcDbArc
 50
90.0
 51
270.0
  0
ARC
  5
8356
330
18
100
AcDbEntity
  8
0
100
AcDbCircle
 10
364.1363448404806
 20
-450.7478314428468
 30
0.0
 40
1.75
100
AcDbArc
 50
90.0
 51
270.0
  0
ARC
  5
8357
330
18
100
AcDbEntity
  8
0
100
AcDbCircle
 10
375.6363448404806
 20
-457.2478314428468
 30
0.0
 40
1.75
100
AcDbArc
 50
270.0
 51
90.0
  0
ARC
  5
8358
330
18
100
AcDbEntity
  8
0
100
AcDbCircle
 10
375.6363448404806
 20
-450.7478314428468
 30
0.0
 40
1.75
100
AcDbArc
 50
270.0
 51
90.0
  0
LINE
  5
8359
330
18
100
AcDbEntity
  8
0
100
AcDbLine
 10
364.1363448404806
 20
-439.4978314428469
 30
0.0
 11
375.6363448404806
 21
-439.4978314428469
 31
0.0
  0
LINE
  5
835A
330
18
100
AcDbEntity
  8
0
100
AcDbLine
 10
364.1363448404806
 20
-442.4978314428466
 30
0.0
 11
375.6363448404806
 21
-442.4978314428468
 31
0.0
  0
LINE
  5
835B
330
18
100
AcDbEntity
  8
0
100
AcDbLine
 10
364.1363448404806
 20
-432.9978314428468
 30
0.0
 11
375.6363448404806
 21
-432.9978314428468
 31
0.0
  0
LINE
  5
835C
330
18
100
AcDbEntity
  8
0
100
AcDbLine
 10
364.1363448404806
 20
-435.9978314428466
 30
0.0
 11
375.6363448404806
 21
-435.9978314428468
 31
0.0
  0
ARC
  5
835D
330
18
100
AcDbEntity
  8
0
100
AcDbCircle
 10
364.1363448404806
 20
-437.7478314428469
 30
0.0
 40
1.75
100
AcDbArc
 50
90.0
 51
270.0
  0
ARC
  5
835E
330
18
100
AcDbEntity
  8
0
100
AcDbCircle
 10
375.6363448404806
 20
-437.7478314428469
 30
0.0
 40
1.75
100
AcDbArc
 50
270.0
 51
90.0
  0
ARC
  5
835F
330
18
100
AcDbEntity
  8
0
100
AcDbCircle
 10
388.1363448404806
 20
-444.2478314428468
 30
0.0
 40
1.75
100
AcDbArc
 50
90.0
 51
270.0
  0
ARC
  5
8360
330
18
100
AcDbEntity
  8
0
100
AcDbCircle
 10
388.1363448404806
 20
-450.7478314428468
 30
0.0
 40
1.75
100
AcDbArc
 50
90.0
 51
270.0
  0
ARC
  5
8361
330
18
100
AcDbEntity
  8
0
100
AcDbCircle
 10
388.1363448404806
 20
-457.2478314428468
 30
0.0
 40
1.75
100
AcDbArc
 50
90.0
 51
270.0
  0
ARC
  5
8362
330
18
100
AcDbEntity
  8
0
100
AcDbCircle
 10
388.1363448404806
 20
-437.7478314428469
 30
0.0
 40
1.75
100
AcDbArc
 50
90.0
 51
270.0
  0
ARC
  5
8363
330
18
100
AcDbEntity
  8
0
100
AcDbCircle
 10
364.1363448404806
 20
-418.2478314428468
 30
0.0
 40
1.75
100
AcDbArc
 50
90.0
 51
270.0
  0
ARC
  5
8364
330
18
100
AcDbEntity
  8
0
100
AcDbCircle
 10
375.6363448404806
 20
-418.2478314428468
 30
0.0
 40
1.75
100
AcDbArc
 50
270.0
 51
90.0
  0
LINE
  5
8365
330
18
100
AcDbEntity
  8
0
100
AcDbLine
 10
364.1363448404806
 20
-426.4978314428468
 30
0.0
 11
375.6363448404806
 21
-426.4978314428468
 31
0.0
  0
LINE
  5
8366
330
18
100
AcDbEntity
  8
0
100
AcDbLine
 10
364.1363448404806
 20
-422.9978314428466
 30
0.0
 11
375.6363448404806
 21
-422.9978314428469
 31
0.0
  0
LINE
  5
8367
330
18
100
AcDbEntity
  8
0
100
AcDbLine
 10
364.1363448404806
 20
-429.4978314428466
 30
0.0
 11
375.6363448404806
 21
-429.4978314428468
 31
0.0
  0
LINE
  5
8368
330
18
100
AcDbEntity
  8
0
100
AcDbLine
 10
364.1363448404806
 20
-419.9978314428468
 30
0.0
 11
375.6363448404806
 21
-419.9978314428468
 31
0.0
  0
ARC
  5
8369
330
18
100
AcDbEntity
  8
0
100
AcDbCircle
 10
364.1363448404806
 20
-424.7478314428468
 30
0.0
 40
1.75
100
AcDbArc
 50
90.0
 51
270.0
  0
ARC
  5
836A
330
18
100
AcDbEntity
  8
0
100
AcDbCircle
 10
375.6363448404806
 20
-424.7478314428468
 30
0.0
 40
1.75
100
AcDbArc
 50
270.0
 51
90.0
  0
LINE
  5
836B
330
18
100
AcDbEntity
  8
0
100
AcDbLine
 10
364.1363448404806
 20
-409.9978314428466
 30
0.0
 11
375.6363448404806
 21
-409.9978314428468
 31
0.0
  0
LINE
  5
836C
330
18
100
AcDbEntity
  8
0
100
AcDbLine
 10
364.1363448404806
 20
-406.9978314428468
 30
0.0
 11
375.6363448404806
 21
-406.9978314428468
 31
0.0
  0
LINE
  5
836D
330
18
100
AcDbEntity
  8
0
100
AcDbLine
 10
364.1363448404806
 20
-403.4978314428466
 30
0.0
 11
375.6363448404806
 21
-403.4978314428468
 31
0.0
  0
LINE
  5
836E
330
18
100
AcDbEntity
  8
0
100
AcDbLine
 10
364.1363448404806
 20
-413.4978314428468
 30
0.0
 11
375.6363448404806
 21
-413.4978314428468
 31
0.0
  0
LINE
  5
836F
330
18
100
AcDbEntity
  8
0
100
AcDbLine
 10
364.1363448404806
 20
-416.4978314428465
 30
0.0
 11
375.6363448404806
 21
-416.4978314428468
 31
0.0
  0
ARC
  5
8370
330
18
100
AcDbEntity
  8
0
100
AcDbCircle
 10
364.1363448404806
 20
-411.7478314428468
 30
0.0
 40
1.75
100
AcDbArc
 50
90.0
 51
270.0
  0
ARC
  5
8371
330
18
100
AcDbEntity
  8
0
100
AcDbCircle
 10
364.1363448404806
 20
-405.2478314428468
 30
0.0
 40
1.75
100
AcDbArc
 50
90.0
 51
270.0
  0
ARC
  5
8372
330
18
100
AcDbEntity
  8
0
100
AcDbCircle
 10
375.6363448404806
 20
-411.7478314428468
 30
0.0
 40
1.75
100
AcDbArc
 50
270.0
 51
90.0
  0
ARC
  5
8373
330
18
100
AcDbEntity
  8
0
100
AcDbCircle
 10
375.6363448404806
 20
-405.2478314428468
 30
0.0
 40
1.75
100
AcDbArc
 50
270.0
 51
90.0
  0
ARC
  5
8374
330
18
100
AcDbEntity
  8
0
100
AcDbCircle
 10
388.1363448404806
 20
-418.2478314428468
 30
0.0
 40
1.75
100
AcDbArc
 50
90.0
 51
270.0
  0
ARC
  5
8375
330
18
100
AcDbEntity
  8
0
100
AcDbCircle
 10
388.1363448404806
 20
-424.7478314428468
 30
0.0
 40
1.75
100
AcDbArc
 50
90.0
 51
270.0
  0
ARC
  5
8376
330
18
100
AcDbEntity
  8
0
100
AcDbCircle
 10
388.1363448404806
 20
-405.2478314428468
 30
0.0
 40
1.75
100
AcDbArc
 50
90.0
 51
270.0
  0
ARC
  5
8377
330
18
100
AcDbEntity
  8
0
100
AcDbCircle
 10
388.1363448404806
 20
-411.7478314428468
 30
0.0
 40
1.75
100
AcDbArc
 50
90.0
 51
270.0
  0
LINE
  5
8378
330
18
100
AcDbEntity
  8
0
100
AcDbLine
 10
364.1363448404806
 20
-400.4978314428468
 30
0.0
 11
375.6363448404806
 21
-400.4978314428468
 31
0.0
  0
LINE
  5
8379
330
18
100
AcDbEntity
  8
0
100
AcDbLine
 10
364.1363448404806
 20
-393.9978314428468
 30
0.0
 11
375.6363448404806
 21
-393.9978314428468
 31
0.0
  0
LINE
  5
837A
330
18
100
AcDbEntity
  8
0
100
AcDbLine
 10
364.1363448404806
 20
-396.9978314428466
 30
0.0
 11
375.6363448404806
 21
-396.9978314428468
 31
0.0
  0
LINE
  5
837B
330
18
100
AcDbEntity
  8
0
100
AcDbLine
 10
364.1363448404806
 20
-390.4978314428466
 30
0.0
 11
375.6363448404806
 21
-390.4978314428468
 31
0.0
  0
ARC
  5
837C
330
18
100
AcDbEntity
  8
0
100
AcDbCircle
 10
364.1363448404806
 20
-398.7478314428468
 30
0.0
 40
1.75
100
AcDbArc
 50
90.0
 51
270.0
  0
ARC
  5
837D
330
18
100
AcDbEntity
  8
0
100
AcDbCircle
 10
364.1363448404806
 20
-392.2478314428468
 30
0.0
 40
1.75
100
AcDbArc
 50
90.0
 51
270.0
  0
ARC
  5
837E
330
18
100
AcDbEntity
  8
0
100
AcDbCircle
 10
375.6363448404806
 20
-398.7478314428468
 30
0.0
 40
1.75
100
AcDbArc
 50
270.0
 51
90.0
  0
ARC
  5
837F
330
18
100
AcDbEntity
  8
0
100
AcDbCircle
 10
375.6363448404806
 20
-392.2478314428468
 30
0.0
 40
1.75
100
AcDbArc
 50
270.0
 51
90.0
  0
LINE
  5
8380
330
18
100
AcDbEntity
  8
0
100
AcDbLine
 10
364.1363448404806
 20
-374.4978314428468
 30
0.0
 11
375.6363448404806
 21
-374.4978314428468
 31
0.0
  0
LINE
  5
8381
330
18
100
AcDbEntity
  8
0
100
AcDbLine
 10
364.1363448404806
 20
-377.4978314428466
 30
0.0
 11
375.6363448404806
 21
-377.4978314428468
 31
0.0
  0
LINE
  5
8382
330
18
100
AcDbEntity
  8
0
100
AcDbLine
 10
364.1363448404806
 20
-380.9978314428468
 30
0.0
 11
375.6363448404806
 21
-380.9978314428468
 31
0.0
  0
LINE
  5
8383
330
18
100
AcDbEntity
  8
0
100
AcDbLine
 10
364.1363448404806
 20
-383.9978314428466
 30
0.0
 11
375.6363448404806
 21
-383.9978314428468
 31
0.0
  0
LINE
  5
8384
330
18
100
AcDbEntity
  8
0
100
AcDbLine
 10
364.1363448404806
 20
-387.4978314428468
 30
0.0
 11
375.6363448404806
 21
-387.4978314428468
 31
0.0
  0
ARC
  5
8385
330
18
100
AcDbEntity
  8
0
100
AcDbCircle
 10
364.1363448404806
 20
-385.7478314428468
 30
0.0
 40
1.75
100
AcDbArc
 50
90.0
 51
270.0
  0
ARC
  5
8386
330
18
100
AcDbEntity
  8
0
100
AcDbCircle
 10
364.1363448404806
 20
-379.2478314428468
 30
0.0
 40
1.75
100
AcDbArc
 50
90.0
 51
270.0
  0
ARC
  5
8387
330
18
100
AcDbEntity
  8
0
100
AcDbCircle
 10
375.6363448404806
 20
-385.7478314428468
 30
0.0
 40
1.75
100
AcDbArc
 50
270.0
 51
90.0
  0
ARC
  5
8388
330
18
100
AcDbEntity
  8
0
100
AcDbCircle
 10
375.6363448404806
 20
-379.2478314428468
 30
0.0
 40
1.75
100
AcDbArc
 50
270.0
 51
90.0
  0
ARC
  5
8389
330
18
100
AcDbEntity
  8
0
100
AcDbCircle
 10
388.1363448404806
 20
-392.2478314428468
 30
0.0
 40
1.75
100
AcDbArc
 50
90.0
 51
270.0
  0
ARC
  5
838A
330
18
100
AcDbEntity
  8
0
100
AcDbCircle
 10
388.1363448404806
 20
-398.7478314428468
 30
0.0
 40
1.75
100
AcDbArc
 50
90.0
 51
270.0
  0
ARC
  5
838B
330
18
100
AcDbEntity
  8
0
100
AcDbCircle
 10
388.1363448404806
 20
-385.7478314428468
 30
0.0
 40
1.75
100
AcDbArc
 50
90.0
 51
270.0
  0
ARC
  5
838C
330
18
100
AcDbEntity
  8
0
100
AcDbCircle
 10
388.1363448404806
 20
-379.2478314428468
 30
0.0
 40
1.75
100
AcDbArc
 50
90.0
 51
270.0
  0
ARC
  5
838D
330
18
100
AcDbEntity
  8
0
100
AcDbCircle
 10
399.6363448404806
 20
-431.2478314428469
 30
0.0
 40
1.75
100
AcDbArc
 50
270.0
 51
90.0
  0
LINE
  5
838E
330
18
100
AcDbEntity
  8
0
100
AcDbLine
 10
406.3863448404807
 20
-478.7478314428468
 30
0.0
 11
407.3863448404806
 21
-477.7478314428468
 31
0.0
  0
ARC
  5
838F
330
18
100
AcDbEntity
  8
0
100
AcDbCircle
 10
399.6363448404806
 20
-470.2478314428468
 30
0.0
 40
1.75
100
AcDbArc
 50
270.0
 51
90.0
  0
ARC
  5
8390
330
18
100
AcDbEntity
  8
0
100
AcDbCircle
 10
399.6363448404806
 20
-463.7478314428468
 30
0.0
 40
1.75
100
AcDbArc
 50
270.0
 51
90.0
  0
ARC
  5
8391
330
18
100
AcDbEntity
  8
0
100
AcDbCircle
 10
399.6363448404806
 20
-444.2478314428469
 30
0.0
 40
1.75
100
AcDbArc
 50
270.0
 51
90.0
  0
ARC
  5
8392
330
18
100
AcDbEntity
  8
0
100
AcDbCircle
 10
399.6363448404806
 20
-457.2478314428468
 30
0.0
 40
1.75
100
AcDbArc
 50
270.0
 51
90.0
  0
ARC
  5
8393
330
18
100
AcDbEntity
  8
0
100
AcDbCircle
 10
399.6363448404806
 20
-450.7478314428468
 30
0.0
 40
1.75
100
AcDbArc
 50
270.0
 51
90.0
  0
ARC
  5
8394
330
18
100
AcDbEntity
  8
0
100
AcDbCircle
 10
399.6363448404806
 20
-437.7478314428469
 30
0.0
 40
1.75
100
AcDbArc
 50
270.0
 51
90.0
  0
ARC
  5
8395
330
18
100
AcDbEntity
  8
0
100
AcDbCircle
 10
399.6363448404806
 20
-418.2478314428468
 30
0.0
 40
1.75
100
AcDbArc
 50
270.0
 51
90.0
  0
ARC
  5
8396
330
18
100
AcDbEntity
  8
0
100
AcDbCircle
 10
399.6363448404806
 20
-424.7478314428469
 30
0.0
 40
1.75
100
AcDbArc
 50
270.0
 51
90.0
  0
ARC
  5
8397
330
18
100
AcDbEntity
  8
0
100
AcDbCircle
 10
399.6363448404806
 20
-411.7478314428468
 30
0.0
 40
1.75
100
AcDbArc
 50
270.0
 51
90.0
  0
ARC
  5
8398
330
18
100
AcDbEntity
  8
0
100
AcDbCircle
 10
399.6363448404806
 20
-405.2478314428468
 30
0.0
 40
1.75
100
AcDbArc
 50
270.0
 51
90.0
  0
ARC
  5
8399
330
18
100
AcDbEntity
  8
0
100
AcDbCircle
 10
399.6363448404806
 20
-398.7478314428468
 30
0.0
 40
1.75
100
AcDbArc
 50
270.0
 51
90.0
  0
ARC
  5
839A
330
18
100
AcDbEntity
  8
0
100
AcDbCircle
 10
399.6363448404806
 20
-392.2478314428468
 30
0.0
 40
1.75
100
AcDbArc
 50
270.0
 51
90.0
  0
ARC
  5
839B
330
18
100
AcDbEntity
  8
0
100
AcDbCircle
 10
399.6363448404806
 20
-385.7478314428468
 30
0.0
 40
1.75
100
AcDbArc
 50
270.0
 51
90.0
  0
ARC
  5
839C
330
18
100
AcDbEntity
  8
0
100
AcDbCircle
 10
399.6363448404806
 20
-379.2478314428468
 30
0.0
 40
1.75
100
AcDbArc
 50
270.0
 51
90.0
  0
LINE
  5
839D
330
18
100
AcDbEntity
  8
0
100
AcDbLine
 10
324.5863448404814
 20
-215.3558732503648
 30
0.0
 11
328.1863448404806
 21
-215.3558732503648
 31
0.0
  0
CIRCLE
  5
839E
330
18
100
AcDbEntity
  8
0
100
AcDbCircle
 10
326.6363448404806
 20
-263.8558732503649
 30
0.0
 40
0.5
  0
CIRCLE
  5
839F
330
18
100
AcDbEntity
  8
0
100
AcDbCircle
 10
326.6363448404806
 20
-260.3558732503648
 30
0.0
 40
0.5
  0
LINE
  5
83A0
330
18
100
AcDbEntity
  8
0
100
AcDbLine
 10
340.8863448404806
 20
-252.8558732503647
 30
0.0
 11
304.8863448404806
 21
-252.8558732503648
 31
0.0
  0
LINE
  5
83A1
330
18
100
AcDbEntity
  8
0
100
AcDbLine
 10
340.8863448404806
 20
-266.8558732503648
 30
0.0
 11
304.8863448404806
 21
-266.8558732503648
 31
0.0
  0
LWPOLYLINE
  5
83A2
330
18
100
AcDbEntity
  8
0
100
AcDbPolyline
 90
        4
 70
     1
 43
0.0
 10
307.8863448404806
 20
-265.8558732503649
 10
337.8863448404806
 20
-265.8558732503649
 10
337.8863448404806
 20
-257.8558732503648
 10
307.8863448404806
 20
-257.8558732503648
  0
HATCH
  5
83A3
330
18
100
AcDbEntity
  8
0
100
AcDbHatch
 10
0.0
 20
0.0
 30
0.0
210
0.0
220
0.0
230
1.0
  2
SOLID
 70
     1
 71
     0
 91
       20
 92
        7
 72
     1
 73
     1
 93
        2
 10
312.1363448404806
 20
-260.3558732503648
 42
1.0
 10
311.1363448404806
 20
-260.3558732503648
 42
1.0
 97
        0
 92
        7
 72
     1
 73
     1
 93
        2
 10
314.6363448404806
 20
-260.3558732503648
 42
1.0
 10
313.6363448404806
 20
-260.3558732503648
 42
1.0
 97
        0
 92
        7
 72
     1
 73
     1
 93
        2
 10
316.1363448404806
 20
-260.3558732503648
 42
1.0
 10
317.1363448404806
 20
-260.3558732503648
 42
1.0
 97
        0
 92
        7
 72
     1
 73
     1
 93
        2
 10
319.6363448404806
 20
-260.3558732503648
 42
1.0
 10
318.6363448404806
 20
-260.3558732503648
 42
1.0
 97
        0
 92
        7
 72
     1
 73
     1
 93
        2
 10
322.1363448404806
 20
-260.3558732503648
 42
1.0
 10
321.1363448404806
 20
-260.3558732503648
 42
1.0
 97
        0
 92
        7
 72
     1
 73
     1
 93
        2
 10
324.6363448404806
 20
-260.3558732503648
 42
1.0
 10
323.6363448404806
 20
-260.3558732503648
 42
1.0
 97
        0
 92
        7
 72
     1
 73
     1
 93
        2
 10
327.1363448404806
 20
-260.3558732503648
 42
1.0
 10
326.1363448404806
 20
-260.3558732503648
 42
1.0
 97
        0
 92
        7
 72
     1
 73
     1
 93
        2
 10
329.6363448404806
 20
-260.3558732503648
 42
1.0
 10
328.6363448404806
 20
-260.3558732503648
 42
1.0
 97
        0
 92
        7
 72
     1
 73
     1
 93
        2
 10
332.1363448404806
 20
-260.3558732503648
 42
1.0
 10
331.1363448404806
 20
-260.3558732503648
 42
1.0
 97
        0
 92
        7
 72
     1
 73
     1
 93
        2
 10
334.6363448404806
 20
-260.3558732503648
 42
1.0
 10
333.6363448404806
 20
-260.3558732503648
 42
1.0
 97
        0
 92
        7
 72
     1
 73
     1
 93
        2
 10
334.6363448404806
 20
-263.8558732503649
 42
1.0
 10
333.6363448404806
 20
-263.8558732503649
 42
1.0
 97
        0
 92
        7
 72
     1
 73
     1
 93
        2
 10
332.1363448404806
 20
-263.8558732503649
 42
1.0
 10
331.1363448404806
 20
-263.8558732503649
 42
1.0
 97
        0
 92
        7
 72
     1
 73
     1
 93
        2
 10
329.6363448404806
 20
-263.8558732503649
 42
1.0
 10
328.6363448404806
 20
-263.8558732503649
 42
1.0
 97
        0
 92
        7
 72
     1
 73
     1
 93
        2
 10
327.1363448404806
 20
-263.8558732503649
 42
1.0
 10
326.1363448404806
 20
-263.8558732503649
 42
1.0
 97
        0
 92
        7
 72
     1
 73
     1
 93
        2
 10
324.6363448404806
 20
-263.8558732503649
 42
1.0
 10
323.6363448404806
 20
-263.8558732503649
 42
1.0
 97
        0
 92
        7
 72
     1
 73
     1
 93
        2
 10
322.1363448404806
 20
-263.8558732503649
 42
1.0
 10
321.1363448404806
 20
-263.8558732503649
 42
1.0
 97
        0
 92
        7
 72
     1
 73
     1
 93
        2
 10
319.6363448404806
 20
-263.8558732503649
 42
1.0
 10
318.6363448404806
 20
-263.8558732503649
 42
1.0
 97
        0
 92
        7
 72
     1
 73
     1
 93
        2
 10
317.1363448404806
 20
-263.8558732503649
 42
1.0
 10
316.1363448404806
 20
-263.8558732503649
 42
1.0
 97
        0
 92
        7
 72
     1
 73
     1
 93
        2
 10
314.6363448404806
 20
-263.8558732503649
 42
1.0
 10
313.6363448404806
 20
-263.8558732503649
 42
1.0
 97
        0
 92
        7
 72
     1
 73
     1
 93
        2
 10
312.1363448404806
 20
-263.8558732503649
 42
1.0
 10
311.1363448404806
 20
-263.8558732503649
 42
1.0
 97
        0
 75
     0
 76
     1
 47
0.0523552323646742
 98
       20
 10
311.6857531398927
 20
-260.4555957057373
 10
314.3056231866296
 20
-260.3508853615261
 10
316.9254932333663
 20
-260.3508853615261
 10
319.1261840250547
 20
-260.2985301894205
 10
321.58886170249
 20
-260.4555957057373
 10
324.3659241185282
 20
-260.4555957057373
 10
326.6714106159279
 20
-260.3508853615261
 10
329.0816904405076
 20
-260.4555957057373
 10
331.7015604872445
 20
-260.5079508778429
 10
334.1118415010896
 20
-260.5079508778429
 10
334.269033870391
 20
-263.8586858697002
 10
331.5967659707987
 20
-263.8586858697002
 10
329.0816904405076
 20
-264.0681065581227
 10
326.4618203937707
 20
-263.8586858697002
 10
324.1563350856367
 20
-263.8586858697002
 10
321.6412595553456
 20
-263.9633962139114
 10
319.021389508609
 20
-263.8063306975946
 10
316.7159042004748
 20
-264.0681065581227
 10
313.9388417844368
 20
-263.9110410418058
 10
311.6857531398927
 20
-263.8586858697002
  0
LINE
  5
83A4
330
18
100
AcDbEntity
  8
0
100
AcDbLine
 10
316.1363448404806
 20
-341.9978314428468
 30
0.0
 11
327.6363448404806
 21
-341.9978314428468
 31
0.0
  0
LINE
  5
83A5
330
18
100
AcDbEntity
  8
0
100
AcDbLine
 10
316.1363448404806
 20
-338.4978314428466
 30
0.0
 11
327.6363448404806
 21
-338.4978314428468
 31
0.0
  0
LINE
  5
83A6
330
18
100
AcDbEntity
  8
0
100
AcDbLine
 10
316.1363448404806
 20
-335.4978314428468
 30
0.0
 11
327.6363448404806
 21
-335.4978314428468
 31
0.0
  0
LINE
  5
83A7
330
18
100
AcDbEntity
  8
0
100
AcDbLine
 10
316.1363448404806
 20
-328.9978314428468
 30
0.0
 11
327.6363448404806
 21
-328.9978314428468
 31
0.0
  0
LINE
  5
83A8
330
18
100
AcDbEntity
  8
0
100
AcDbLine
 10
316.1363448404806
 20
-325.4978314428466
 30
0.0
 11
327.6363448404806
 21
-325.4978314428468
 31
0.0
  0
LINE
  5
83A9
330
18
100
AcDbEntity
  8
0
100
AcDbLine
 10
316.1363448404806
 20
-331.9978314428466
 30
0.0
 11
327.6363448404806
 21
-331.9978314428468
 31
0.0
  0
LINE
  5
83AA
330
18
100
AcDbEntity
  8
0
100
AcDbLine
 10
258.3863448404806
 20
-318.7478314428465
 30
0.0
 11
326.8863448404806
 21
-318.7478314428467
 31
0.0
  0
LINE
  5
83AC
330
18
100
AcDbEntity
  8
0
100
AcDbLine
 10
261.3863448404806
 20
-318.7478314428466
 30
0.0
 11
406.3863448404807
 21
-318.7478314428466
 31
0.0
  0
LINE
  5
83AD
330
18
100
AcDbEntity
  8
0
100
AcDbLine
 10
409.3863448404806
 20
-218.8558732503648
 30
0.0
 11
258.3863448404806
 21
-218.8558732503648
 31
0.0
  0
LINE
  5
83AE
330
18
100
AcDbEntity
  8
0
100
AcDbLine
 10
390.3863448404806
 20
-222.8558732503648
 30
0.0
 11
277.3863448404806
 21
-222.8558732503648
 31
0.0
  0
LINE
  5
83AF
330
18
100
AcDbEntity
  8
0
100
AcDbLine
 10
260.3863448404806
 20
-271.8558732503648
 30
0.0
 11
407.3863448404806
 21
-271.8558732503648
 31
0.0
  0
LINE
  5
83B0
330
18
100
AcDbEntity
  8
0
100
AcDbLine
 10
261.3863448404806
 20
-220.8558732503648
 30
0.0
 11
406.3863448404807
 21
-220.8558732503648
 31
0.0
  0
LINE
  5
83B1
330
18
100
AcDbEntity
  8
0
100
AcDbLine
 10
408.3863448404806
 20
-218.8558732503648
 30
0.0
 11
259.3863448404806
 21
-218.8558732503648
 31
0.0
  0
CIRCLE
  5
83B2
330
18
100
AcDbEntity
  8
0
100
AcDbCircle
 10
324.1363448404806
 20
-260.3558732503648
 30
0.0
 40
0.5
  0
CIRCLE
  5
83B3
330
18
100
AcDbEntity
  8
0
100
AcDbCircle
 10
316.6363448404806
 20
-260.3558732503648
 30
0.0
 40
0.5
  0
LINE
  5
83B4
330
18
100
AcDbEntity
  8
0
100
AcDbLine
 10
304.8863448404806
 20
-266.8558732503648
 30
0.0
 11
304.8863448404806
 21
-252.8558732503648
 31
0.0
  0
CIRCLE
  5
83B5
330
18
100
AcDbEntity
  8
0
100
AcDbCircle
 10
311.6363448404806
 20
-260.3558732503648
 30
0.0
 40
0.5
  0
CIRCLE
  5
83B6
330
18
100
AcDbEntity
  8
0
100
AcDbCircle
 10
314.1363448404806
 20
-260.3558732503648
 30
0.0
 40
0.5
  0
CIRCLE
  5
83B7
330
18
100
AcDbEntity
  8
0
100
AcDbCircle
 10
321.6363448404806
 20
-260.3558732503648
 30
0.0
 40
0.5
  0
CIRCLE
  5
83B8
330
18
100
AcDbEntity
  8
0
100
AcDbCircle
 10
319.1363448404806
 20
-260.3558732503648
 30
0.0
 40
0.5
  0
LINE
  5
83B9
330
18
100
AcDbEntity
  8
0
100
AcDbLine
 10
266.3863448404806
 20
-266.8558732503648
 30
0.0
 11
266.3863448404806
 21
-249.8558732503648
 31
0.0
  0
LINE
  5
83BA
330
18
100
AcDbEntity
  8
0
100
AcDbLine
 10
274.8863448404806
 20
-266.8558732503648
 30
0.0
 11
274.8863448404806
 21
-249.8558732503648
 31
0.0
  0
LINE
  5
83BB
330
18
100
AcDbEntity
  8
0
100
AcDbLine
 10
277.3863448404806
 20
-266.8558732503648
 30
0.0
 11
277.3863448404806
 21
-249.8558732503648
 31
0.0
  0
LINE
  5
83BC
330
18
100
AcDbEntity
  8
0
100
AcDbLine
 10
280.3863448404806
 20
-266.8558732503648
 30
0.0
 11
280.3863448404806
 21
-249.8558732503648
 31
0.0
  0
LINE
  5
83BD
330
18
100
AcDbEntity
  8
0
100
AcDbLine
 10
269.3863448404806
 20
-266.8558732503648
 30
0.0
 11
269.3863448404806
 21
-249.8558732503648
 31
0.0
  0
LINE
  5
83BE
330
18
100
AcDbEntity
  8
0
100
AcDbLine
 10
271.8863448404806
 20
-266.8558732503648
 30
0.0
 11
271.8863448404806
 21
-249.8558732503648
 31
0.0
  0
LINE
  5
83BF
330
18
100
AcDbEntity
  8
0
100
AcDbLine
 10
282.8863448404806
 20
-266.8558732503648
 30
0.0
 11
282.8863448404806
 21
-249.8558732503648
 31
0.0
  0
LINE
  5
83C0
330
18
100
AcDbEntity
  8
0
100
AcDbLine
 10
296.8863448404806
 20
-266.8558732503647
 30
0.0
 11
296.8863448404806
 21
-249.8558732503648
 31
0.0
  0
LINE
  5
83C1
330
18
100
AcDbEntity
  8
0
100
AcDbLine
 10
285.8863448404806
 20
-266.8558732503648
 30
0.0
 11
285.8863448404806
 21
-249.8558732503648
 31
0.0
  0
LINE
  5
83C2
330
18
100
AcDbEntity
  8
0
100
AcDbLine
 10
291.3863448404806
 20
-266.8558732503647
 30
0.0
 11
291.3863448404806
 21
-249.8558732503648
 31
0.0
  0
LINE
  5
83C3
330
18
100
AcDbEntity
  8
0
100
AcDbLine
 10
288.3863448404806
 20
-266.8558732503647
 30
0.0
 11
288.3863448404806
 21
-249.8558732503648
 31
0.0
  0
LINE
  5
83C4
330
18
100
AcDbEntity
  8
0
100
AcDbLine
 10
293.8863448404806
 20
-266.8558732503647
 30
0.0
 11
293.8863448404806
 21
-249.8558732503648
 31
0.0
  0
LINE
  5
83C5
330
18
100
AcDbEntity
  8
0
 48
0.2
100
AcDbLine
 10
256.3863448404806
 20
-264.2058732503647
 30
0.0
 11
256.3863448404806
 21
-257.2058732503646
 31
0.0
  0
LINE
  5
83C6
330
18
100
AcDbEntity
  8
0
 48
0.2
100
AcDbLine
 10
229.5863448404805
 20
-264.5558732503648
 30
0.0
 11
229.5863448404805
 21
-256.8558732503646
 31
0.0
  0
ARC
  5
83C7
330
18
100
AcDbEntity
  8
0
 48
0.2
100
AcDbCircle
 10
238.7563448404804
 20
-260.7058732503647
 30
0.0
 40
2.669999999999886
100
AcDbArc
 50
115.9892335838274
 51
244.0107664161725
  0
LINE
  5
83C8
330
18
100
AcDbEntity
  8
0
 48
0.2
100
AcDbLine
 10
237.5863448404806
 20
-267.0558732503648
 30
0.0
 11
237.5863448404804
 21
-254.3558732503648
 31
0.0
  0
LINE
  5
83C9
330
18
100
AcDbEntity
  8
0
100
AcDbLine
 10
262.3863448404806
 20
-223.8558732503648
 30
0.0
 11
262.3863448404806
 21
-270.8558732503648
 31
0.0
  0
LINE
  5
83CA
330
18
100
AcDbEntity
  8
0
100
AcDbLine
 10
260.3863448404806
 20
-271.8558732503648
 30
0.0
 11
260.3863448404806
 21
-221.8558732503648
 31
0.0
  0
LINE
  5
83CB
330
18
100
AcDbEntity
  8
0
100
AcDbLine
 10
258.3863448404806
 20
-219.8558732503648
 30
0.0
 11
258.3863448404806
 21
-271.8558732503648
 31
0.0
  0
LINE
  5
83CC
330
18
100
AcDbEntity
  8
0
 48
0.2
100
AcDbLine
 10
222.3863448404806
 20
-269.7058732503647
 30
0.0
 11
222.3863448404806
 21
-251.7058732503646
 31
0.0
  0
LINE
  5
83CD
330
18
100
AcDbEntity
  8
0
 48
0.2
100
AcDbLine
 10
261.3863448404806
 20
-264.2058732503646
 30
0.0
 11
256.3863448404806
 21
-264.2058732503647
 31
0.0
  0
LINE
  5
83CE
330
18
100
AcDbEntity
  8
0
100
AcDbLine
 10
258.3863448404806
 20
-341.1478314428467
 30
0.0
 11
248.8863448404806
 21
-341.1478314428466
 31
0.0
  0
LINE
  5
83CF
330
18
100
AcDbEntity
  8
0
 48
0.2
100
AcDbLine
 10
261.3863448404806
 20
-267.0558732503648
 30
0.0
 11
222.3863448404805
 21
-267.0558732503647
 31
0.0
  0
LINE
  5
83D0
330
18
100
AcDbEntity
  8
0
100
AcDbLine
 10
258.3863448404804
 20
-356.3478314428467
 30
0.0
 11
248.8863448404804
 21
-356.3478314428465
 31
0.0
  0
LINE
  5
83D1
330
18
100
AcDbEntity
  8
0
100
AcDbLine
 10
250.3863448404806
 20
-341.1478314428466
 30
0.0
 11
250.3863448404808
 21
-356.3478314428465
 31
0.0
  0
LINE
  5
83D2
330
18
100
AcDbEntity
  8
0
100
AcDbLine
 10
248.8863448404806
 20
-341.1478314428466
 30
0.0
 11
248.8863448404806
 21
-356.3478314428465
 31
0.0
  0
LINE
  5
83D3
330
18
100
AcDbEntity
  8
0
100
AcDbLine
 10
252.5759996607137
 20
-355.0339125539017
 30
0.0
 11
255.3724259515354
 21
-352.2374862630797
 31
0.0
  0
LINE
  5
83D4
330
18
100
AcDbEntity
  8
0
100
AcDbLine
 10
253.0002637294255
 20
-355.4581766226135
 30
0.0
 11
255.7966900202475
 21
-352.6617503317917
 31
0.0
  0
CIRCLE
  5
83D5
330
18
100
AcDbEntity
  8
0
100
AcDbCircle
 10
254.1863448404806
 20
-353.8478314428466
 30
0.0
 40
2.0
  0
CIRCLE
  5
83D6
330
18
100
AcDbEntity
  8
0
100
AcDbCircle
 10
254.1863448404806
 20
-348.7678314428467
 30
0.0
 40
2.0
  0
LINE
  5
83D7
330
18
100
AcDbEntity
  8
0
100
AcDbLine
 10
252.5759996607137
 20
-349.9539125539017
 30
0.0
 11
255.3724259515354
 21
-347.1574862630798
 31
0.0
  0
LINE
  5
83D8
330
18
100
AcDbEntity
  8
0
100
AcDbLine
 10
253.0002637294255
 20
-350.3781766226136
 30
0.0
 11
255.7966900202475
 21
-347.5817503317916
 31
0.0
  0
CIRCLE
  5
83D9
330
18
100
AcDbEntity
  8
0
100
AcDbCircle
 10
254.1863448404806
 20
-343.6878314428466
 30
0.0
 40
2.0
  0
LINE
  5
83DA
330
18
100
AcDbEntity
  8
0
100
AcDbLine
 10
252.5759996607137
 20
-344.8739125539017
 30
0.0
 11
255.3724259515354
 21
-342.0774862630797
 31
0.0
  0
LINE
  5
83DB
330
18
100
AcDbEntity
  8
0
100
AcDbLine
 10
253.0002637294255
 20
-345.2981766226136
 30
0.0
 11
255.7966900202475
 21
-342.5017503317917
 31
0.0
  0
LINE
  5
83DC
330
18
100
AcDbEntity
  8
0
 48
0.2
100
AcDbLine
 10
243.3863448404805
 20
-267.0558732503647
 30
0.0
 11
238.3863448404805
 21
-269.7058732503647
 31
0.0
  0
LINE
  5
83DD
330
18
100
AcDbEntity
  8
0
 48
0.2
100
AcDbLine
 10
237.5863448404806
 20
-264.5558732503648
 30
0.0
 11
229.5863448404805
 21
-264.5558732503648
 31
0.0
  0
LINE
  5
83DE
330
18
100
AcDbEntity
  8
0
 48
0.2
100
AcDbLine
 10
238.3863448404802
 20
-269.7058732503647
 30
0.0
 11
222.3863448404806
 21
-269.7058732503647
 31
0.0
  0
ARC
  5
83DF
330
18
100
AcDbEntity
  8
0
100
AcDbCircle
 10
292.1363448404806
 20
-333.7478314428468
 30
0.0
 40
1.75
100
AcDbArc
 50
90.0
 51
270.0
  0
ARC
  5
83E0
330
18
100
AcDbEntity
  8
0
100
AcDbCircle
 10
292.1363448404806
 20
-340.2478314428468
 30
0.0
 40
1.75
100
AcDbArc
 50
90.0
 51
270.0
  0
ARC
  5
83E1
330
18
100
AcDbEntity
  8
0
100
AcDbCircle
 10
292.1363448404806
 20
-327.2478314428468
 30
0.0
 40
1.75
100
AcDbArc
 50
90.0
 51
270.0
  0
LINE
  5
83E2
330
18
100
AcDbEntity
  8
0
100
AcDbLine
 10
258.3863448404806
 20
-341.1478314428467
 30
0.0
 11
258.3863448404806
 21
-356.3478314428467
 31
0.0
  0
LINE
  5
83E3
330
18
100
AcDbEntity
  8
0
100
AcDbLine
 10
257.6863448404806
 20
-341.1478314428467
 30
0.0
 11
257.6863448404806
 21
-356.3478314428467
 31
0.0
  0
LINE
  5
83E4
330
18
100
AcDbEntity
  8
0
100
AcDbLine
 10
268.1363448404806
 20
-341.9978314428468
 30
0.0
 11
279.6363448404806
 21
-341.9978314428468
 31
0.0
  0
LINE
  5
83E5
330
18
100
AcDbEntity
  8
0
100
AcDbLine
 10
268.1363448404806
 20
-338.4978314428466
 30
0.0
 11
279.6363448404806
 21
-338.4978314428468
 31
0.0
  0
LINE
  5
83E6
330
18
100
AcDbEntity
  8
0
100
AcDbLine
 10
268.1363448404806
 20
-335.4978314428468
 30
0.0
 11
279.6363448404806
 21
-335.4978314428468
 31
0.0
  0
LINE
  5
83E7
330
18
100
AcDbEntity
  8
0
100
AcDbLine
 10
268.1363448404806
 20
-328.9978314428468
 30
0.0
 11
279.6363448404806
 21
-328.9978314428468
 31
0.0
  0
LINE
  5
83E8
330
18
100
AcDbEntity
  8
0
100
AcDbLine
 10
268.1363448404806
 20
-331.9978314428466
 30
0.0
 11
279.6363448404806
 21
-331.9978314428468
 31
0.0
  0
LINE
  5
83E9
330
18
100
AcDbEntity
  8
0
100
AcDbLine
 10
268.1363448404806
 20
-325.4978314428466
 30
0.0
 11
279.6363448404806
 21
-325.4978314428468
 31
0.0
  0
ARC
  5
83EA
330
18
100
AcDbEntity
  8
0
100
AcDbCircle
 10
268.1363448404806
 20
-340.2478314428468
 30
0.0
 40
1.75
100
AcDbArc
 50
90.0
 51
270.0
  0
ARC
  5
83EB
330
18
100
AcDbEntity
  8
0
100
AcDbCircle
 10
268.1363448404806
 20
-333.7478314428468
 30
0.0
 40
1.75
100
AcDbArc
 50
90.0
 51
270.0
  0
LINE
  5
83EC
330
18
100
AcDbEntity
  8
0
100
AcDbLine
 10
260.3863448404806
 20
-319.7478314428466
 30
0.0
 11
261.3863448404806
 21
-318.7478314428466
 31
0.0
  0
LINE
  5
83ED
330
18
100
AcDbEntity
  8
0
100
AcDbLine
 10
258.3863448404806
 20
-318.7478314428467
 30
0.0
 11
260.3863448404806
 21
-318.7478314428467
 31
0.0
  0
ARC
  5
83EE
330
18
100
AcDbEntity
  8
0
100
AcDbCircle
 10
268.1363448404806
 20
-327.2478314428468
 30
0.0
 40
1.75
100
AcDbArc
 50
90.0
 51
270.0
  0
ARC
  5
83EF
330
18
100
AcDbEntity
  8
0
100
AcDbCircle
 10
279.6363448404806
 20
-340.2478314428468
 30
0.0
 40
1.75
100
AcDbArc
 50
270.0
 51
90.0
  0
ARC
  5
83F0
330
18
100
AcDbEntity
  8
0
100
AcDbCircle
 10
279.6363448404806
 20
-333.7478314428468
 30
0.0
 40
1.75
100
AcDbArc
 50
270.0
 51
90.0
  0
ARC
  5
83F1
330
18
100
AcDbEntity
  8
0
100
AcDbCircle
 10
279.6363448404806
 20
-327.2478314428468
 30
0.0
 40
1.75
100
AcDbArc
 50
270.0
 51
90.0
  0
LINE
  5
83F2
330
18
100
AcDbEntity
  8
0
100
AcDbLine
 10
292.1363448404806
 20
-341.9978314428468
 30
0.0
 11
303.6363448404806
 21
-341.9978314428468
 31
0.0
  0
LINE
  5
83F3
330
18
100
AcDbEntity
  8
0
100
AcDbLine
 10
292.1363448404806
 20
-335.4978314428468
 30
0.0
 11
303.6363448404806
 21
-335.4978314428468
 31
0.0
  0
LINE
  5
83F4
330
18
100
AcDbEntity
  8
0
100
AcDbLine
 10
292.1363448404806
 20
-338.4978314428466
 30
0.0
 11
303.6363448404806
 21
-338.4978314428468
 31
0.0
  0
LINE
  5
83F5
330
18
100
AcDbEntity
  8
0
100
AcDbLine
 10
292.1363448404806
 20
-331.9978314428466
 30
0.0
 11
303.6363448404806
 21
-331.9978314428468
 31
0.0
  0
ARC
  5
83F6
330
18
100
AcDbEntity
  8
0
100
AcDbCircle
 10
303.6363448404806
 20
-340.2478314428468
 30
0.0
 40
1.75
100
AcDbArc
 50
270.0
 51
90.0
  0
ARC
  5
83F7
330
18
100
AcDbEntity
  8
0
100
AcDbCircle
 10
303.6363448404806
 20
-333.7478314428468
 30
0.0
 40
1.75
100
AcDbArc
 50
270.0
 51
90.0
  0
LINE
  5
83F8
330
18
100
AcDbEntity
  8
0
100
AcDbLine
 10
292.1363448404806
 20
-328.9978314428468
 30
0.0
 11
303.6363448404806
 21
-328.9978314428468
 31
0.0
  0
LINE
  5
83F9
330
18
100
AcDbEntity
  8
0
100
AcDbLine
 10
292.1363448404806
 20
-325.4978314428466
 30
0.0
 11
303.6363448404806
 21
-325.4978314428468
 31
0.0
  0
ARC
  5
83FA
330
18
100
AcDbEntity
  8
0
100
AcDbCircle
 10
303.6363448404806
 20
-327.2478314428468
 30
0.0
 40
1.75
100
AcDbArc
 50
270.0
 51
90.0
  0
ARC
  5
83FB
330
18
100
AcDbEntity
  8
0
100
AcDbCircle
 10
316.1363448404806
 20
-340.2478314428468
 30
0.0
 40
1.75
100
AcDbArc
 50
90.0
 51
270.0
  0
ARC
  5
83FC
330
18
100
AcDbEntity
  8
0
100
AcDbCircle
 10
316.1363448404806
 20
-333.7478314428468
 30
0.0
 40
1.75
100
AcDbArc
 50
90.0
 51
270.0
  0
ARC
  5
83FD
330
18
100
AcDbEntity
  8
0
100
AcDbCircle
 10
316.1363448404806
 20
-327.2478314428468
 30
0.0
 40
1.75
100
AcDbArc
 50
90.0
 51
270.0
  0
LINE
  5
83FE
330
18
100
AcDbEntity
  8
0
100
AcDbLine
 10
274.8863448404806
 20
-266.8558732503648
 30
0.0
 11
271.8863448404806
 21
-266.8558732503648
 31
0.0
  0
LINE
  5
83FF
330
18
100
AcDbEntity
  8
0
100
AcDbLine
 10
260.3863448404806
 20
-266.8558732503648
 30
0.0
 11
260.3863448404806
 21
-271.8558732503648
 31
0.0
  0
LINE
  5
8400
330
18
100
AcDbEntity
  8
0
100
AcDbLine
 10
261.3863448404806
 20
-266.8558732503648
 30
0.0
 11
261.3863448404806
 21
-270.8558732503648
 31
0.0
  0
LINE
  5
8401
330
18
100
AcDbEntity
  8
0
100
AcDbLine
 10
260.3863448404806
 20
-270.8558732503648
 30
0.0
 11
262.3863448404806
 21
-270.8558732503648
 31
0.0
  0
LINE
  5
8402
330
18
100
AcDbEntity
  8
0
100
AcDbLine
 10
258.3863448404806
 20
-271.8558732503648
 30
0.0
 11
260.3863448404806
 21
-271.8558732503648
 31
0.0
  0
LINE
  5
8403
330
18
100
AcDbEntity
  8
0
100
AcDbLine
 10
261.3863448404806
 20
-267.0558732503648
 30
0.0
 11
258.3863448404806
 21
-267.0558732503648
 31
0.0
  0
LINE
  5
8404
330
18
100
AcDbEntity
  8
0
100
AcDbLine
 10
260.3863448404806
 20
-266.8558732503648
 30
0.0
 11
261.3863448404806
 21
-266.8558732503648
 31
0.0
  0
LINE
  5
8405
330
18
100
AcDbEntity
  8
0
 48
0.2
100
AcDbLine
 10
261.3863448404806
 20
-267.0558732503648
 30
0.0
 11
261.3863448404806
 21
-264.2058732503647
 31
0.0
  0
LINE
  5
8406
330
18
100
AcDbEntity
  8
0
100
AcDbLine
 10
269.3863448404806
 20
-266.8558732503648
 30
0.0
 11
266.3863448404806
 21
-266.8558732503648
 31
0.0
  0
LINE
  5
8407
330
18
100
AcDbEntity
  8
0
100
AcDbLine
 10
280.3863448404806
 20
-266.8558732503648
 30
0.0
 11
277.3863448404806
 21
-266.8558732503648
 31
0.0
  0
LINE
  5
8408
330
18
100
AcDbEntity
  8
0
100
AcDbLine
 10
285.8863448404806
 20
-266.8558732503648
 30
0.0
 11
282.8863448404806
 21
-266.8558732503648
 31
0.0
  0
LINE
  5
8409
330
18
100
AcDbEntity
  8
0
100
AcDbLine
 10
291.3863448404806
 20
-266.8558732503647
 30
0.0
 11
288.3863448404806
 21
-266.8558732503647
 31
0.0
  0
CIRCLE
  5
840A
330
18
100
AcDbEntity
  8
0
100
AcDbCircle
 10
300.8863448404806
 20
-263.8558732503647
 30
0.0
 40
3.25
  0
LWPOLYLINE
  5
840B
330
18
100
AcDbEntity
  8
0
100
AcDbPolyline
 90
        4
 70
     1
 43
0.0
 10
298.3863448404806
 20
-264.8558732503647
 10
303.3863448404806
 20
-264.8558732503647
 10
303.3863448404806
 20
-262.8558732503647
 10
298.3863448404806
 20
-262.8558732503647
  0
LINE
  5
840C
330
18
100
AcDbEntity
  8
0
100
AcDbLine
 10
296.8863448404806
 20
-266.8558732503647
 30
0.0
 11
293.8863448404806
 21
-266.8558732503647
 31
0.0
  0
LWPOLYLINE
  5
840D
330
18
100
AcDbEntity
  8
0
100
AcDbPolyline
 90
        4
 70
     1
 43
0.0
 10
303.1363448404806
 20
-264.6058732503647
 10
301.6363448404806
 20
-264.6058732503647
 10
301.6363448404806
 20
-263.1058732503647
 10
303.1363448404806
 20
-263.1058732503647
  0
CIRCLE
  5
840E
330
18
100
AcDbEntity
  8
0
100
AcDbCircle
 10
311.6363448404806
 20
-263.8558732503649
 30
0.0
 40
0.5
  0
CIRCLE
  5
840F
330
18
100
AcDbEntity
  8
0
100
AcDbCircle
 10
316.6363448404806
 20
-263.8558732503649
 30
0.0
 40
0.5
  0
CIRCLE
  5
8410
330
18
100
AcDbEntity
  8
0
100
AcDbCircle
 10
314.1363448404806
 20
-263.8558732503649
 30
0.0
 40
0.5
  0
CIRCLE
  5
8411
330
18
100
AcDbEntity
  8
0
100
AcDbCircle
 10
321.6363448404806
 20
-263.8558732503649
 30
0.0
 40
0.5
  0
CIRCLE
  5
8412
330
18
100
AcDbEntity
  8
0
100
AcDbCircle
 10
319.1363448404806
 20
-263.8558732503649
 30
0.0
 40
0.5
  0
CIRCLE
  5
8413
330
18
100
AcDbEntity
  8
0
100
AcDbCircle
 10
324.1363448404806
 20
-263.8558732503649
 30
0.0
 40
0.5
  0
LINE
  5
8414
330
18
100
AcDbEntity
  8
0
100
AcDbLine
 10
257.6863448404807
 20
-230.1558732503637
 30
0.0
 11
248.8863448404807
 21
-230.1558732503637
 31
0.0
  0
LINE
  5
8415
330
18
100
AcDbEntity
  8
0
100
AcDbLine
 10
257.6863448404807
 20
-245.1558732503638
 30
0.0
 11
250.3863448404807
 21
-245.1558732503637
 31
0.0
  0
LINE
  5
8416
330
18
100
AcDbEntity
  8
0
 48
0.2
100
AcDbLine
 10
261.3863448404806
 20
-257.2058732503647
 30
0.0
 11
256.3863448404806
 21
-257.2058732503646
 31
0.0
  0
LINE
  5
8417
330
18
100
AcDbEntity
  8
0
 48
0.2
100
AcDbLine
 10
261.3863448404806
 20
-254.3558732503647
 30
0.0
 11
222.3863448404806
 21
-254.3558732503647
 31
0.0
  0
LINE
  5
8418
330
18
100
AcDbEntity
  8
0
100
AcDbLine
 10
248.8863448404807
 20
-230.1558732503637
 30
0.0
 11
248.8863448404807
 21
-239.6558732503638
 31
0.0
  0
LINE
  5
8419
330
18
100
AcDbEntity
  8
0
 48
0.2
100
AcDbLine
 10
238.3863448404805
 20
-251.7058732503647
 30
0.0
 11
243.3863448404805
 21
-254.3558732503647
 31
0.0
  0
LINE
  5
841A
330
18
100
AcDbEntity
  8
0
 48
0.2
100
AcDbLine
 10
237.5863448404806
 20
-256.8558732503648
 30
0.0
 11
229.5863448404805
 21
-256.8558732503646
 31
0.0
  0
LINE
  5
841B
330
18
100
AcDbEntity
  8
0
 48
0.2
100
AcDbLine
 10
238.3863448404802
 20
-251.7058732503647
 30
0.0
 11
222.3863448404806
 21
-251.7058732503646
 31
0.0
  0
LINE
  5
841C
330
18
100
AcDbEntity
  8
0
100
AcDbLine
 10
248.8863448404807
 20
-239.6558732503637
 30
0.0
 11
250.3863448404807
 21
-245.1558732503637
 31
0.0
  0
LINE
  5
841D
330
18
100
AcDbEntity
  8
0
100
AcDbLine
 10
289.5863448404811
 20
-215.3558732503648
 30
0.0
 11
293.1863448404806
 21
-215.3558732503648
 31
0.0
  0
LINE
  5
841E
330
18
100
AcDbEntity
  8
0
100
AcDbLine
 10
285.8863448404806
 20
-242.8558732503649
 30
0.0
 11
285.8863448404806
 21
-225.8558732503648
 31
0.0
  0
LINE
  5
841F
330
18
100
AcDbEntity
  8
0
100
AcDbLine
 10
291.3863448404806
 20
-242.8558732503649
 30
0.0
 11
291.3863448404806
 21
-225.8558732503648
 31
0.0
  0
LINE
  5
8420
330
18
100
AcDbEntity
  8
0
100
AcDbLine
 10
288.3863448404806
 20
-242.8558732503649
 30
0.0
 11
288.3863448404806
 21
-225.8558732503648
 31
0.0
  0
LINE
  5
8421
330
18
100
AcDbEntity
  8
0
100
AcDbLine
 10
266.3863448404806
 20
-242.8558732503649
 30
0.0
 11
266.3863448404806
 21
-225.8558732503648
 31
0.0
  0
LINE
  5
8422
330
18
100
AcDbEntity
  8
0
100
AcDbLine
 10
280.3863448404806
 20
-242.8558732503649
 30
0.0
 11
280.3863448404806
 21
-225.8558732503648
 31
0.0
  0
LINE
  5
8423
330
18
100
AcDbEntity
  8
0
100
AcDbLine
 10
277.3863448404806
 20
-242.8558732503649
 30
0.0
 11
277.3863448404806
 21
-225.8558732503648
 31
0.0
  0
LINE
  5
8424
330
18
100
AcDbEntity
  8
0
100
AcDbLine
 10
274.8863448404806
 20
-242.8558732503649
 30
0.0
 11
274.8863448404806
 21
-225.8558732503648
 31
0.0
  0
LINE
  5
8425
330
18
100
AcDbEntity
  8
0
100
AcDbLine
 10
271.8863448404806
 20
-242.8558732503649
 30
0.0
 11
271.8863448404806
 21
-225.8558732503648
 31
0.0
  0
LINE
  5
8426
330
18
100
AcDbEntity
  8
0
100
AcDbLine
 10
269.3863448404806
 20
-242.8558732503649
 30
0.0
 11
269.3863448404806
 21
-225.8558732503648
 31
0.0
  0
LINE
  5
8427
330
18
100
AcDbEntity
  8
0
100
AcDbLine
 10
282.8863448404806
 20
-242.8558732503649
 30
0.0
 11
282.8863448404806
 21
-225.8558732503648
 31
0.0
  0
LINE
  5
8428
330
18
100
AcDbEntity
  8
0
100
AcDbLine
 10
258.386344840481
 20
-231.1558732503637
 30
0.0
 11
258.386344840481
 21
-231.6558732503637
 31
0.0
  0
LINE
  5
8429
330
18
100
AcDbEntity
  8
0
100
AcDbLine
 10
274.8863448404806
 20
-249.8558732503648
 30
0.0
 11
271.8863448404806
 21
-249.8558732503648
 31
0.0
  0
LINE
  5
842A
330
18
100
AcDbEntity
  8
0
100
AcDbLine
 10
274.8863448404806
 20
-242.8558732503649
 30
0.0
 11
271.8863448404806
 21
-242.8558732503649
 31
0.0
  0
LINE
  5
842B
330
18
100
AcDbEntity
  8
0
100
AcDbLine
 10
258.3863448404806
 20
-254.3558732503647
 30
0.0
 11
258.3863448404806
 21
-239.6558732503647
 31
0.0
  0
LINE
  5
842C
330
18
100
AcDbEntity
  8
0
 48
0.2
100
AcDbLine
 10
261.3863448404806
 20
-257.2058732503646
 30
0.0
 11
261.3863448404806
 21
-254.3558732503647
 31
0.0
  0
LINE
  5
842D
330
18
100
AcDbEntity
  8
0
100
AcDbLine
 10
269.3863448404806
 20
-249.8558732503648
 30
0.0
 11
266.3863448404806
 21
-249.8558732503648
 31
0.0
  0
LINE
  5
842E
330
18
100
AcDbEntity
  8
0
100
AcDbLine
 10
267.0863448404807
 20
-236.5558732503637
 30
0.0
 11
258.3863448404806
 21
-236.5558732503637
 31
0.0
  0
LINE
  5
842F
330
18
100
AcDbEntity
  8
0
100
AcDbLine
 10
267.0863448404807
 20
-231.6558732503637
 30
0.0
 11
258.386344840481
 21
-231.6558732503637
 31
0.0
  0
LINE
  5
8430
330
18
100
AcDbEntity
  8
0
100
AcDbLine
 10
258.3863448404806
 20
-236.5558732503637
 30
0.0
 11
258.3863448404807
 21
-239.6558732503638
 31
0.0
  0
LINE
  5
8431
330
18
100
AcDbEntity
  8
0
100
AcDbLine
 10
257.6863448404807
 20
-245.1558732503637
 30
0.0
 11
258.3863448404807
 21
-239.6558732503638
 31
0.0
  0
LINE
  5
8432
330
18
100
AcDbEntity
  8
0
100
AcDbLine
 10
269.3863448404806
 20
-242.8558732503649
 30
0.0
 11
266.3863448404806
 21
-242.8558732503649
 31
0.0
  0
LINE
  5
8433
330
18
100
AcDbEntity
  8
0
100
AcDbLine
 10
267.0863448404807
 20
-231.6558732503637
 30
0.0
 11
267.0863448404807
 21
-236.5558732503637
 31
0.0
  0
LINE
  5
8434
330
18
100
AcDbEntity
  8
0
100
AcDbLine
 10
280.3863448404806
 20
-249.8558732503648
 30
0.0
 11
277.3863448404806
 21
-249.8558732503648
 31
0.0
  0
LINE
  5
8435
330
18
100
AcDbEntity
  8
0
100
AcDbLine
 10
285.8863448404806
 20
-249.8558732503648
 30
0.0
 11
282.8863448404806
 21
-249.8558732503648
 31
0.0
  0
LINE
  5
8436
330
18
100
AcDbEntity
  8
0
100
AcDbLine
 10
291.3863448404806
 20
-249.8558732503647
 30
0.0
 11
288.3863448404806
 21
-249.8558732503647
 31
0.0
  0
LINE
  5
8437
330
18
100
AcDbEntity
  8
0
100
AcDbLine
 10
280.3863448404806
 20
-242.8558732503649
 30
0.0
 11
277.3863448404806
 21
-242.8558732503649
 31
0.0
  0
LINE
  5
8438
330
18
100
AcDbEntity
  8
0
100
AcDbLine
 10
285.8863448404806
 20
-242.8558732503649
 30
0.0
 11
282.8863448404806
 21
-242.8558732503649
 31
0.0
  0
LINE
  5
8439
330
18
100
AcDbEntity
  8
0
100
AcDbLine
 10
291.3863448404806
 20
-242.8558732503649
 30
0.0
 11
288.3863448404806
 21
-242.8558732503649
 31
0.0
  0
LINE
  5
843A
330
18
100
AcDbEntity
  8
0
100
AcDbLine
 10
277.3863448404806
 20
-220.8558732503648
 30
0.0
 11
267.3863448404806
 21
-220.8558732503648
 31
0.0
  0
ARC
  5
843B
330
18
100
AcDbEntity
  8
0
100
AcDbCircle
 10
273.8863448404809
 20
-207.4558732503648
 30
0.0
 40
0.5999999999999944
100
AcDbArc
 50
0.0
 51
180.0
  0
LINE
  5
843C
330
18
100
AcDbEntity
  8
0
100
AcDbLine
 10
273.2863448404809
 20
-207.4558732503647
 30
0.0
 11
274.4863448404808
 21
-207.4558732503713
 31
0.0
  0
LINE
  5
843D
330
18
100
AcDbEntity
  8
0
100
AcDbLine
 10
274.8863448404806
 20
-225.8558732503648
 30
0.0
 11
271.8863448404806
 21
-225.8558732503648
 31
0.0
  0
LINE
  5
843E
330
18
100
AcDbEntity
  8
0
100
AcDbLine
 10
258.3863448404808
 20
-207.1242107713292
 30
0.0
 11
258.3863448404811
 21
-218.8558732503648
 31
0.0
  0
LINE
  5
843F
330
18
100
AcDbEntity
  8
0
100
AcDbLine
 10
267.3863448404806
 20
-222.8558732503648
 30
0.0
 11
263.3863448404806
 21
-222.8558732503648
 31
0.0
  0
LINE
  5
8440
330
18
100
AcDbEntity
  8
0
100
AcDbLine
 10
257.6863448404807
 20
-230.1558732503637
 30
0.0
 11
257.6863448404808
 21
-231.1558732503637
 31
0.0
  0
LINE
  5
8441
330
18
100
AcDbEntity
  8
0
100
AcDbLine
 10
258.386344840481
 20
-231.1558732503637
 30
0.0
 11
257.6863448404808
 21
-231.1558732503637
 31
0.0
  0
ARC
  5
8442
330
18
100
AcDbEntity
  8
0
100
AcDbCircle
 10
261.3863448404806
 20
-221.8558732503648
 30
0.0
 40
1.0
100
AcDbArc
 50
90.0
 51
180.0
  0
ARC
  5
8443
330
18
100
AcDbEntity
  8
0
100
AcDbCircle
 10
259.3863448404806
 20
-219.8558732503648
 30
0.0
 40
1.0
100
AcDbArc
 50
90.0
 51
180.0
  0
LINE
  5
8444
330
18
100
AcDbEntity
  8
0
100
AcDbLine
 10
262.3863448404806
 20
-223.8558732503648
 30
0.0
 11
263.3863448404806
 21
-222.8558732503648
 31
0.0
  0
LINE
  5
8445
330
18
100
AcDbEntity
  8
0
100
AcDbLine
 10
269.3863448404806
 20
-225.8558732503648
 30
0.0
 11
266.3863448404806
 21
-225.8558732503648
 31
0.0
  0
LINE
  5
8446
330
18
100
AcDbEntity
  8
0
100
AcDbLine
 10
267.3863448404806
 20
-220.8558732503648
 30
0.0
 11
267.3863448404806
 21
-222.8558732503648
 31
0.0
  0
LINE
  5
8447
330
18
100
AcDbEntity
  8
0
100
AcDbLine
 10
264.5863448404811
 20
-215.3558732503648
 30
0.0
 11
268.1863448404806
 21
-215.3558732503648
 31
0.0
  0
LINE
  5
8448
330
18
100
AcDbEntity
  8
0
100
AcDbLine
 10
264.5863448404809
 20
-215.3558732503648
 30
0.0
 11
264.4863448404807
 21
-207.4558732503647
 31
0.0
  0
LINE
  5
8449
330
18
100
AcDbEntity
  8
0
100
AcDbLine
 10
263.2863448404809
 20
-207.4558732503647
 30
0.0
 11
263.1863448404808
 21
-215.3558732503648
 31
0.0
  0
LINE
  5
844A
330
18
100
AcDbEntity
  8
0
100
AcDbLine
 10
259.5863448404809
 20
-215.3558732503648
 30
0.0
 11
259.4863448404808
 21
-207.4558732503647
 31
0.0
  0
LINE
  5
844B
330
18
100
AcDbEntity
  8
0
100
AcDbLine
 10
259.5863448404809
 20
-215.3558732503648
 30
0.0
 11
263.1863448404808
 21
-215.3558732503648
 31
0.0
  0
ARC
  5
844C
330
18
100
AcDbEntity
  8
0
100
AcDbCircle
 10
258.8863448404808
 20
-207.4558732503648
 30
0.0
 40
0.5999999999999944
100
AcDbArc
 50
0.0
 51
146.4426902380729
  0
LINE
  5
844D
330
18
100
AcDbEntity
  8
0
100
AcDbLine
 10
259.4863448404808
 20
-207.4558732503713
 30
0.0
 11
258.3863448404808
 21
-207.4558732503713
 31
0.0
  0
LINE
  5
844E
330
18
100
AcDbEntity
  8
0
100
AcDbLine
 10
263.2863448404809
 20
-207.4558732503713
 30
0.0
 11
264.4863448404807
 21
-207.4558732503647
 31
0.0
  0
ARC
  5
844F
330
18
100
AcDbEntity
  8
0
100
AcDbCircle
 10
263.8863448404809
 20
-207.4558732503648
 30
0.0
 40
0.5999999999999944
100
AcDbArc
 50
0.0
 51
180.0
  0
LINE
  5
8450
330
18
100
AcDbEntity
  8
0
100
AcDbLine
 10
273.2863448404809
 20
-207.4558732503647
 30
0.0
 11
273.1863448404808
 21
-215.3558732503648
 31
0.0
  0
LINE
  5
8451
330
18
100
AcDbEntity
  8
0
100
AcDbLine
 10
269.5863448404809
 20
-215.3558732503648
 30
0.0
 11
269.4863448404808
 21
-207.4558732503647
 31
0.0
  0
LINE
  5
8452
330
18
100
AcDbEntity
  8
0
100
AcDbLine
 10
268.2863448404809
 20
-207.4558732503647
 30
0.0
 11
268.1863448404808
 21
-215.3558732503648
 31
0.0
  0
LINE
  5
8453
330
18
100
AcDbEntity
  8
0
100
AcDbLine
 10
269.5863448404811
 20
-215.3558732503648
 30
0.0
 11
273.1863448404808
 21
-215.3558732503648
 31
0.0
  0
ARC
  5
8454
330
18
100
AcDbEntity
  8
0
100
AcDbCircle
 10
268.8863448404808
 20
-207.4558732503648
 30
0.0
 40
0.5999999999999944
100
AcDbArc
 50
0.0
 51
180.0
  0
LINE
  5
8455
330
18
100
AcDbEntity
  8
0
100
AcDbLine
 10
268.2863448404809
 20
-207.4558732503647
 30
0.0
 11
269.4863448404808
 21
-207.4558732503713
 31
0.0
  0
LINE
  5
8456
330
18
100
AcDbEntity
  8
0
100
AcDbLine
 10
280.3863448404806
 20
-225.8558732503648
 30
0.0
 11
277.3863448404806
 21
-225.8558732503648
 31
0.0
  0
LINE
  5
8457
330
18
100
AcDbEntity
  8
0
100
AcDbLine
 10
277.3863448404806
 20
-220.8558732503648
 30
0.0
 11
277.3863448404806
 21
-222.8558732503648
 31
0.0
  0
LINE
  5
8458
330
18
100
AcDbEntity
  8
0
100
AcDbLine
 10
285.8863448404806
 20
-225.8558732503648
 30
0.0
 11
282.8863448404806
 21
-225.8558732503648
 31
0.0
  0
LINE
  5
8459
330
18
100
AcDbEntity
  8
0
100
AcDbLine
 10
291.3863448404806
 20
-225.8558732503648
 30
0.0
 11
288.3863448404806
 21
-225.8558732503648
 31
0.0
  0
LINE
  5
845A
330
18
100
AcDbEntity
  8
0
100
AcDbLine
 10
279.5863448404809
 20
-215.3558732503648
 30
0.0
 11
283.1863448404808
 21
-215.3558732503648
 31
0.0
  0
LINE
  5
845B
330
18
100
AcDbEntity
  8
0
100
AcDbLine
 10
274.5863448404809
 20
-215.3558732503648
 30
0.0
 11
274.4863448404808
 21
-207.4558732503647
 31
0.0
  0
LINE
  5
845C
330
18
100
AcDbEntity
  8
0
100
AcDbLine
 10
278.286344840481
 20
-207.4558732503647
 30
0.0
 11
278.1863448404808
 21
-215.3558732503648
 31
0.0
  0
LINE
  5
845D
330
18
100
AcDbEntity
  8
0
100
AcDbLine
 10
279.5863448404809
 20
-215.3558732503648
 30
0.0
 11
279.4863448404807
 21
-207.4558732503647
 31
0.0
  0
LINE
  5
845E
330
18
100
AcDbEntity
  8
0
100
AcDbLine
 10
274.5863448404809
 20
-215.3558732503648
 30
0.0
 11
278.1863448404808
 21
-215.3558732503648
 31
0.0
  0
ARC
  5
845F
330
18
100
AcDbEntity
  8
0
100
AcDbCircle
 10
278.8863448404808
 20
-207.4558732503648
 30
0.0
 40
0.5999999999999944
100
AcDbArc
 50
0.0
 51
180.0
  0
LINE
  5
8460
330
18
100
AcDbEntity
  8
0
100
AcDbLine
 10
278.286344840481
 20
-207.4558732503647
 30
0.0
 11
279.4863448404807
 21
-207.4558732503647
 31
0.0
  0
LINE
  5
8461
330
18
100
AcDbEntity
  8
0
100
AcDbLine
 10
284.5863448404809
 20
-215.3558732503648
 30
0.0
 11
284.4863448404808
 21
-207.4558732503647
 31
0.0
  0
LINE
  5
8462
330
18
100
AcDbEntity
  8
0
100
AcDbLine
 10
289.5863448404809
 20
-215.3558732503648
 30
0.0
 11
289.4863448404807
 21
-207.4558732503647
 31
0.0
  0
LINE
  5
8463
330
18
100
AcDbEntity
  8
0
100
AcDbLine
 10
288.2863448404809
 20
-207.4558732503647
 30
0.0
 11
288.1863448404808
 21
-215.3558732503648
 31
0.0
  0
LINE
  5
8464
330
18
100
AcDbEntity
  8
0
100
AcDbLine
 10
283.2863448404809
 20
-207.4558732503647
 30
0.0
 11
283.1863448404808
 21
-215.3558732503648
 31
0.0
  0
LINE
  5
8465
330
18
100
AcDbEntity
  8
0
100
AcDbLine
 10
284.5863448404811
 20
-215.3558732503648
 30
0.0
 11
288.1863448404808
 21
-215.3558732503648
 31
0.0
  0
ARC
  5
8466
330
18
100
AcDbEntity
  8
0
100
AcDbCircle
 10
283.8863448404808
 20
-207.4558732503648
 30
0.0
 40
0.5999999999999944
100
AcDbArc
 50
0.0
 51
180.0
  0
LINE
  5
8467
330
18
100
AcDbEntity
  8
0
100
AcDbLine
 10
283.2863448404809
 20
-207.4558732503647
 30
0.0
 11
284.4863448404808
 21
-207.4558732503647
 31
0.0
  0
ARC
  5
8468
330
18
100
AcDbEntity
  8
0
100
AcDbCircle
 10
288.8863448404809
 20
-207.4558732503648
 30
0.0
 40
0.5999999999999944
100
AcDbArc
 50
0.0
 51
180.0
  0
LINE
  5
8469
330
18
100
AcDbEntity
  8
0
100
AcDbLine
 10
288.2863448404809
 20
-207.4558732503713
 30
0.0
 11
289.4863448404807
 21
-207.4558732503713
 31
0.0
  0
LINE
  5
846A
330
18
100
AcDbEntity
  8
0
100
AcDbLine
 10
324.3863448404806
 20
-242.8558732503649
 30
0.0
 11
324.3863448404806
 21
-225.8558732503648
 31
0.0
  0
LINE
  5
846B
330
18
100
AcDbEntity
  8
0
100
AcDbLine
 10
304.8863448404806
 20
-242.8558732503649
 30
0.0
 11
304.8863448404806
 21
-225.8558732503648
 31
0.0
  0
LINE
  5
846C
330
18
100
AcDbEntity
  8
0
100
AcDbLine
 10
315.8863448404806
 20
-242.8558732503649
 30
0.0
 11
315.8863448404806
 21
-225.8558732503648
 31
0.0
  0
LINE
  5
846D
330
18
100
AcDbEntity
  8
0
100
AcDbLine
 10
313.3863448404806
 20
-242.8558732503649
 30
0.0
 11
313.3863448404806
 21
-225.8558732503648
 31
0.0
  0
LINE
  5
846E
330
18
100
AcDbEntity
  8
0
100
AcDbLine
 10
310.3863448404806
 20
-242.8558732503649
 30
0.0
 11
310.3863448404806
 21
-225.8558732503648
 31
0.0
  0
LINE
  5
846F
330
18
100
AcDbEntity
  8
0
100
AcDbLine
 10
307.8863448404806
 20
-242.8558732503649
 30
0.0
 11
307.8863448404806
 21
-225.8558732503648
 31
0.0
  0
LINE
  5
8470
330
18
100
AcDbEntity
  8
0
100
AcDbLine
 10
321.3863448404806
 20
-242.8558732503649
 30
0.0
 11
321.3863448404806
 21
-225.8558732503648
 31
0.0
  0
LINE
  5
8471
330
18
100
AcDbEntity
  8
0
100
AcDbLine
 10
318.8863448404806
 20
-242.8558732503649
 30
0.0
 11
318.8863448404806
 21
-225.8558732503648
 31
0.0
  0
LINE
  5
8472
330
18
100
AcDbEntity
  8
0
100
AcDbLine
 10
296.8863448404806
 20
-242.8558732503649
 30
0.0
 11
296.8863448404806
 21
-225.8558732503648
 31
0.0
  0
LINE
  5
8473
330
18
100
AcDbEntity
  8
0
100
AcDbLine
 10
302.3863448404806
 20
-242.8558732503649
 30
0.0
 11
302.3863448404806
 21
-225.8558732503648
 31
0.0
  0
LINE
  5
8474
330
18
100
AcDbEntity
  8
0
100
AcDbLine
 10
299.3863448404806
 20
-242.8558732503649
 30
0.0
 11
299.3863448404806
 21
-225.8558732503648
 31
0.0
  0
LINE
  5
8475
330
18
100
AcDbEntity
  8
0
100
AcDbLine
 10
293.8863448404806
 20
-242.8558732503649
 30
0.0
 11
293.8863448404806
 21
-225.8558732503648
 31
0.0
  0
LINE
  5
8476
330
18
100
AcDbEntity
  8
0
100
AcDbLine
 10
302.3863448404806
 20
-249.8558732503648
 30
0.0
 11
299.3863448404806
 21
-249.8558732503648
 31
0.0
  0
LINE
  5
8477
330
18
100
AcDbEntity
  8
0
100
AcDbLine
 10
302.3863448404806
 20
-259.8558732503648
 30
0.0
 11
299.3863448404806
 21
-259.8558732503648
 31
0.0
  0
LINE
  5
8478
330
18
100
AcDbEntity
  8
0
100
AcDbLine
 10
299.3863448404806
 20
-259.8558732503648
 30
0.0
 11
299.3863448404806
 21
-249.8558732503648
 31
0.0
  0
LINE
  5
8479
330
18
100
AcDbEntity
  8
0
100
AcDbLine
 10
296.8863448404806
 20
-249.8558732503647
 30
0.0
 11
293.8863448404806
 21
-249.8558732503647
 31
0.0
  0
LINE
  5
847A
330
18
100
AcDbEntity
  8
0
100
AcDbLine
 10
302.3863448404806
 20
-259.8558732503648
 30
0.0
 11
302.3863448404806
 21
-249.8558732503648
 31
0.0
  0
LINE
  5
847B
330
18
100
AcDbEntity
  8
0
100
AcDbLine
 10
302.3863448404806
 20
-242.8558732503649
 30
0.0
 11
299.3863448404806
 21
-242.8558732503649
 31
0.0
  0
LINE
  5
847C
330
18
100
AcDbEntity
  8
0
100
AcDbLine
 10
296.8863448404806
 20
-242.8558732503649
 30
0.0
 11
293.8863448404806
 21
-242.8558732503649
 31
0.0
  0
LINE
  5
847D
330
18
100
AcDbEntity
  8
0
100
AcDbLine
 10
307.8863448404806
 20
-242.8558732503649
 30
0.0
 11
304.8863448404806
 21
-242.8558732503649
 31
0.0
  0
LINE
  5
847E
330
18
100
AcDbEntity
  8
0
100
AcDbLine
 10
318.8863448404806
 20
-242.8558732503649
 30
0.0
 11
315.8863448404806
 21
-242.8558732503649
 31
0.0
  0
LINE
  5
847F
330
18
100
AcDbEntity
  8
0
100
AcDbLine
 10
313.3863448404806
 20
-242.8558732503649
 30
0.0
 11
310.3863448404806
 21
-242.8558732503649
 31
0.0
  0
LINE
  5
8480
330
18
100
AcDbEntity
  8
0
100
AcDbLine
 10
324.3863448404806
 20
-242.8558732503649
 30
0.0
 11
321.3863448404806
 21
-242.8558732503649
 31
0.0
  0
ARC
  5
8481
330
18
100
AcDbEntity
  8
0
100
AcDbCircle
 10
308.8863448404808
 20
-207.4558732503648
 30
0.0
 40
0.5999999999999944
100
AcDbArc
 50
0.0
 51
180.0
  0
LINE
  5
8482
330
18
100
AcDbEntity
  8
0
100
AcDbLine
 10
308.2863448404809
 20
-207.4558732503647
 30
0.0
 11
309.4863448404808
 21
-207.4558732503647
 31
0.0
  0
LINE
  5
8483
330
18
100
AcDbEntity
  8
0
100
AcDbLine
 10
302.3863448404806
 20
-225.8558732503648
 30
0.0
 11
299.3863448404806
 21
-225.8558732503648
 31
0.0
  0
LINE
  5
8484
330
18
100
AcDbEntity
  8
0
100
AcDbLine
 10
296.8863448404806
 20
-225.8558732503648
 30
0.0
 11
293.8863448404806
 21
-225.8558732503648
 31
0.0
  0
LINE
  5
8485
330
18
100
AcDbEntity
  8
0
100
AcDbLine
 10
307.8863448404806
 20
-225.8558732503648
 30
0.0
 11
304.8863448404806
 21
-225.8558732503648
 31
0.0
  0
LINE
  5
8486
330
18
100
AcDbEntity
  8
0
100
AcDbLine
 10
299.5863448404809
 20
-215.3558732503648
 30
0.0
 11
303.1863448404806
 21
-215.3558732503648
 31
0.0
  0
LINE
  5
8487
330
18
100
AcDbEntity
  8
0
100
AcDbLine
 10
298.2863448404809
 20
-207.4558732503647
 30
0.0
 11
298.1863448404808
 21
-215.3558732503648
 31
0.0
  0
LINE
  5
8488
330
18
100
AcDbEntity
  8
0
100
AcDbLine
 10
299.5863448404809
 20
-215.3558732503648
 30
0.0
 11
299.4863448404808
 21
-207.4558732503647
 31
0.0
  0
LINE
  5
8489
330
18
100
AcDbEntity
  8
0
100
AcDbLine
 10
294.5863448404809
 20
-215.3558732503648
 30
0.0
 11
294.4863448404808
 21
-207.4558732503647
 31
0.0
  0
LINE
  5
848A
330
18
100
AcDbEntity
  8
0
100
AcDbLine
 10
293.2863448404809
 20
-207.4558732503647
 30
0.0
 11
293.1863448404808
 21
-215.3558732503648
 31
0.0
  0
LINE
  5
848B
330
18
100
AcDbEntity
  8
0
100
AcDbLine
 10
294.5863448404811
 20
-215.3558732503648
 30
0.0
 11
298.1863448404808
 21
-215.3558732503648
 31
0.0
  0
ARC
  5
848C
330
18
100
AcDbEntity
  8
0
100
AcDbCircle
 10
293.8863448404808
 20
-207.4558732503648
 30
0.0
 40
0.5999999999999944
100
AcDbArc
 50
0.0
 51
180.0
  0
LINE
  5
848D
330
18
100
AcDbEntity
  8
0
100
AcDbLine
 10
293.2863448404809
 20
-207.4558732503647
 30
0.0
 11
294.4863448404808
 21
-207.4558732503647
 31
0.0
  0
LINE
  5
848E
330
18
100
AcDbEntity
  8
0
100
AcDbLine
 10
298.2863448404809
 20
-207.4558732503736
 30
0.0
 11
299.4863448404808
 21
-207.4558732503736
 31
0.0
  0
ARC
  5
848F
330
18
100
AcDbEntity
  8
0
100
AcDbCircle
 10
298.8863448404809
 20
-207.4558732503648
 30
0.0
 40
0.5999999999999944
100
AcDbArc
 50
0.0
 51
180.0
  0
LINE
  5
8490
330
18
100
AcDbEntity
  8
0
100
AcDbLine
 10
304.5863448404809
 20
-215.3558732503648
 30
0.0
 11
304.4863448404807
 21
-207.4558732503647
 31
0.0
  0
LINE
  5
8491
330
18
100
AcDbEntity
  8
0
100
AcDbLine
 10
308.2863448404809
 20
-207.4558732503647
 30
0.0
 11
308.1863448404808
 21
-215.3558732503648
 31
0.0
  0
LINE
  5
8492
330
18
100
AcDbEntity
  8
0
100
AcDbLine
 10
303.286344840481
 20
-207.4558732503647
 30
0.0
 11
303.1863448404808
 21
-215.3558732503648
 31
0.0
  0
LINE
  5
8493
330
18
100
AcDbEntity
  8
0
100
AcDbLine
 10
304.5863448404811
 20
-215.3558732503648
 30
0.0
 11
308.1863448404808
 21
-215.3558732503648
 31
0.0
  0
ARC
  5
8494
330
18
100
AcDbEntity
  8
0
100
AcDbCircle
 10
303.8863448404808
 20
-207.4558732503648
 30
0.0
 40
0.5999999999999944
100
AcDbArc
 50
0.0
 51
180.0
  0
LINE
  5
8495
330
18
100
AcDbEntity
  8
0
100
AcDbLine
 10
303.286344840481
 20
-207.4558732503647
 30
0.0
 11
304.4863448404807
 21
-207.4558732503647
 31
0.0
  0
LINE
  5
8496
330
18
100
AcDbEntity
  8
0
100
AcDbLine
 10
318.8863448404806
 20
-225.8558732503648
 30
0.0
 11
315.8863448404806
 21
-225.8558732503648
 31
0.0
  0
LINE
  5
8497
330
18
100
AcDbEntity
  8
0
100
AcDbLine
 10
313.3863448404806
 20
-225.8558732503648
 30
0.0
 11
310.3863448404806
 21
-225.8558732503648
 31
0.0
  0
LINE
  5
8498
330
18
100
AcDbEntity
  8
0
100
AcDbLine
 10
324.3863448404806
 20
-225.8558732503648
 30
0.0
 11
321.3863448404806
 21
-225.8558732503648
 31
0.0
  0
LINE
  5
8499
330
18
100
AcDbEntity
  8
0
100
AcDbLine
 10
314.5863448404811
 20
-215.3558732503648
 30
0.0
 11
318.1863448404806
 21
-215.3558732503648
 31
0.0
  0
LINE
  5
849A
330
18
100
AcDbEntity
  8
0
100
AcDbLine
 10
309.5863448404809
 20
-215.3558732503648
 30
0.0
 11
309.4863448404808
 21
-207.4558732503647
 31
0.0
  0
LINE
  5
849B
330
18
100
AcDbEntity
  8
0
100
AcDbLine
 10
314.5863448404809
 20
-215.3558732503648
 30
0.0
 11
314.4863448404807
 21
-207.4558732503647
 31
0.0
  0
LINE
  5
849C
330
18
100
AcDbEntity
  8
0
100
AcDbLine
 10
313.2863448404809
 20
-207.4558732503647
 30
0.0
 11
313.1863448404808
 21
-215.3558732503648
 31
0.0
  0
LINE
  5
849D
330
18
100
AcDbEntity
  8
0
100
AcDbLine
 10
309.5863448404809
 20
-215.3558732503648
 30
0.0
 11
313.1863448404808
 21
-215.3558732503648
 31
0.0
  0
ARC
  5
849E
330
18
100
AcDbEntity
  8
0
100
AcDbCircle
 10
313.8863448404809
 20
-207.4558732503648
 30
0.0
 40
0.5999999999999944
100
AcDbArc
 50
0.0
 51
180.0
  0
LINE
  5
849F
330
18
100
AcDbEntity
  8
0
100
AcDbLine
 10
313.2863448404809
 20
-207.4558732503647
 30
0.0
 11
314.4863448404807
 21
-207.4558732503647
 31
0.0
  0
LINE
  5
84A0
330
18
100
AcDbEntity
  8
0
100
AcDbLine
 10
323.2863448404809
 20
-207.4558732503647
 30
0.0
 11
323.1863448404808
 21
-215.3558732503648
 31
0.0
  0
LINE
  5
84A1
330
18
100
AcDbEntity
  8
0
100
AcDbLine
 10
324.5863448404809
 20
-215.3558732503648
 30
0.0
 11
324.4863448404808
 21
-207.4558732503647
 31
0.0
  0
LINE
  5
84A2
330
18
100
AcDbEntity
  8
0
100
AcDbLine
 10
318.2863448404809
 20
-207.4558732503647
 30
0.0
 11
318.1863448404808
 21
-215.3558732503648
 31
0.0
  0
LINE
  5
84A3
330
18
100
AcDbEntity
  8
0
100
AcDbLine
 10
319.5863448404809
 20
-215.3558732503648
 30
0.0
 11
319.4863448404808
 21
-207.4558732503647
 31
0.0
  0
LINE
  5
84A4
330
18
100
AcDbEntity
  8
0
100
AcDbLine
 10
319.5863448404809
 20
-215.3558732503648
 30
0.0
 11
323.1863448404808
 21
-215.3558732503648
 31
0.0
  0
ARC
  5
84A5
330
18
100
AcDbEntity
  8
0
100
AcDbCircle
 10
318.8863448404808
 20
-207.4558732503648
 30
0.0
 40
0.5999999999999944
100
AcDbArc
 50
0.0
 51
180.0
  0
LINE
  5
84A6
330
18
100
AcDbEntity
  8
0
100
AcDbLine
 10
318.2863448404809
 20
-207.4558732503647
 30
0.0
 11
319.4863448404808
 21
-207.4558732503647
 31
0.0
  0
ARC
  5
84A7
330
18
100
AcDbEntity
  8
0
100
AcDbCircle
 10
323.8863448404809
 20
-207.4558732503648
 30
0.0
 40
0.5999999999999944
100
AcDbArc
 50
0.0
 51
180.0
  0
LINE
  5
84A8
330
18
100
AcDbEntity
  8
0
100
AcDbLine
 10
323.2863448404809
 20
-207.4558732503647
 30
0.0
 11
324.4863448404808
 21
-207.4558732503647
 31
0.0
  0
LINE
  5
84A9
330
18
100
AcDbEntity
  8
0
100
AcDbLine
 10
379.3863448404806
 20
-266.8558732503648
 30
0.0
 11
379.3863448404806
 21
-249.8558732503648
 31
0.0
  0
LINE
  5
84AA
330
18
100
AcDbEntity
  8
0
100
AcDbLine
 10
381.8863448404806
 20
-266.8558732503648
 30
0.0
 11
381.8863448404806
 21
-249.8558732503648
 31
0.0
  0
LINE
  5
84AB
330
18
100
AcDbEntity
  8
0
100
AcDbLine
 10
405.3863448404806
 20
-223.8558732503648
 30
0.0
 11
405.3863448404806
 21
-270.8558732503648
 31
0.0
  0
LINE
  5
84AC
330
18
100
AcDbEntity
  8
0
100
AcDbLine
 10
407.3863448404806
 20
-221.8558732503648
 30
0.0
 11
407.3863448404806
 21
-271.8558732503648
 31
0.0
  0
LINE
  5
84AD
330
18
100
AcDbEntity
  8
0
100
AcDbLine
 10
395.8863448404806
 20
-266.8558732503648
 30
0.0
 11
395.8863448404806
 21
-249.8558732503648
 31
0.0
  0
LINE
  5
84AE
330
18
100
AcDbEntity
  8
0
100
AcDbLine
 10
401.3863448404806
 20
-266.8558732503648
 30
0.0
 11
401.3863448404806
 21
-249.8558732503648
 31
0.0
  0
LINE
  5
84AF
330
18
100
AcDbEntity
  8
0
100
AcDbLine
 10
398.3863448404806
 20
-266.8558732503648
 30
0.0
 11
398.3863448404806
 21
-249.8558732503648
 31
0.0
  0
LINE
  5
84B0
330
18
100
AcDbEntity
  8
0
100
AcDbLine
 10
384.8863448404806
 20
-266.8558732503648
 30
0.0
 11
384.8863448404806
 21
-249.8558732503648
 31
0.0
  0
LINE
  5
84B1
330
18
100
AcDbEntity
  8
0
100
AcDbLine
 10
387.3863448404806
 20
-266.8558732503648
 30
0.0
 11
387.3863448404806
 21
-249.8558732503648
 31
0.0
  0
LINE
  5
84B2
330
18
100
AcDbEntity
  8
0
100
AcDbLine
 10
390.3863448404806
 20
-266.8558732503648
 30
0.0
 11
390.3863448404806
 21
-249.8558732503648
 31
0.0
  0
LINE
  5
84B3
330
18
100
AcDbEntity
  8
0
100
AcDbLine
 10
392.8863448404806
 20
-266.8558732503648
 30
0.0
 11
392.8863448404806
 21
-249.8558732503648
 31
0.0
  0
LINE
  5
84B4
330
18
100
AcDbEntity
  8
0
100
AcDbLine
 10
409.3863448404806
 20
-271.8558732503648
 30
0.0
 11
409.3863448404806
 21
-219.8558732503648
 31
0.0
  0
LINE
  5
84B5
330
18
100
AcDbEntity
  8
0
100
AcDbLine
 10
346.3863448404806
 20
-266.8558732503648
 30
0.0
 11
346.3863448404806
 21
-249.8558732503648
 31
0.0
  0
LINE
  5
84B6
330
18
100
AcDbEntity
  8
0
100
AcDbLine
 10
348.8863448404806
 20
-266.8558732503648
 30
0.0
 11
348.8863448404806
 21
-249.8558732503648
 31
0.0
  0
LINE
  5
84B7
330
18
100
AcDbEntity
  8
0
100
AcDbLine
 10
343.3863448404806
 20
-266.8558732503648
 30
0.0
 11
343.3863448404806
 21
-249.8558732503648
 31
0.0
  0
LINE
  5
84B8
330
18
100
AcDbEntity
  8
0
100
AcDbLine
 10
351.8863448404806
 20
-266.8558732503648
 30
0.0
 11
351.8863448404806
 21
-249.8558732503648
 31
0.0
  0
LINE
  5
84B9
330
18
100
AcDbEntity
  8
0
100
AcDbLine
 10
354.3863448404806
 20
-266.8558732503648
 30
0.0
 11
354.3863448404806
 21
-249.8558732503648
 31
0.0
  0
LINE
  5
84BA
330
18
100
AcDbEntity
  8
0
100
AcDbLine
 10
357.3863448404806
 20
-266.8558732503648
 30
0.0
 11
357.3863448404806
 21
-249.8558732503648
 31
0.0
  0
LINE
  5
84BB
330
18
100
AcDbEntity
  8
0
100
AcDbLine
 10
359.8863448404806
 20
-266.8558732503648
 30
0.0
 11
359.8863448404806
 21
-249.8558732503648
 31
0.0
  0
LINE
  5
84BC
330
18
100
AcDbEntity
  8
0
100
AcDbLine
 10
373.8863448404806
 20
-266.8558732503648
 30
0.0
 11
373.8863448404806
 21
-249.8558732503648
 31
0.0
  0
LINE
  5
84BD
330
18
100
AcDbEntity
  8
0
100
AcDbLine
 10
376.3863448404806
 20
-266.8558732503648
 30
0.0
 11
376.3863448404806
 21
-249.8558732503648
 31
0.0
  0
LINE
  5
84BE
330
18
100
AcDbEntity
  8
0
100
AcDbLine
 10
362.8863448404806
 20
-266.8558732503648
 30
0.0
 11
362.8863448404806
 21
-249.8558732503648
 31
0.0
  0
LINE
  5
84BF
330
18
100
AcDbEntity
  8
0
100
AcDbLine
 10
365.3863448404806
 20
-266.8558732503648
 30
0.0
 11
365.3863448404806
 21
-249.8558732503648
 31
0.0
  0
LINE
  5
84C0
330
18
100
AcDbEntity
  8
0
100
AcDbLine
 10
368.3863448404806
 20
-266.8558732503648
 30
0.0
 11
368.3863448404806
 21
-249.8558732503648
 31
0.0
  0
LINE
  5
84C1
330
18
100
AcDbEntity
  8
0
100
AcDbLine
 10
370.8863448404806
 20
-266.8558732503648
 30
0.0
 11
370.8863448404806
 21
-249.8558732503648
 31
0.0
  0
LINE
  5
84C2
330
18
100
AcDbEntity
  8
0
100
AcDbLine
 10
340.8863448404806
 20
-266.8558732503647
 30
0.0
 11
340.8863448404806
 21
-252.8558732503647
 31
0.0
  0
CIRCLE
  5
84C3
330
18
100
AcDbEntity
  8
0
100
AcDbCircle
 10
331.6363448404806
 20
-260.3558732503648
 30
0.0
 40
0.5
  0
CIRCLE
  5
84C4
330
18
100
AcDbEntity
  8
0
100
AcDbCircle
 10
329.1363448404806
 20
-260.3558732503648
 30
0.0
 40
0.5
  0
CIRCLE
  5
84C5
330
18
100
AcDbEntity
  8
0
100
AcDbCircle
 10
334.1363448404806
 20
-260.3558732503648
 30
0.0
 40
0.5
  0
LINE
  5
84C6
330
18
100
AcDbEntity
  8
0
100
AcDbLine
 10
395.8863448404806
 20
-266.8558732503648
 30
0.0
 11
392.8863448404806
 21
-266.8558732503648
 31
0.0
  0
LINE
  5
84C7
330
18
100
AcDbEntity
  8
0
100
AcDbLine
 10
388.1363448404806
 20
-344.9978314428466
 30
0.0
 11
399.6363448404806
 21
-344.9978314428468
 31
0.0
  0
LINE
  5
84C8
330
18
100
AcDbEntity
  8
0
100
AcDbLine
 10
388.1363448404806
 20
-341.9978314428468
 30
0.0
 11
399.6363448404806
 21
-341.9978314428468
 31
0.0
  0
LINE
  5
84C9
330
18
100
AcDbEntity
  8
0
100
AcDbLine
 10
388.1363448404806
 20
-335.4978314428468
 30
0.0
 11
399.6363448404806
 21
-335.4978314428468
 31
0.0
  0
LINE
  5
84CA
330
18
100
AcDbEntity
  8
0
100
AcDbLine
 10
388.1363448404806
 20
-338.4978314428466
 30
0.0
 11
399.6363448404806
 21
-338.4978314428468
 31
0.0
  0
LINE
  5
84CB
330
18
100
AcDbEntity
  8
0
100
AcDbLine
 10
388.1363448404806
 20
-328.9978314428468
 30
0.0
 11
399.6363448404806
 21
-328.9978314428468
 31
0.0
  0
LINE
  5
84CC
330
18
100
AcDbEntity
  8
0
100
AcDbLine
 10
388.1363448404806
 20
-331.9978314428466
 30
0.0
 11
399.6363448404806
 21
-331.9978314428468
 31
0.0
  0
LINE
  5
84CD
330
18
100
AcDbEntity
  8
0
100
AcDbLine
 10
388.1363448404806
 20
-325.4978314428466
 30
0.0
 11
399.6363448404806
 21
-325.4978314428468
 31
0.0
  0
LINE
  5
84CE
330
18
100
AcDbEntity
  8
0
100
AcDbLine
 10
340.8863448404806
 20
-318.7478314428467
 30
0.0
 11
407.3863448404806
 21
-318.7478314428468
 31
0.0
  0
LINE
  5
84CF
330
18
100
AcDbEntity
  8
0
100
AcDbLine
 10
388.1363448404806
 20
-370.9978314428466
 30
0.0
 11
399.6363448404806
 21
-370.9978314428468
 31
0.0
  0
LINE
  5
84D0
330
18
100
AcDbEntity
  8
0
100
AcDbLine
 10
388.1363448404806
 20
-364.4978314428466
 30
0.0
 11
399.6363448404806
 21
-364.4978314428468
 31
0.0
  0
LINE
  5
84D1
330
18
100
AcDbEntity
  8
0
100
AcDbLine
 10
388.1363448404806
 20
-367.9978314428468
 30
0.0
 11
399.6363448404806
 21
-367.9978314428468
 31
0.0
  0
LINE
  5
84D2
330
18
100
AcDbEntity
  8
0
100
AcDbLine
 10
388.1363448404806
 20
-361.4978314428468
 30
0.0
 11
399.6363448404806
 21
-361.4978314428468
 31
0.0
  0
LINE
  5
84D3
330
18
100
AcDbEntity
  8
0
100
AcDbLine
 10
388.1363448404806
 20
-357.9978314428466
 30
0.0
 11
399.6363448404806
 21
-357.9978314428468
 31
0.0
  0
LINE
  5
84D4
330
18
100
AcDbEntity
  8
0
100
AcDbLine
 10
388.1363448404806
 20
-351.4978314428466
 30
0.0
 11
399.6363448404806
 21
-351.4978314428468
 31
0.0
  0
LINE
  5
84D5
330
18
100
AcDbEntity
  8
0
100
AcDbLine
 10
388.1363448404806
 20
-354.9978314428468
 30
0.0
 11
399.6363448404806
 21
-354.9978314428468
 31
0.0
  0
LINE
  5
84D6
330
18
100
AcDbEntity
  8
0
100
AcDbLine
 10
388.1363448404806
 20
-348.4978314428468
 30
0.0
 11
399.6363448404806
 21
-348.4978314428468
 31
0.0
  0
ARC
  5
84D7
330
18
100
AcDbEntity
  8
0
100
AcDbCircle
 10
333.8863448404806
 20
-318.7478314428467
 30
0.0
 40
3.0
100
AcDbArc
 50
0.0
 51
180.0
  0
LINE
  5
84D8
330
18
100
AcDbEntity
  8
0
100
AcDbLine
 10
340.1363448404806
 20
-341.9978314428468
 30
0.0
 11
351.6363448404806
 21
-341.9978314428468
 31
0.0
  0
LINE
  5
84D9
330
18
100
AcDbEntity
  8
0
100
AcDbLine
 10
340.1363448404806
 20
-335.4978314428468
 30
0.0
 11
351.6363448404806
 21
-335.4978314428468
 31
0.0
  0
LINE
  5
84DA
330
18
100
AcDbEntity
  8
0
100
AcDbLine
 10
340.1363448404806
 20
-338.4978314428466
 30
0.0
 11
351.6363448404806
 21
-338.4978314428468
 31
0.0
  0
LINE
  5
84DB
330
18
100
AcDbEntity
  8
0
100
AcDbLine
 10
340.1363448404806
 20
-328.9978314428468
 30
0.0
 11
351.6363448404806
 21
-328.9978314428468
 31
0.0
  0
LINE
  5
84DC
330
18
100
AcDbEntity
  8
0
100
AcDbLine
 10
340.1363448404806
 20
-325.4978314428466
 30
0.0
 11
351.6363448404806
 21
-325.4978314428468
 31
0.0
  0
LINE
  5
84DD
330
18
100
AcDbEntity
  8
0
100
AcDbLine
 10
340.1363448404806
 20
-331.9978314428466
 30
0.0
 11
351.6363448404806
 21
-331.9978314428468
 31
0.0
  0
ARC
  5
84DE
330
18
100
AcDbEntity
  8
0
100
AcDbCircle
 10
327.6363448404806
 20
-340.2478314428468
 30
0.0
 40
1.75
100
AcDbArc
 50
270.0
 51
90.0
  0
ARC
  5
84DF
330
18
100
AcDbEntity
  8
0
100
AcDbCircle
 10
327.6363448404806
 20
-333.7478314428468
 30
0.0
 40
1.75
100
AcDbArc
 50
270.0
 51
90.0
  0
ARC
  5
84E0
330
18
100
AcDbEntity
  8
0
100
AcDbCircle
 10
340.1363448404806
 20
-340.2478314428468
 30
0.0
 40
1.75
100
AcDbArc
 50
90.0
 51
270.0
  0
ARC
  5
84E1
330
18
100
AcDbEntity
  8
0
100
AcDbCircle
 10
340.1363448404806
 20
-333.7478314428468
 30
0.0
 40
1.75
100
AcDbArc
 50
90.0
 51
270.0
  0
ARC
  5
84E2
330
18
100
AcDbEntity
  8
0
100
AcDbCircle
 10
327.6363448404806
 20
-327.2478314428468
 30
0.0
 40
1.75
100
AcDbArc
 50
270.0
 51
90.0
  0
ARC
  5
84E3
330
18
100
AcDbEntity
  8
0
100
AcDbCircle
 10
340.1363448404806
 20
-327.2478314428468
 30
0.0
 40
1.75
100
AcDbArc
 50
90.0
 51
270.0
  0
ARC
  5
84E4
330
18
100
AcDbEntity
  8
0
100
AcDbCircle
 10
351.6363448404806
 20
-333.7478314428468
 30
0.0
 40
1.75
100
AcDbArc
 50
270.0
 51
90.0
  0
ARC
  5
84E5
330
18
100
AcDbEntity
  8
0
100
AcDbCircle
 10
351.6363448404806
 20
-340.2478314428468
 30
0.0
 40
1.75
100
AcDbArc
 50
270.0
 51
90.0
  0
ARC
  5
84E6
330
18
100
AcDbEntity
  8
0
100
AcDbCircle
 10
351.6363448404806
 20
-327.2478314428468
 30
0.0
 40
1.75
100
AcDbArc
 50
270.0
 51
90.0
  0
ARC
  5
84E7
330
18
100
AcDbEntity
  8
0
100
AcDbCircle
 10
364.1363448404806
 20
-346.7478314428468
 30
0.0
 40
1.75
100
AcDbArc
 50
90.0
 51
270.0
  0
ARC
  5
84E8
330
18
100
AcDbEntity
  8
0
100
AcDbCircle
 10
375.6363448404806
 20
-346.7478314428468
 30
0.0
 40
1.75
100
AcDbArc
 50
270.0
 51
90.0
  0
ARC
  5
84E9
330
18
100
AcDbEntity
  8
0
100
AcDbCircle
 10
388.1363448404806
 20
-346.7478314428468
 30
0.0
 40
1.75
100
AcDbArc
 50
90.0
 51
270.0
  0
ARC
  5
84EA
330
18
100
AcDbEntity
  8
0
100
AcDbCircle
 10
364.1363448404806
 20
-359.7478314428468
 30
0.0
 40
1.75
100
AcDbArc
 50
90.0
 51
270.0
  0
ARC
  5
84EB
330
18
100
AcDbEntity
  8
0
100
AcDbCircle
 10
375.6363448404806
 20
-359.7478314428468
 30
0.0
 40
1.75
100
AcDbArc
 50
270.0
 51
90.0
  0
LINE
  5
84EC
330
18
100
AcDbEntity
  8
0
100
AcDbLine
 10
364.1363448404806
 20
-370.9978314428466
 30
0.0
 11
375.6363448404806
 21
-370.9978314428468
 31
0.0
  0
LINE
  5
84ED
330
18
100
AcDbEntity
  8
0
100
AcDbLine
 10
364.1363448404806
 20
-364.4978314428466
 30
0.0
 11
375.6363448404806
 21
-364.4978314428468
 31
0.0
  0
LINE
  5
84EE
330
18
100
AcDbEntity
  8
0
100
AcDbLine
 10
364.1363448404806
 20
-367.9978314428468
 30
0.0
 11
375.6363448404806
 21
-367.9978314428468
 31
0.0
  0
LINE
  5
84EF
330
18
100
AcDbEntity
  8
0
100
AcDbLine
 10
364.1363448404806
 20
-361.4978314428468
 30
0.0
 11
375.6363448404806
 21
-361.4978314428468
 31
0.0
  0
ARC
  5
84F0
330
18
100
AcDbEntity
  8
0
100
AcDbCircle
 10
364.1363448404806
 20
-366.2478314428468
 30
0.0
 40
1.75
100
AcDbArc
 50
90.0
 51
270.0
  0
ARC
  5
84F1
330
18
100
AcDbEntity
  8
0
100
AcDbCircle
 10
375.6363448404806
 20
-366.2478314428468
 30
0.0
 40
1.75
100
AcDbArc
 50
270.0
 51
90.0
  0
LINE
  5
84F2
330
18
100
AcDbEntity
  8
0
100
AcDbLine
 10
364.1363448404806
 20
-351.4978314428466
 30
0.0
 11
375.6363448404806
 21
-351.4978314428468
 31
0.0
  0
LINE
  5
84F3
330
18
100
AcDbEntity
  8
0
100
AcDbLine
 10
364.1363448404806
 20
-354.9978314428468
 30
0.0
 11
375.6363448404806
 21
-354.9978314428468
 31
0.0
  0
LINE
  5
84F4
330
18
100
AcDbEntity
  8
0
100
AcDbLine
 10
364.1363448404806
 20
-357.9978314428466
 30
0.0
 11
375.6363448404806
 21
-357.9978314428468
 31
0.0
  0
LINE
  5
84F5
330
18
100
AcDbEntity
  8
0
100
AcDbLine
 10
364.1363448404806
 20
-348.4978314428468
 30
0.0
 11
375.6363448404806
 21
-348.4978314428468
 31
0.0
  0
ARC
  5
84F6
330
18
100
AcDbEntity
  8
0
100
AcDbCircle
 10
364.1363448404806
 20
-353.2478314428468
 30
0.0
 40
1.75
100
AcDbArc
 50
90.0
 51
270.0
  0
ARC
  5
84F7
330
18
100
AcDbEntity
  8
0
100
AcDbCircle
 10
375.6363448404806
 20
-353.2478314428468
 30
0.0
 40
1.75
100
AcDbArc
 50
270.0
 51
90.0
  0
ARC
  5
84F8
330
18
100
AcDbEntity
  8
0
100
AcDbCircle
 10
388.1363448404806
 20
-359.7478314428468
 30
0.0
 40
1.75
100
AcDbArc
 50
90.0
 51
270.0
  0
ARC
  5
84F9
330
18
100
AcDbEntity
  8
0
100
AcDbCircle
 10
388.1363448404806
 20
-366.2478314428468
 30
0.0
 40
1.75
100
AcDbArc
 50
90.0
 51
270.0
  0
ARC
  5
84FA
330
18
100
AcDbEntity
  8
0
100
AcDbCircle
 10
388.1363448404806
 20
-353.2478314428468
 30
0.0
 40
1.75
100
AcDbArc
 50
90.0
 51
270.0
  0
LINE
  5
84FB
330
18
100
AcDbEntity
  8
0
100
AcDbLine
 10
364.1363448404806
 20
-341.9978314428468
 30
0.0
 11
375.6363448404806
 21
-341.9978314428468
 31
0.0
  0
LINE
  5
84FC
330
18
100
AcDbEntity
  8
0
100
AcDbLine
 10
364.1363448404806
 20
-344.9978314428466
 30
0.0
 11
375.6363448404806
 21
-344.9978314428468
 31
0.0
  0
LINE
  5
84FD
330
18
100
AcDbEntity
  8
0
100
AcDbLine
 10
364.1363448404806
 20
-338.4978314428466
 30
0.0
 11
375.6363448404806
 21
-338.4978314428468
 31
0.0
  0
LINE
  5
84FE
330
18
100
AcDbEntity
  8
0
100
AcDbLine
 10
364.1363448404806
 20
-335.4978314428468
 30
0.0
 11
375.6363448404806
 21
-335.4978314428468
 31
0.0
  0
LINE
  5
84FF
330
18
100
AcDbEntity
  8
0
100
AcDbLine
 10
364.1363448404806
 20
-331.9978314428466
 30
0.0
 11
375.6363448404806
 21
-331.9978314428468
 31
0.0
  0
ARC
  5
8500
330
18
100
AcDbEntity
  8
0
100
AcDbCircle
 10
364.1363448404806
 20
-340.2478314428468
 30
0.0
 40
1.75
100
AcDbArc
 50
90.0
 51
270.0
  0
ARC
  5
8501
330
18
100
AcDbEntity
  8
0
100
AcDbCircle
 10
364.1363448404806
 20
-333.7478314428468
 30
0.0
 40
1.75
100
AcDbArc
 50
90.0
 51
270.0
  0
ARC
  5
8502
330
18
100
AcDbEntity
  8
0
100
AcDbCircle
 10
375.6363448404806
 20
-340.2478314428468
 30
0.0
 40
1.75
100
AcDbArc
 50
270.0
 51
90.0
  0
ARC
  5
8503
330
18
100
AcDbEntity
  8
0
100
AcDbCircle
 10
375.6363448404806
 20
-333.7478314428468
 30
0.0
 40
1.75
100
AcDbArc
 50
270.0
 51
90.0
  0
LINE
  5
8504
330
18
100
AcDbEntity
  8
0
100
AcDbLine
 10
364.1363448404806
 20
-328.9978314428468
 30
0.0
 11
375.6363448404806
 21
-328.9978314428468
 31
0.0
  0
LINE
  5
8505
330
18
100
AcDbEntity
  8
0
100
AcDbLine
 10
364.1363448404806
 20
-325.4978314428466
 30
0.0
 11
375.6363448404806
 21
-325.4978314428468
 31
0.0
  0
ARC
  5
8506
330
18
100
AcDbEntity
  8
0
100
AcDbCircle
 10
364.1363448404806
 20
-327.2478314428468
 30
0.0
 40
1.75
100
AcDbArc
 50
90.0
 51
270.0
  0
ARC
  5
8507
330
18
100
AcDbEntity
  8
0
100
AcDbCircle
 10
375.6363448404806
 20
-327.2478314428468
 30
0.0
 40
1.75
100
AcDbArc
 50
270.0
 51
90.0
  0
ARC
  5
8508
330
18
100
AcDbEntity
  8
0
100
AcDbCircle
 10
388.1363448404806
 20
-333.7478314428468
 30
0.0
 40
1.75
100
AcDbArc
 50
90.0
 51
270.0
  0
ARC
  5
8509
330
18
100
AcDbEntity
  8
0
100
AcDbCircle
 10
388.1363448404806
 20
-340.2478314428468
 30
0.0
 40
1.75
100
AcDbArc
 50
90.0
 51
270.0
  0
ARC
  5
850A
330
18
100
AcDbEntity
  8
0
100
AcDbCircle
 10
388.1363448404806
 20
-327.2478314428468
 30
0.0
 40
1.75
100
AcDbArc
 50
90.0
 51
270.0
  0
LINE
  5
850B
330
18
100
AcDbEntity
  8
0
100
AcDbLine
 10
362.8863448404806
 20
-266.8558732503648
 30
0.0
 11
359.8863448404806
 21
-266.8558732503648
 31
0.0
  0
LINE
  5
850C
330
18
100
AcDbEntity
  8
0
100
AcDbLine
 10
346.3863448404806
 20
-266.8558732503648
 30
0.0
 11
343.3863448404806
 21
-266.8558732503648
 31
0.0
  0
CIRCLE
  5
850D
330
18
100
AcDbEntity
  8
0
100
AcDbCircle
 10
329.1363448404806
 20
-263.8558732503649
 30
0.0
 40
0.5
  0
CIRCLE
  5
850E
330
18
100
AcDbEntity
  8
0
100
AcDbCircle
 10
331.6363448404806
 20
-263.8558732503649
 30
0.0
 40
0.5
  0
CIRCLE
  5
850F
330
18
100
AcDbEntity
  8
0
100
AcDbCircle
 10
334.1363448404806
 20
-263.8558732503649
 30
0.0
 40
0.5
  0
LINE
  5
8510
330
18
100
AcDbEntity
  8
0
100
AcDbLine
 10
351.8863448404806
 20
-266.8558732503648
 30
0.0
 11
348.8863448404806
 21
-266.8558732503648
 31
0.0
  0
LINE
  5
8511
330
18
100
AcDbEntity
  8
0
100
AcDbLine
 10
357.3863448404806
 20
-266.8558732503648
 30
0.0
 11
354.3863448404806
 21
-266.8558732503648
 31
0.0
  0
LINE
  5
8512
330
18
100
AcDbEntity
  8
0
100
AcDbLine
 10
379.3863448404806
 20
-266.8558732503648
 30
0.0
 11
376.3863448404806
 21
-266.8558732503648
 31
0.0
  0
LINE
  5
8513
330
18
100
AcDbEntity
  8
0
100
AcDbLine
 10
368.3863448404806
 20
-266.8558732503648
 30
0.0
 11
365.3863448404806
 21
-266.8558732503648
 31
0.0
  0
LINE
  5
8514
330
18
100
AcDbEntity
  8
0
100
AcDbLine
 10
373.8863448404806
 20
-266.8558732503648
 30
0.0
 11
370.8863448404806
 21
-266.8558732503648
 31
0.0
  0
LINE
  5
8515
330
18
100
AcDbEntity
  8
0
100
AcDbLine
 10
384.8863448404806
 20
-266.8558732503648
 30
0.0
 11
381.8863448404806
 21
-266.8558732503648
 31
0.0
  0
LINE
  5
8516
330
18
100
AcDbEntity
  8
0
100
AcDbLine
 10
390.3863448404806
 20
-266.8558732503648
 30
0.0
 11
387.3863448404806
 21
-266.8558732503648
 31
0.0
  0
ARC
  5
8517
330
18
100
AcDbEntity
  8
0
100
AcDbCircle
 10
399.6363448404806
 20
-346.7478314428468
 30
0.0
 40
1.75
100
AcDbArc
 50
270.0
 51
90.0
  0
ARC
  5
8518
330
18
100
AcDbEntity
  8
0
100
AcDbCircle
 10
399.6363448404806
 20
-359.7478314428468
 30
0.0
 40
1.75
100
AcDbArc
 50
270.0
 51
90.0
  0
ARC
  5
8519
330
18
100
AcDbEntity
  8
0
100
AcDbCircle
 10
399.6363448404806
 20
-366.2478314428468
 30
0.0
 40
1.75
100
AcDbArc
 50
270.0
 51
90.0
  0
ARC
  5
851A
330
18
100
AcDbEntity
  8
0
100
AcDbCircle
 10
399.6363448404806
 20
-353.2478314428468
 30
0.0
 40
1.75
100
AcDbArc
 50
270.0
 51
90.0
  0
ARC
  5
851B
330
18
100
AcDbEntity
  8
0
100
AcDbCircle
 10
399.6363448404806
 20
-340.2478314428468
 30
0.0
 40
1.75
100
AcDbArc
 50
270.0
 51
90.0
  0
ARC
  5
851C
330
18
100
AcDbEntity
  8
0
100
AcDbCircle
 10
399.6363448404806
 20
-333.7478314428468
 30
0.0
 40
1.75
100
AcDbArc
 50
270.0
 51
90.0
  0
ARC
  5
851D
330
18
100
AcDbEntity
  8
0
100
AcDbCircle
 10
399.6363448404806
 20
-327.2478314428468
 30
0.0
 40
1.75
100
AcDbArc
 50
270.0
 51
90.0
  0
LINE
  5
851E
330
18
100
AcDbEntity
  8
0
100
AcDbLine
 10
406.3863448404807
 20
-318.7478314428466
 30
0.0
 11
407.3863448404806
 21
-319.7478314428466
 31
0.0
  0
LINE
  5
851F
330
18
100
AcDbEntity
  8
0
100
AcDbLine
 10
407.3863448404806
 20
-303.7478314428468
 30
0.0
 11
409.3863448404806
 21
-303.7478314428468
 31
0.0
  0
LINE
  5
8520
330
18
100
AcDbEntity
  8
0
100
AcDbLine
 10
401.3863448404806
 20
-266.8558732503648
 30
0.0
 11
398.3863448404806
 21
-266.8558732503648
 31
0.0
  0
LINE
  5
8521
330
18
100
AcDbEntity
  8
0
100
AcDbLine
 10
407.3863448404806
 20
-266.8558732503648
 30
0.0
 11
407.3863448404806
 21
-271.8558732503648
 31
0.0
  0
LINE
  5
8522
330
18
100
AcDbEntity
  8
0
100
AcDbLine
 10
406.3863448404807
 20
-266.8558732503648
 30
0.0
 11
406.3863448404807
 21
-270.8558732503648
 31
0.0
  0
LINE
  5
8523
330
18
100
AcDbEntity
  8
0
100
AcDbLine
 10
407.3863448404806
 20
-271.8558732503648
 30
0.0
 11
409.3863448404806
 21
-271.8558732503648
 31
0.0
  0
LINE
  5
8524
330
18
100
AcDbEntity
  8
0
100
AcDbLine
 10
405.3863448404806
 20
-270.8558732503648
 30
0.0
 11
407.3863448404806
 21
-270.8558732503648
 31
0.0
  0
LINE
  5
8525
330
18
100
AcDbEntity
  8
0
100
AcDbLine
 10
406.3863448404807
 20
-266.8558732503648
 30
0.0
 11
407.3863448404806
 21
-266.8558732503648
 31
0.0
  0
LINE
  5
8526
330
18
100
AcDbEntity
  8
0
100
AcDbLine
 10
390.3863448404809
 20
-220.8558732503648
 30
0.0
 11
400.3863448404806
 21
-220.8558732503648
 31
0.0
  0
LINE
  5
8527
330
18
100
AcDbEntity
  8
0
100
AcDbLine
 10
394.5863448404809
 20
-215.3558732503648
 30
0.0
 11
398.1863448404806
 21
-215.3558732503648
 31
0.0
  0
LINE
  5
8528
330
18
100
AcDbEntity
  8
0
100
AcDbLine
 10
395.8863448404806
 20
-249.8558732503648
 30
0.0
 11
392.8863448404806
 21
-249.8558732503648
 31
0.0
  0
LINE
  5
8529
330
18
100
AcDbEntity
  8
0
100
AcDbLine
 10
395.8863448404806
 20
-242.8558732503649
 30
0.0
 11
392.8863448404806
 21
-242.8558732503649
 31
0.0
  0
LINE
  5
852A
330
18
100
AcDbEntity
  8
0
100
AcDbLine
 10
395.8863448404806
 20
-225.8558732503648
 30
0.0
 11
392.8863448404806
 21
-225.8558732503648
 31
0.0
  0
LINE
  5
852B
330
18
100
AcDbEntity
  8
0
100
AcDbLine
 10
359.5863448404809
 20
-215.3558732503648
 30
0.0
 11
363.1863448404806
 21
-215.3558732503648
 31
0.0
  0
LINE
  5
852C
330
18
100
AcDbEntity
  8
0
100
AcDbLine
 10
362.8863448404806
 20
-249.8558732503648
 30
0.0
 11
359.8863448404806
 21
-249.8558732503648
 31
0.0
  0
LINE
  5
852D
330
18
100
AcDbEntity
  8
0
100
AcDbLine
 10
362.8863448404806
 20
-242.8558732503649
 30
0.0
 11
359.8863448404806
 21
-242.8558732503649
 31
0.0
  0
LINE
  5
852E
330
18
100
AcDbEntity
  8
0
100
AcDbLine
 10
362.8863448404806
 20
-225.8558732503648
 30
0.0
 11
359.8863448404806
 21
-225.8558732503648
 31
0.0
  0
LINE
  5
852F
330
18
100
AcDbEntity
  8
0
100
AcDbLine
 10
348.8863448404806
 20
-242.8558732503649
 30
0.0
 11
348.8863448404806
 21
-225.8558732503648
 31
0.0
  0
LINE
  5
8530
330
18
100
AcDbEntity
  8
0
100
AcDbLine
 10
346.3863448404806
 20
-242.8558732503649
 30
0.0
 11
346.3863448404806
 21
-225.8558732503648
 31
0.0
  0
LINE
  5
8531
330
18
100
AcDbEntity
  8
0
100
AcDbLine
 10
343.3863448404806
 20
-242.8558732503649
 30
0.0
 11
343.3863448404806
 21
-225.8558732503648
 31
0.0
  0
LINE
  5
8532
330
18
100
AcDbEntity
  8
0
100
AcDbLine
 10
359.8863448404806
 20
-242.8558732503649
 30
0.0
 11
359.8863448404806
 21
-225.8558732503648
 31
0.0
  0
LINE
  5
8533
330
18
100
AcDbEntity
  8
0
100
AcDbLine
 10
357.3863448404806
 20
-242.8558732503649
 30
0.0
 11
357.3863448404806
 21
-225.8558732503648
 31
0.0
  0
LINE
  5
8534
330
18
100
AcDbEntity
  8
0
100
AcDbLine
 10
354.3863448404806
 20
-242.8558732503649
 30
0.0
 11
354.3863448404806
 21
-225.8558732503648
 31
0.0
  0
LINE
  5
8535
330
18
100
AcDbEntity
  8
0
100
AcDbLine
 10
351.8863448404806
 20
-242.8558732503649
 30
0.0
 11
351.8863448404806
 21
-225.8558732503648
 31
0.0
  0
LINE
  5
8536
330
18
100
AcDbEntity
  8
0
100
AcDbLine
 10
329.8863448404806
 20
-242.8558732503649
 30
0.0
 11
329.8863448404806
 21
-225.855873250365
 31
0.0
  0
LINE
  5
8537
330
18
100
AcDbEntity
  8
0
100
AcDbLine
 10
326.8863448404806
 20
-242.8558732503649
 30
0.0
 11
326.8863448404806
 21
-225.8558732503648
 31
0.0
  0
LINE
  5
8538
330
18
100
AcDbEntity
  8
0
100
AcDbLine
 10
337.8863448404806
 20
-242.8558732503649
 30
0.0
 11
337.8863448404806
 21
-225.8558732503648
 31
0.0
  0
LINE
  5
8539
330
18
100
AcDbEntity
  8
0
100
AcDbLine
 10
340.8863448404806
 20
-242.8558732503649
 30
0.0
 11
340.8863448404806
 21
-225.8558732503648
 31
0.0
  0
LINE
  5
853A
330
18
100
AcDbEntity
  8
0
100
AcDbLine
 10
346.3863448404806
 20
-249.8558732503648
 30
0.0
 11
343.3863448404806
 21
-249.8558732503648
 31
0.0
  0
LINE
  5
853B
330
18
100
AcDbEntity
  8
0
100
AcDbLine
 10
346.3863448404806
 20
-242.8558732503649
 30
0.0
 11
343.3863448404806
 21
-242.8558732503649
 31
0.0
  0
LINE
  5
853C
330
18
100
AcDbEntity
  8
0
100
AcDbLine
 10
335.3863448404806
 20
-242.8558732503649
 30
0.0
 11
332.3863448404806
 21
-242.8558732503649
 31
0.0
  0
LINE
  5
853D
330
18
100
AcDbEntity
  8
0
100
AcDbLine
 10
335.3863448404806
 20
-232.8558732503649
 30
0.0
 11
332.3863448404806
 21
-232.8558732503649
 31
0.0
  0
LINE
  5
853E
330
18
100
AcDbEntity
  8
0
100
AcDbLine
 10
332.3863448404806
 20
-242.8558732503649
 30
0.0
 11
332.3863448404806
 21
-232.8558732503649
 31
0.0
  0
LINE
  5
853F
330
18
100
AcDbEntity
  8
0
100
AcDbLine
 10
329.8863448404806
 20
-242.8558732503649
 30
0.0
 11
326.8863448404806
 21
-242.8558732503649
 31
0.0
  0
LINE
  5
8540
330
18
100
AcDbEntity
  8
0
100
AcDbLine
 10
335.3863448404806
 20
-242.8558732503649
 30
0.0
 11
335.3863448404806
 21
-232.8558732503649
 31
0.0
  0
LINE
  5
8541
330
18
100
AcDbEntity
  8
0
100
AcDbLine
 10
340.8863448404806
 20
-242.8558732503649
 30
0.0
 11
337.8863448404806
 21
-242.8558732503649
 31
0.0
  0
LINE
  5
8542
330
18
100
AcDbEntity
  8
0
100
AcDbLine
 10
351.8863448404806
 20
-249.8558732503648
 30
0.0
 11
348.8863448404806
 21
-249.8558732503648
 31
0.0
  0
LINE
  5
8543
330
18
100
AcDbEntity
  8
0
100
AcDbLine
 10
357.3863448404806
 20
-249.8558732503648
 30
0.0
 11
354.3863448404806
 21
-249.8558732503648
 31
0.0
  0
LINE
  5
8544
330
18
100
AcDbEntity
  8
0
100
AcDbLine
 10
351.8863448404806
 20
-242.8558732503649
 30
0.0
 11
348.8863448404806
 21
-242.8558732503649
 31
0.0
  0
LINE
  5
8545
330
18
100
AcDbEntity
  8
0
100
AcDbLine
 10
357.3863448404806
 20
-242.8558732503649
 30
0.0
 11
354.3863448404806
 21
-242.8558732503649
 31
0.0
  0
ARC
  5
8546
330
18
100
AcDbEntity
  8
0
100
AcDbCircle
 10
343.8863448404808
 20
-207.4558732503648
 30
0.0
 40
0.5999999999999944
100
AcDbArc
 50
0.0
 51
180.0
  0
LINE
  5
8547
330
18
100
AcDbEntity
  8
0
100
AcDbLine
 10
343.2863448404809
 20
-207.4558732503713
 30
0.0
 11
344.4863448404808
 21
-207.4558732503713
 31
0.0
  0
LINE
  5
8548
330
18
100
AcDbEntity
  8
0
100
AcDbLine
 10
346.3863448404806
 20
-225.8558732503648
 30
0.0
 11
343.3863448404806
 21
-225.8558732503648
 31
0.0
  0
CIRCLE
  5
8549
330
18
100
AcDbEntity
  8
0
100
AcDbCircle
 10
333.8863448404806
 20
-226.3558732503649
 30
0.0
 40
3.0
  0
LINE
  5
854A
330
18
100
AcDbEntity
  8
0
100
AcDbLine
 10
334.3863448404806
 20
-226.8558732503649
 30
0.0
 11
335.8228365135843
 21
-226.8558732503649
 31
0.0
  0
LINE
  5
854B
330
18
100
AcDbEntity
  8
0
100
AcDbLine
 10
334.3863448404806
 20
-225.8558732503649
 30
0.0
 11
335.8228365135843
 21
-225.8558732503649
 31
0.0
  0
LINE
  5
854C
330
18
100
AcDbEntity
  8
0
100
AcDbLine
 10
329.8863448404806
 20
-225.8558732503648
 30
0.0
 11
326.8863448404806
 21
-225.8558732503648
 31
0.0
  0
LINE
  5
854D
330
18
100
AcDbEntity
  8
0
100
AcDbLine
 10
333.3863448404806
 20
-228.2923649234686
 30
0.0
 11
334.3863448404806
 21
-228.2923649234686
 31
0.0
  0
LINE
  5
854E
330
18
100
AcDbEntity
  8
0
100
AcDbLine
 10
334.3863448404806
 20
-224.4193815772612
 30
0.0
 11
333.3863448404806
 21
-224.4193815772612
 31
0.0
  0
LINE
  5
854F
330
18
100
AcDbEntity
  8
0
100
AcDbLine
 10
333.3863448404806
 20
-224.4193815772612
 30
0.0
 11
333.3863448404806
 21
-225.8558732503649
 31
0.0
  0
LINE
  5
8550
330
18
100
AcDbEntity
  8
0
100
AcDbLine
 10
333.3863448404805
 20
-226.8558732503649
 30
0.0
 11
333.3863448404806
 21
-228.2923649234686
 31
0.0
  0
LINE
  5
8551
330
18
100
AcDbEntity
  8
0
100
AcDbLine
 10
331.949853167377
 20
-225.8558732503649
 30
0.0
 11
331.949853167377
 21
-226.8558732503649
 31
0.0
  0
LINE
  5
8552
330
18
100
AcDbEntity
  8
0
100
AcDbLine
 10
331.949853167377
 20
-226.8558732503649
 30
0.0
 11
333.3863448404805
 21
-226.8558732503649
 31
0.0
  0
LINE
  5
8553
330
18
100
AcDbEntity
  8
0
100
AcDbLine
 10
331.949853167377
 20
-225.8558732503649
 30
0.0
 11
333.3863448404806
 21
-225.8558732503649
 31
0.0
  0
LINE
  5
8554
330
18
100
AcDbEntity
  8
0
100
AcDbLine
 10
334.3863448404806
 20
-224.4193815772612
 30
0.0
 11
334.3863448404806
 21
-225.8558732503649
 31
0.0
  0
LINE
  5
8555
330
18
100
AcDbEntity
  8
0
100
AcDbLine
 10
334.3863448404806
 20
-226.8558732503649
 30
0.0
 11
334.3863448404806
 21
-228.2923649234686
 31
0.0
  0
LINE
  5
8556
330
18
100
AcDbEntity
  8
0
100
AcDbLine
 10
340.8863448404806
 20
-225.8558732503648
 30
0.0
 11
337.8863448404806
 21
-225.8558732503648
 31
0.0
  0
LINE
  5
8557
330
18
100
AcDbEntity
  8
0
100
AcDbLine
 10
335.8228365135843
 20
-226.8558732503649
 30
0.0
 11
335.8228365135843
 21
-225.8558732503649
 31
0.0
  0
LINE
  5
8558
330
18
100
AcDbEntity
  8
0
100
AcDbLine
 10
334.5863448404811
 20
-215.3558732503648
 30
0.0
 11
338.1863448404808
 21
-215.3558732503648
 31
0.0
  0
LINE
  5
8559
330
18
100
AcDbEntity
  8
0
100
AcDbLine
 10
333.2863448404809
 20
-207.4558732503647
 30
0.0
 11
333.1863448404808
 21
-215.3558732503648
 31
0.0
  0
LINE
  5
855A
330
18
100
AcDbEntity
  8
0
100
AcDbLine
 10
329.5863448404809
 20
-215.3558732503648
 30
0.0
 11
329.4863448404807
 21
-207.4558732503647
 31
0.0
  0
LINE
  5
855B
330
18
100
AcDbEntity
  8
0
100
AcDbLine
 10
328.286344840481
 20
-207.4558732503647
 30
0.0
 11
328.1863448404808
 21
-215.3558732503648
 31
0.0
  0
LINE
  5
855C
330
18
100
AcDbEntity
  8
0
100
AcDbLine
 10
334.5863448404809
 20
-215.3558732503648
 30
0.0
 11
334.4863448404808
 21
-207.4558732503647
 31
0.0
  0
LINE
  5
855D
330
18
100
AcDbEntity
  8
0
100
AcDbLine
 10
329.5863448404809
 20
-215.3558732503648
 30
0.0
 11
333.1863448404808
 21
-215.3558732503648
 31
0.0
  0
ARC
  5
855E
330
18
100
AcDbEntity
  8
0
100
AcDbCircle
 10
328.8863448404808
 20
-207.4558732503648
 30
0.0
 40
0.5999999999999944
100
AcDbArc
 50
0.0
 51
180.0
  0
LINE
  5
855F
330
18
100
AcDbEntity
  8
0
100
AcDbLine
 10
328.286344840481
 20
-207.4558732503647
 30
0.0
 11
329.4863448404807
 21
-207.4558732503647
 31
0.0
  0
ARC
  5
8560
330
18
100
AcDbEntity
  8
0
100
AcDbCircle
 10
333.8863448404808
 20
-207.4558732503648
 30
0.0
 40
0.5999999999999944
100
AcDbArc
 50
0.0
 51
180.0
  0
LINE
  5
8561
330
18
100
AcDbEntity
  8
0
100
AcDbLine
 10
333.2863448404809
 20
-207.4558732503647
 30
0.0
 11
334.4863448404808
 21
-207.4558732503647
 31
0.0
  0
LINE
  5
8562
330
18
100
AcDbEntity
  8
0
100
AcDbLine
 10
343.2863448404809
 20
-207.4558732503647
 30
0.0
 11
343.1863448404808
 21
-215.3558732503648
 31
0.0
  0
LINE
  5
8563
330
18
100
AcDbEntity
  8
0
100
AcDbLine
 10
339.5863448404809
 20
-215.3558732503648
 30
0.0
 11
339.4863448404807
 21
-207.4558732503647
 31
0.0
  0
LINE
  5
8564
330
18
100
AcDbEntity
  8
0
100
AcDbLine
 10
338.2863448404809
 20
-207.4558732503647
 30
0.0
 11
338.1863448404808
 21
-215.3558732503648
 31
0.0
  0
LINE
  5
8565
330
18
100
AcDbEntity
  8
0
100
AcDbLine
 10
339.5863448404811
 20
-215.3558732503648
 30
0.0
 11
343.1863448404808
 21
-215.3558732503648
 31
0.0
  0
ARC
  5
8566
330
18
100
AcDbEntity
  8
0
100
AcDbCircle
 10
338.8863448404809
 20
-207.4558732503648
 30
0.0
 40
0.5999999999999944
100
AcDbArc
 50
0.0
 51
180.0
  0
LINE
  5
8567
330
18
100
AcDbEntity
  8
0
100
AcDbLine
 10
338.2863448404809
 20
-207.4558732503647
 30
0.0
 11
339.4863448404807
 21
-207.4558732503647
 31
0.0
  0
LINE
  5
8568
330
18
100
AcDbEntity
  8
0
100
AcDbLine
 10
351.8863448404806
 20
-225.8558732503648
 30
0.0
 11
348.8863448404806
 21
-225.8558732503648
 31
0.0
  0
LINE
  5
8569
330
18
100
AcDbEntity
  8
0
100
AcDbLine
 10
357.3863448404806
 20
-225.8558732503648
 30
0.0
 11
354.3863448404806
 21
-225.8558732503648
 31
0.0
  0
LINE
  5
856A
330
18
100
AcDbEntity
  8
0
100
AcDbLine
 10
349.5863448404809
 20
-215.3558732503648
 30
0.0
 11
353.1863448404803
 21
-215.3558732503648
 31
0.0
  0
LINE
  5
856B
330
18
100
AcDbEntity
  8
0
100
AcDbLine
 10
349.5863448404809
 20
-215.3558732503648
 30
0.0
 11
349.4863448404808
 21
-207.4558732503648
 31
0.0
  0
LINE
  5
856C
330
18
100
AcDbEntity
  8
0
100
AcDbLine
 10
348.2863448404809
 20
-207.4558732503648
 30
0.0
 11
348.1863448404808
 21
-215.3558732503648
 31
0.0
  0
LINE
  5
856D
330
18
100
AcDbEntity
  8
0
100
AcDbLine
 10
344.5863448404809
 20
-215.3558732503648
 30
0.0
 11
344.4863448404808
 21
-207.4558732503647
 31
0.0
  0
LINE
  5
856E
330
18
100
AcDbEntity
  8
0
100
AcDbLine
 10
344.5863448404811
 20
-215.3558732503648
 30
0.0
 11
348.1863448404808
 21
-215.3558732503648
 31
0.0
  0
ARC
  5
856F
330
18
100
AcDbEntity
  8
0
100
AcDbCircle
 10
348.8863448404809
 20
-207.4558732503648
 30
0.0
 40
0.5999999999999944
100
AcDbArc
 50
0.0
 51
180.0
  0
LINE
  5
8570
330
18
100
AcDbEntity
  8
0
100
AcDbLine
 10
348.2863448404809
 20
-207.4558732503648
 30
0.0
 11
349.4863448404808
 21
-207.4558732503648
 31
0.0
  0
LINE
  5
8571
330
18
100
AcDbEntity
  8
0
100
AcDbLine
 10
359.5863448404809
 20
-215.3558732503648
 30
0.0
 11
359.4863448404808
 21
-207.4558732503648
 31
0.0
  0
LINE
  5
8572
330
18
100
AcDbEntity
  8
0
100
AcDbLine
 10
358.2863448404809
 20
-207.4558732503648
 30
0.0
 11
358.1863448404808
 21
-215.3558732503648
 31
0.0
  0
LINE
  5
8573
330
18
100
AcDbEntity
  8
0
100
AcDbLine
 10
354.5863448404809
 20
-215.3558732503648
 30
0.0
 11
354.4863448404807
 21
-207.4558732503648
 31
0.0
  0
LINE
  5
8574
330
18
100
AcDbEntity
  8
0
100
AcDbLine
 10
353.286344840481
 20
-207.4558732503648
 30
0.0
 11
353.1863448404808
 21
-215.3558732503648
 31
0.0
  0
LINE
  5
8575
330
18
100
AcDbEntity
  8
0
100
AcDbLine
 10
354.5863448404809
 20
-215.3558732503648
 30
0.0
 11
358.1863448404806
 21
-215.3558732503648
 31
0.0
  0
ARC
  5
8576
330
18
100
AcDbEntity
  8
0
100
AcDbCircle
 10
353.8863448404808
 20
-207.4558732503648
 30
0.0
 40
0.5999999999999944
100
AcDbArc
 50
0.0
 51
180.0
  0
LINE
  5
8577
330
18
100
AcDbEntity
  8
0
100
AcDbLine
 10
353.286344840481
 20
-207.4558732503648
 30
0.0
 11
354.4863448404807
 21
-207.4558732503648
 31
0.0
  0
ARC
  5
8578
330
18
100
AcDbEntity
  8
0
100
AcDbCircle
 10
358.8863448404808
 20
-207.4558732503648
 30
0.0
 40
0.5999999999999944
100
AcDbArc
 50
0.0
 51
180.0
  0
LINE
  5
8579
330
18
100
AcDbEntity
  8
0
100
AcDbLine
 10
358.2863448404811
 20
-207.4558732503736
 30
0.0
 11
359.4863448404808
 21
-207.4558732503736
 31
0.0
  0
LINE
  5
857A
330
18
100
AcDbEntity
  8
0
100
AcDbLine
 10
379.3863448404806
 20
-242.8558732503649
 30
0.0
 11
379.3863448404806
 21
-225.8558732503648
 31
0.0
  0
LINE
  5
857B
330
18
100
AcDbEntity
  8
0
100
AcDbLine
 10
381.8863448404806
 20
-242.8558732503649
 30
0.0
 11
381.8863448404806
 21
-225.8558732503648
 31
0.0
  0
LINE
  5
857C
330
18
100
AcDbEntity
  8
0
100
AcDbLine
 10
392.8863448404806
 20
-242.8558732503649
 30
0.0
 11
392.8863448404806
 21
-225.8558732503648
 31
0.0
  0
LINE
  5
857D
330
18
100
AcDbEntity
  8
0
100
AcDbLine
 10
390.3863448404806
 20
-242.8558732503649
 30
0.0
 11
390.3863448404806
 21
-225.8558732503648
 31
0.0
  0
LINE
  5
857E
330
18
100
AcDbEntity
  8
0
100
AcDbLine
 10
387.3863448404806
 20
-242.8558732503649
 30
0.0
 11
387.3863448404806
 21
-225.8558732503648
 31
0.0
  0
LINE
  5
857F
330
18
100
AcDbEntity
  8
0
100
AcDbLine
 10
384.8863448404806
 20
-242.8558732503649
 30
0.0
 11
384.8863448404806
 21
-225.8558732503648
 31
0.0
  0
LINE
  5
8580
330
18
100
AcDbEntity
  8
0
100
AcDbLine
 10
373.8863448404806
 20
-242.8558732503649
 30
0.0
 11
373.8863448404806
 21
-225.8558732503648
 31
0.0
  0
LINE
  5
8581
330
18
100
AcDbEntity
  8
0
100
AcDbLine
 10
376.3863448404806
 20
-242.8558732503649
 30
0.0
 11
376.3863448404806
 21
-225.8558732503648
 31
0.0
  0
LINE
  5
8582
330
18
100
AcDbEntity
  8
0
100
AcDbLine
 10
370.8863448404806
 20
-242.8558732503649
 30
0.0
 11
370.8863448404806
 21
-225.8558732503648
 31
0.0
  0
LINE
  5
8583
330
18
100
AcDbEntity
  8
0
100
AcDbLine
 10
368.3863448404806
 20
-242.8558732503649
 30
0.0
 11
368.3863448404806
 21
-225.8558732503648
 31
0.0
  0
LINE
  5
8584
330
18
100
AcDbEntity
  8
0
100
AcDbLine
 10
365.3863448404806
 20
-242.8558732503649
 30
0.0
 11
365.3863448404806
 21
-225.8558732503648
 31
0.0
  0
LINE
  5
8585
330
18
100
AcDbEntity
  8
0
100
AcDbLine
 10
362.8863448404806
 20
-242.8558732503649
 30
0.0
 11
362.8863448404806
 21
-225.8558732503648
 31
0.0
  0
LINE
  5
8586
330
18
100
AcDbEntity
  8
0
100
AcDbLine
 10
379.3863448404806
 20
-249.8558732503648
 30
0.0
 11
376.3863448404806
 21
-249.8558732503648
 31
0.0
  0
LINE
  5
8587
330
18
100
AcDbEntity
  8
0
100
AcDbLine
 10
379.3863448404806
 20
-242.8558732503649
 30
0.0
 11
376.3863448404806
 21
-242.8558732503649
 31
0.0
  0
LINE
  5
8588
330
18
100
AcDbEntity
  8
0
100
AcDbLine
 10
368.3863448404806
 20
-249.8558732503648
 30
0.0
 11
365.3863448404806
 21
-249.8558732503648
 31
0.0
  0
LINE
  5
8589
330
18
100
AcDbEntity
  8
0
100
AcDbLine
 10
373.8863448404806
 20
-249.8558732503648
 30
0.0
 11
370.8863448404806
 21
-249.8558732503648
 31
0.0
  0
LINE
  5
858A
330
18
100
AcDbEntity
  8
0
100
AcDbLine
 10
368.3863448404806
 20
-242.8558732503649
 30
0.0
 11
365.3863448404806
 21
-242.8558732503649
 31
0.0
  0
LINE
  5
858B
330
18
100
AcDbEntity
  8
0
100
AcDbLine
 10
373.8863448404806
 20
-242.8558732503649
 30
0.0
 11
370.8863448404806
 21
-242.8558732503649
 31
0.0
  0
LINE
  5
858C
330
18
100
AcDbEntity
  8
0
100
AcDbLine
 10
384.8863448404806
 20
-249.8558732503648
 30
0.0
 11
381.8863448404806
 21
-249.8558732503648
 31
0.0
  0
LINE
  5
858D
330
18
100
AcDbEntity
  8
0
100
AcDbLine
 10
390.3863448404806
 20
-249.8558732503648
 30
0.0
 11
387.3863448404806
 21
-249.8558732503648
 31
0.0
  0
LINE
  5
858E
330
18
100
AcDbEntity
  8
0
100
AcDbLine
 10
384.8863448404806
 20
-242.8558732503649
 30
0.0
 11
381.8863448404806
 21
-242.8558732503649
 31
0.0
  0
LINE
  5
858F
330
18
100
AcDbEntity
  8
0
100
AcDbLine
 10
390.3863448404806
 20
-242.8558732503649
 30
0.0
 11
387.3863448404806
 21
-242.8558732503649
 31
0.0
  0
LINE
  5
8590
330
18
100
AcDbEntity
  8
0
100
AcDbLine
 10
379.3863448404806
 20
-225.8558732503648
 30
0.0
 11
376.3863448404806
 21
-225.8558732503648
 31
0.0
  0
ARC
  5
8591
330
18
100
AcDbEntity
  8
0
100
AcDbCircle
 10
378.8863448404808
 20
-207.4558732503648
 30
0.0
 40
0.5999999999999944
100
AcDbArc
 50
0.0
 51
180.0
  0
LINE
  5
8592
330
18
100
AcDbEntity
  8
0
100
AcDbLine
 10
378.286344840481
 20
-207.4558732503648
 30
0.0
 11
379.4863448404807
 21
-207.4558732503648
 31
0.0
  0
LINE
  5
8593
330
18
100
AcDbEntity
  8
0
100
AcDbLine
 10
368.3863448404806
 20
-225.8558732503648
 30
0.0
 11
365.3863448404806
 21
-225.8558732503648
 31
0.0
  0
LINE
  5
8594
330
18
100
AcDbEntity
  8
0
100
AcDbLine
 10
373.8863448404806
 20
-225.8558732503648
 30
0.0
 11
370.8863448404806
 21
-225.8558732503648
 31
0.0
  0
LINE
  5
8595
330
18
100
AcDbEntity
  8
0
100
AcDbLine
 10
369.5863448404809
 20
-215.3558732503648
 30
0.0
 11
373.1863448404806
 21
-215.3558732503648
 31
0.0
  0
LINE
  5
8596
330
18
100
AcDbEntity
  8
0
100
AcDbLine
 10
363.2863448404809
 20
-207.4558732503648
 30
0.0
 11
363.1863448404808
 21
-215.3558732503648
 31
0.0
  0
LINE
  5
8597
330
18
100
AcDbEntity
  8
0
100
AcDbLine
 10
364.5863448404809
 20
-215.3558732503648
 30
0.0
 11
364.4863448404807
 21
-207.4558732503648
 31
0.0
  0
LINE
  5
8598
330
18
100
AcDbEntity
  8
0
100
AcDbLine
 10
369.5863448404809
 20
-215.3558732503648
 30
0.0
 11
369.4863448404808
 21
-207.4558732503648
 31
0.0
  0
LINE
  5
8599
330
18
100
AcDbEntity
  8
0
100
AcDbLine
 10
368.2863448404809
 20
-207.4558732503648
 30
0.0
 11
368.1863448404808
 21
-215.3558732503648
 31
0.0
  0
LINE
  5
859A
330
18
100
AcDbEntity
  8
0
100
AcDbLine
 10
364.5863448404806
 20
-215.3558732503648
 30
0.0
 11
368.1863448404806
 21
-215.3558732503648
 31
0.0
  0
ARC
  5
859B
330
18
100
AcDbEntity
  8
0
100
AcDbCircle
 10
363.8863448404809
 20
-207.4558732503648
 30
0.0
 40
0.5999999999999944
100
AcDbArc
 50
0.0
 51
180.0
  0
LINE
  5
859C
330
18
100
AcDbEntity
  8
0
100
AcDbLine
 10
363.2863448404809
 20
-207.4558732503648
 30
0.0
 11
364.4863448404807
 21
-207.4558732503648
 31
0.0
  0
ARC
  5
859D
330
18
100
AcDbEntity
  8
0
100
AcDbCircle
 10
368.8863448404808
 20
-207.4558732503648
 30
0.0
 40
0.5999999999999944
100
AcDbArc
 50
0.0
 51
180.0
  0
LINE
  5
859E
330
18
100
AcDbEntity
  8
0
100
AcDbLine
 10
368.286344840481
 20
-207.4558732503648
 30
0.0
 11
369.4863448404809
 21
-207.4558732503648
 31
0.0
  0
LINE
  5
859F
330
18
100
AcDbEntity
  8
0
100
AcDbLine
 10
374.5863448404809
 20
-215.3558732503648
 30
0.0
 11
374.4863448404808
 21
-207.4558732503648
 31
0.0
  0
LINE
  5
85A0
330
18
100
AcDbEntity
  8
0
100
AcDbLine
 10
378.286344840481
 20
-207.4558732503648
 30
0.0
 11
378.1863448404808
 21
-215.3558732503648
 31
0.0
  0
LINE
  5
85A1
330
18
100
AcDbEntity
  8
0
100
AcDbLine
 10
373.2863448404809
 20
-207.4558732503648
 30
0.0
 11
373.1863448404808
 21
-215.3558732503648
 31
0.0
  0
LINE
  5
85A2
330
18
100
AcDbEntity
  8
0
100
AcDbLine
 10
374.5863448404809
 20
-215.3558732503648
 30
0.0
 11
378.1863448404808
 21
-215.3558732503648
 31
0.0
  0
ARC
  5
85A3
330
18
100
AcDbEntity
  8
0
100
AcDbCircle
 10
373.8863448404809
 20
-207.4558732503648
 30
0.0
 40
0.5999999999999944
100
AcDbArc
 50
0.0
 51
180.0
  0
LINE
  5
85A4
330
18
100
AcDbEntity
  8
0
100
AcDbLine
 10
373.2863448404811
 20
-207.4558732503648
 30
0.0
 11
374.4863448404809
 21
-207.4558732503648
 31
0.0
  0
LINE
  5
85A5
330
18
100
AcDbEntity
  8
0
100
AcDbLine
 10
384.8863448404806
 20
-225.8558732503648
 30
0.0
 11
381.8863448404806
 21
-225.8558732503648
 31
0.0
  0
LINE
  5
85A6
330
18
100
AcDbEntity
  8
0
100
AcDbLine
 10
390.3863448404806
 20
-225.8558732503648
 30
0.0
 11
387.3863448404806
 21
-225.8558732503648
 31
0.0
  0
LINE
  5
85A7
330
18
100
AcDbEntity
  8
0
100
AcDbLine
 10
390.3863448404809
 20
-220.8558732503648
 30
0.0
 11
390.3863448404806
 21
-222.8558732503648
 31
0.0
  0
LINE
  5
85A8
330
18
100
AcDbEntity
  8
0
100
AcDbLine
 10
384.5863448404809
 20
-215.3558732503648
 30
0.0
 11
388.1863448404808
 21
-215.3558732503648
 31
0.0
  0
LINE
  5
85A9
330
18
100
AcDbEntity
  8
0
100
AcDbLine
 10
379.5863448404809
 20
-215.3558732503648
 30
0.0
 11
379.4863448404807
 21
-207.4558732503648
 31
0.0
  0
LINE
  5
85AA
330
18
100
AcDbEntity
  8
0
100
AcDbLine
 10
383.2863448404809
 20
-207.4558732503648
 30
0.0
 11
383.1863448404808
 21
-215.3558732503648
 31
0.0
  0
LINE
  5
85AB
330
18
100
AcDbEntity
  8
0
100
AcDbLine
 10
384.5863448404809
 20
-215.3558732503648
 30
0.0
 11
384.4863448404808
 21
-207.4558732503648
 31
0.0
  0
LINE
  5
85AC
330
18
100
AcDbEntity
  8
0
100
AcDbLine
 10
379.5863448404809
 20
-215.3558732503648
 30
0.0
 11
383.1863448404806
 21
-215.3558732503648
 31
0.0
  0
ARC
  5
85AD
330
18
100
AcDbEntity
  8
0
100
AcDbCircle
 10
383.8863448404808
 20
-207.4558732503648
 30
0.0
 40
0.5999999999999944
100
AcDbArc
 50
0.0
 51
180.0
  0
LINE
  5
85AE
330
18
100
AcDbEntity
  8
0
100
AcDbLine
 10
383.2863448404809
 20
-207.4558732503648
 30
0.0
 11
384.4863448404808
 21
-207.4558732503648
 31
0.0
  0
LINE
  5
85AF
330
18
100
AcDbEntity
  8
0
100
AcDbLine
 10
394.5863448404809
 20
-215.3558732503648
 30
0.0
 11
394.4863448404808
 21
-207.4558732503648
 31
0.0
  0
LINE
  5
85B0
330
18
100
AcDbEntity
  8
0
100
AcDbLine
 10
388.2863448404809
 20
-207.4558732503648
 30
0.0
 11
388.1863448404808
 21
-215.3558732503648
 31
0.0
  0
LINE
  5
85B1
330
18
100
AcDbEntity
  8
0
100
AcDbLine
 10
389.5863448404809
 20
-215.3558732503648
 30
0.0
 11
389.4863448404807
 21
-207.4558732503648
 31
0.0
  0
LINE
  5
85B2
330
18
100
AcDbEntity
  8
0
100
AcDbLine
 10
393.2863448404809
 20
-207.4558732503648
 30
0.0
 11
393.1863448404808
 21
-215.3558732503648
 31
0.0
  0
LINE
  5
85B3
330
18
100
AcDbEntity
  8
0
100
AcDbLine
 10
389.5863448404809
 20
-215.3558732503648
 30
0.0
 11
393.1863448404806
 21
-215.3558732503648
 31
0.0
  0
ARC
  5
85B4
330
18
100
AcDbEntity
  8
0
100
AcDbCircle
 10
388.8863448404809
 20
-207.4558732503648
 30
0.0
 40
0.5999999999999944
100
AcDbArc
 50
0.0
 51
180.0
  0
LINE
  5
85B5
330
18
100
AcDbEntity
  8
0
100
AcDbLine
 10
388.286344840481
 20
-207.4558732503648
 30
0.0
 11
389.4863448404809
 21
-207.4558732503648
 31
0.0
  0
ARC
  5
85B6
330
18
100
AcDbEntity
  8
0
100
AcDbCircle
 10
393.8863448404808
 20
-207.4558732503648
 30
0.0
 40
0.5999999999999944
100
AcDbArc
 50
0.0
 51
180.0
  0
LINE
  5
85B7
330
18
100
AcDbEntity
  8
0
100
AcDbLine
 10
393.286344840481
 20
-207.4558732503725
 30
0.0
 11
394.4863448404809
 21
-207.4558732503725
 31
0.0
  0
LINE
  5
85B8
330
18
100
AcDbEntity
  8
0
100
AcDbLine
 10
398.3863448404806
 20
-242.8558732503649
 30
0.0
 11
398.3863448404806
 21
-225.8558732503648
 31
0.0
  0
LINE
  5
85B9
330
18
100
AcDbEntity
  8
0
100
AcDbLine
 10
401.3863448404806
 20
-242.8558732503649
 30
0.0
 11
401.3863448404806
 21
-225.8558732503648
 31
0.0
  0
LINE
  5
85BA
330
18
100
AcDbEntity
  8
0
100
AcDbLine
 10
395.8863448404806
 20
-242.8558732503649
 30
0.0
 11
395.8863448404806
 21
-225.8558732503648
 31
0.0
  0
LINE
  5
85BB
330
18
100
AcDbEntity
  8
0
100
AcDbLine
 10
401.3863448404806
 20
-249.8558732503648
 30
0.0
 11
398.3863448404806
 21
-249.8558732503648
 31
0.0
  0
LINE
  5
85BC
330
18
100
AcDbEntity
  8
0
100
AcDbLine
 10
401.3863448404806
 20
-242.8558732503649
 30
0.0
 11
398.3863448404806
 21
-242.8558732503649
 31
0.0
  0
LINE
  5
85BD
330
18
100
AcDbEntity
  8
0
100
AcDbLine
 10
409.3863448404806
 20
-207.1242107713295
 30
0.0
 11
409.3863448404806
 21
-218.8558732503648
 31
0.0
  0
LINE
  5
85BE
330
18
100
AcDbEntity
  8
0
100
AcDbLine
 10
404.3863448404806
 20
-222.8558732503648
 30
0.0
 11
400.3863448404806
 21
-222.8558732503648
 31
0.0
  0
LINE
  5
85BF
330
18
100
AcDbEntity
  8
0
100
AcDbLine
 10
401.3863448404806
 20
-225.8558732503648
 30
0.0
 11
398.3863448404806
 21
-225.8558732503648
 31
0.0
  0
LINE
  5
85C0
330
18
100
AcDbEntity
  8
0
100
AcDbLine
 10
400.3863448404806
 20
-220.8558732503648
 30
0.0
 11
400.3863448404806
 21
-222.8558732503647
 31
0.0
  0
ARC
  5
85C1
330
18
100
AcDbEntity
  8
0
100
AcDbCircle
 10
408.3863448404806
 20
-219.8558732503648
 30
0.0
 40
1.0
100
AcDbArc
 50
0.0
 51
90.0
  0
LINE
  5
85C2
330
18
100
AcDbEntity
  8
0
100
AcDbLine
 10
407.3863448404806
 20
-223.8558732503648
 30
0.0
 11
409.3863448404806
 21
-223.8558732503648
 31
0.0
  0
LINE
  5
85C3
330
18
100
AcDbEntity
  8
0
100
AcDbLine
 10
404.3863448404806
 20
-222.8558732503648
 30
0.0
 11
405.3863448404806
 21
-223.8558732503648
 31
0.0
  0
ARC
  5
85C4
330
18
100
AcDbEntity
  8
0
100
AcDbCircle
 10
406.3863448404807
 20
-221.8558732503648
 30
0.0
 40
1.0
100
AcDbArc
 50
0.0
 51
90.0
  0
ARC
  5
85C5
330
18
100
AcDbEntity
  8
0
100
AcDbCircle
 10
403.8863448404809
 20
-207.4558732503648
 30
0.0
 40
0.5999999999999944
100
AcDbArc
 50
0.0
 51
180.0
  0
LINE
  5
85C6
330
18
100
AcDbEntity
  8
0
100
AcDbLine
 10
403.286344840481
 20
-207.4558732503648
 30
0.0
 11
404.4863448404807
 21
-207.4558732503648
 31
0.0
  0
LINE
  5
85C7
330
18
100
AcDbEntity
  8
0
100
AcDbLine
 10
399.5863448404809
 20
-215.3558732503648
 30
0.0
 11
399.4863448404808
 21
-207.4558732503648
 31
0.0
  0
LINE
  5
85C8
330
18
100
AcDbEntity
  8
0
100
AcDbLine
 10
398.2863448404809
 20
-207.4558732503648
 30
0.0
 11
398.1863448404808
 21
-215.3558732503648
 31
0.0
  0
LINE
  5
85C9
330
18
100
AcDbEntity
  8
0
100
AcDbLine
 10
403.286344840481
 20
-207.4558732503648
 30
0.0
 11
403.1863448404808
 21
-215.3558732503648
 31
0.0
  0
LINE
  5
85CA
330
18
100
AcDbEntity
  8
0
100
AcDbLine
 10
399.5863448404811
 20
-215.3558732503648
 30
0.0
 11
403.1863448404806
 21
-215.3558732503648
 31
0.0
  0
ARC
  5
85CB
330
18
100
AcDbEntity
  8
0
100
AcDbCircle
 10
398.8863448404809
 20
-207.4558732503648
 30
0.0
 40
0.5999999999999944
100
AcDbArc
 50
0.0
 51
180.0
  0
LINE
  5
85CC
330
18
100
AcDbEntity
  8
0
100
AcDbLine
 10
398.2863448404809
 20
-207.4558732503648
 30
0.0
 11
399.4863448404808
 21
-207.4558732503648
 31
0.0
  0
LINE
  5
85CD
330
18
100
AcDbEntity
  8
0
100
AcDbLine
 10
408.2863448404807
 20
-207.455873250365
 30
0.0
 11
408.1863448404805
 21
-215.3558732503648
 31
0.0
  0
LINE
  5
85CE
330
18
100
AcDbEntity
  8
0
100
AcDbLine
 10
404.5863448404809
 20
-215.3558732503648
 30
0.0
 11
404.4863448404807
 21
-207.4558732503648
 31
0.0
  0
LINE
  5
85CF
330
18
100
AcDbEntity
  8
0
100
AcDbLine
 10
404.5863448404809
 20
-215.3558732503648
 30
0.0
 11
408.1863448404805
 21
-215.3558732503648
 31
0.0
  0
ARC
  5
85D0
330
18
100
AcDbEntity
  8
0
100
AcDbCircle
 10
408.8863448404806
 20
-207.4558732503648
 30
0.0
 40
0.5999999999999944
100
AcDbArc
 50
33.5573097619113
 51
180.0
  0
LINE
  5
85D1
330
18
100
AcDbEntity
  8
0
100
AcDbLine
 10
408.2863448404807
 20
-207.455873250365
 30
0.0
 11
409.3863448404806
 21
-207.455873250365
 31
0.0
  0
LINE
  5
8703
330
18
100
AcDbEntity
  8
0
100
AcDbLine
 10
121.0583839272146
 20
-339.7478314428467
 30
0.0
 11
121.0583839272146
 21
-358.2478314428467
 31
0.0
  0
LINE
  5
8704
330
18
100
AcDbEntity
  8
0
100
AcDbLine
 10
121.0583839272146
 20
-339.7478314428467
 30
0.0
 11
121.0583839272146
 21
-358.2478314428467
 31
0.0
  0
LINE
  5
8705
330
18
100
AcDbEntity
  8
0
100
AcDbLine
 10
136.5583839272146
 20
-339.7478314428465
 30
0.0
 11
136.5583839272146
 21
-341.0799010631993
 31
0.0
  0
LINE
  5
8706
330
18
100
AcDbEntity
  8
0
100
AcDbLine
 10
134.5583839272146
 20
-358.2478314428467
 30
0.0
 11
121.0583839272146
 21
-358.2478314428467
 31
0.0
  0
LINE
  5
8707
330
18
100
AcDbEntity
  8
0
100
AcDbLine
 10
136.5583839272146
 20
-358.2478314428467
 30
0.0
 11
121.0583839272146
 21
-358.2478314428467
 31
0.0
  0
MTEXT
  5
8709
330
18
100
AcDbEntity
  8
0
100
AcDbMText
 10
116.4627215612239
 20
-347.2126084318182
 30
0.0
 40
3.299999999999999
 41
4.654799999999999
 71
     1
 72
     5
  1
s
 73
     1
 44
1.0
  0
MTEXT
  5
870A
330
18
100
AcDbEntity
  8
0
100
AcDbMText
 10
116.6909695429998
 20
-341.7126084318182
 30
0.0
 40
3.299999999999999
 41
4.654799999999999
 71
     1
 72
     5
  1
r
 73
     1
 44
1.0
  0
LINE
  5
870B
330
18
100
AcDbEntity
  8
0
100
AcDbLine
 10
134.5583839272146
 20
-339.7478314428465
 30
0.0
 11
121.0583839272146
 21
-339.7478314428467
 31
0.0
  0
LINE
  5
870C
330
18
100
AcDbEntity
  8
0
100
AcDbLine
 10
136.5583839272146
 20
-339.7478314428465
 30
0.0
 11
121.0583839272146
 21
-339.7478314428467
 31
0.0
  0
MTEXT
  5
870E
330
18
100
AcDbEntity
  8
0
100
AcDbMText
 10
125.1324938342434
 20
-334.4173328649078
 30
0.0
 40
4.0
 41
13.7408
 71
     1
 72
     5
  1
TB1
 73
     1
 44
1.0
  0
LINE
  5
8727
330
18
100
AcDbEntity
  8
0
100
AcDbLine
 10
121.0583839272146
 20
-428.7478314428466
 30
0.0
 11
121.0583839272146
 21
-374.2478314428469
 31
0.0
  0
LINE
  5
8728
330
18
100
AcDbEntity
  8
0
100
AcDbLine
 10
121.0583839272146
 20
-428.7478314428467
 30
0.0
 11
121.0583839272146
 21
-374.2478314428469
 31
0.0
  0
MTEXT
  5
8729
330
18
100
AcDbEntity
  8
0
100
AcDbMText
 10
115.3633235675118
 20
-397.1391876262523
 30
0.0
 40
3.0
 41
4.654799999999999
 71
     1
 72
     5
  1
B2
 73
     1
 44
1.0
  0
LINE
  5
872A
330
18
100
AcDbEntity
  8
0
100
AcDbLine
 10
136.5583839272146
 20
-426.8663551147121
 30
0.0
 11
136.5583839272146
 21
-428.7478314428467
 31
0.0
  0
LINE
  5
872B
330
18
100
AcDbEntity
  8
0
100
AcDbLine
 10
134.5583839272146
 20
-428.7478314428466
 30
0.0
 11
121.0583839272146
 21
-428.7478314428466
 31
0.0
  0
LINE
  5
872C
330
18
100
AcDbEntity
  8
0
100
AcDbLine
 10
136.5583839272146
 20
-428.7478314428467
 30
0.0
 11
121.0583839272146
 21
-428.7478314428467
 31
0.0
  0
MTEXT
  5
872D
330
18
100
AcDbEntity
  8
0
100
AcDbMText
 10
113.7497300758167
 20
-424.4562800095592
 30
0.0
 40
3.0
 41
4.654799999999999
 71
     1
 72
     5
  1
DBC
 73
     1
 44
1.0
  0
MTEXT
  5
872E
330
18
100
AcDbEntity
  8
0
100
AcDbMText
 10
113.7843655137074
 20
-419.140064779505
 30
0.0
 40
3.0
 41
4.654799999999999
 71
     1
 72
     5
  1
DBK
 73
     1
 44
1.0
  0
MTEXT
  5
872F
330
18
100
AcDbEntity
  8
0
100
AcDbMText
 10
115.8763751535692
 20
-413.8673288999625
 30
0.0
 40
3.0
 41
4.654799999999999
 71
     1
 72
     5
  1
W
 73
     1
 44
1.0
  0
MTEXT
  5
8730
330
18
100
AcDbEntity
  8
0
100
AcDbMText
 10
116.3161380005889
 20
-403.17151600234
 30
0.0
 40
3.0
 41
4.654799999999999
 71
     1
 72
     5
  1
U
 73
     1
 44
1.0
  0
MTEXT
  5
8731
330
18
100
AcDbEntity
  8
0
100
AcDbMText
 10
116.2428492615493
 20
-408.67151600234
 30
0.0
 40
3.0
 41
4.654799999999999
 71
     1
 72
     5
  1
V
 73
     1
 44
1.0
  0
LINE
  5
8732
330
18
100
AcDbEntity
  8
0
100
AcDbLine
 10
134.5583839272146
 20
-374.2478314428469
 30
0.0
 11
121.0583839272146
 21
-374.2478314428469
 31
0.0
  0
LINE
  5
8733
330
18
100
AcDbEntity
  8
0
100
AcDbLine
 10
136.5583839272146
 20
-374.2478314428469
 30
0.0
 11
121.0583839272146
 21
-374.2478314428469
 31
0.0
  0
MTEXT
  5
8734
330
18
100
AcDbEntity
  8
0
100
AcDbMText
 10
115.2167400068768
 20
-391.7912830712953
 30
0.0
 40
3.0
 41
4.654799999999999
 71
     1
 72
     5
  1
B1
 73
     1
 44
1.0
  0
MTEXT
  5
8735
330
18
100
AcDbEntity
  8
0
100
AcDbMText
 10
116.2826839326411
 20
-386.2912868590042
 30
0.0
 40
3.0
 41
4.654799999999999
 71
     1
 72
     5
  1
T
 73
     1
 44
1.0
  0
MTEXT
  5
8736
330
18
100
AcDbEntity
  8
0
100
AcDbMText
 10
116.3161380005889
 20
-375.4433747286298
 30
0.0
 40
3.0
 41
4.654799999999999
 71
     1
 72
     5
  1
R
 73
     1
 44
1.0
  0
MTEXT
  5
8737
330
18
100
AcDbEntity
  8
0
100
AcDbMText
 10
116.3161380005889
 20
-380.7912830712952
 30
0.0
 40
3.0
 41
4.654799999999999
 71
     1
 72
     5
  1
S
 73
     1
 44
1.0
  0
MTEXT
  5
8738
330
18
100
AcDbEntity
  8
0
100
AcDbMText
 10
125.1324938342434
 20
-368.9173328649078
 30
0.0
 40
4.0
 41
13.7408
 71
     1
 72
     5
  1
TB2
 73
     1
 44
1.0
  0
LINE
  5
873B
330
18
100
AcDbEntity
  8
0
100
AcDbLine
 10
136.5583839272146
 20
-358.2478314428467
 30
0.0
 11
136.5583839272146
 21
-357.1045630726672
 31
0.0
  0
LINE
  5
8753
330
18
100
AcDbEntity
  8
0
100
AcDbLine
 10
142.0583839272146
 20
-469.2478314428466
 30
0.0
 11
142.0583839272178
 21
-391.2478314428467
 31
0.0
  0
LINE
  5
8754
330
18
100
AcDbEntity
  8
0
100
AcDbLine
 10
159.5583839272146
 20
-323.2478314428467
 30
0.0
 11
159.5583839272146
 21
-469.2478314428466
 31
0.0
  0
LINE
  5
8755
330
18
100
AcDbEntity
  8
0
100
AcDbLine
 10
142.0583839272146
 20
-469.2478314428466
 30
0.0
 11
159.5583839272146
 21
-469.2478314428466
 31
0.0
  0
LINE
  5
8756
330
18
100
AcDbEntity
  8
0
100
AcDbLine
 10
142.0583839272146
 20
-323.2478314428467
 30
0.0
 11
142.0583839272146
 21
-374.2478314428467
 31
0.0
  0
LINE
  5
8757
330
18
100
AcDbEntity
  8
0
100
AcDbLine
 10
139.0583839272146
 20
-374.2478314428465
 30
0.0
 11
142.0583839272146
 21
-374.2478314428465
 31
0.0
  0
LINE
  5
8758
330
18
100
AcDbEntity
  8
0
100
AcDbLine
 10
142.0583839272178
 20
-391.2478314428467
 30
0.0
 11
139.0583839272126
 21
-391.2478314428464
 31
0.0
  0
LINE
  5
8759
330
18
100
AcDbEntity
  8
0
100
AcDbLine
 10
139.0583839272146
 20
-374.2478314428465
 30
0.0
 11
139.0583839272126
 21
-391.2478314428464
 31
0.0
  0
MTEXT
  5
875A
330
18
100
AcDbEntity
  8
0
100
AcDbMText
 10
140.8167145348808
 20
-392.9248155994191
 30
0.0
 40
2.399999999999999
 41
7.047999999999999
 71
     3
 72
     5
  1
J2
 73
     1
 44
1.0
  0
MTEXT
  5
875B
330
18
100
AcDbEntity
  8
0
100
AcDbMText
 10
140.2123150956496
 20
-359.225290747217
 30
0.0
 40
2.399999999999999
 41
7.047999999999999
 71
     3
 72
     5
  1
J1
 73
     1
 44
1.0
  0
LINE
  5
875C
330
18
100
AcDbEntity
  8
0
100
AcDbLine
 10
159.5583839272146
 20
-323.2478314428467
 30
0.0
 11
142.0583839272146
 21
-323.2478314428467
 31
0.0
  0
MTEXT
  5
875D
330
18
100
AcDbEntity
  8
0
100
AcDbMText
 10
141.7712685794914
 20
-406.4849113865202
 30
0.0
 40
2.399999999999999
 41
7.047999999999999
 71
     3
 72
     5
  1
CN2
 73
     1
 44
1.0
  0
MTEXT
  5
875E
330
18
100
AcDbEntity
  8
0
100
AcDbMText
 10
141.2601512468173
 20
-444.5450071736217
 30
0.0
 40
2.399999999999999
 41
7.047999999999999
 71
     3
 72
     5
  1
CN1
 73
     1
 44
1.0
  0
LINE
  5
87BC
330
18
100
AcDbEntity
  8
0
100
AcDbLine
 10
156.0583839272146
 20
-467.0478314428467
 30
0.0
 11
156.0583839272146
 21
-469.2478314428466
 31
0.0
  0
LINE
  5
87BD
330
18
100
AcDbEntity
  8
0
100
AcDbLine
 10
157.5583839272146
 20
-324.2478314428467
 30
0.0
 11
157.5583839272146
 21
-469.2478314428466
 31
0.0
  0
LINE
  5
87BF
330
18
100
AcDbEntity
  8
0
100
AcDbLine
 10
156.0583839272146
 20
-329.7478314428467
 30
0.0
 11
156.0583839272146
 21
-324.2478314428467
 31
0.0
  0
LINE
  5
87C0
330
18
100
AcDbEntity
  8
0
100
AcDbLine
 10
156.0583839272146
 20
-324.2478314428467
 30
0.0
 11
157.5583839272146
 21
-324.2478314428467
 31
0.0
  0
LINE
  5
87C2
330
18
100
AcDbEntity
  8
0
100
AcDbLine
 10
142.0583839272146
 20
-325.9978314428467
 30
0.0
 11
156.0583839272146
 21
-325.9978314428467
 31
0.0
  0
LINE
  5
87C3
330
18
100
AcDbEntity
  8
0
100
AcDbLine
 10
142.0583839272146
 20
-331.4978314428467
 30
0.0
 11
148.5333839272146
 21
-331.4978314428467
 31
0.0
  0
LINE
  5
87C4
330
18
100
AcDbEntity
  8
0
100
AcDbLine
 10
142.0583839272146
 20
-328.7478314428467
 30
0.0
 11
156.0583839272146
 21
-328.7478314428467
 31
0.0
  0
LINE
  5
87F1
330
18
100
AcDbEntity
  8
0
100
AcDbLine
 10
136.5583839272146
 20
-374.2478314428469
 30
0.0
 11
136.5583839272146
 21
-375.8663551147122
 31
0.0
  0
TEXT
  5
882C
330
18
100
AcDbEntity
  8
0
100
AcDbText
 10
349.3425494397703
 20
-534.2341353715745
 30
0.0
 40
6.0
  1
ＮＣＲ－＊Ａ＊＊Ａ２Ｄ－４０１－ＵＬ　＊（－Ｈ、－Ｓ＊＊）
 41
0.6
  7
MSｺﾞｼｯｸ
100
AcDbText
  0
TEXT
  5
882D
330
18
100
AcDbEntity
  8
0
100
AcDbText
 10
415.4940617295516
 20
-558.8504048924187
 30
0.0
 40
7.0
  1
ＳＥ－３５３０１
 41
0.9530000000000001
  7
MSｺﾞｼｯｸ
100
AcDbText
  0
MTEXT
  5
882E
330
18
100
AcDbEntity
  8
0
100
AcDbMText
 10
416.8460182140998
 20
-541.1413799432154
 30
0.0
 40
6.0
 41
39.7426
 71
     1
 72
     5
  1
VC外形図
  7
MSｺﾞｼｯｸ
 73
     1
 44
1.0
  0
VIEWPORT
  5
8888
330
8884
100
AcDbEntity
 67
     1
  8
0
100
AcDbViewport
 10
202.4999999999999
 20
128.4999999999999
 30
0.0
 40
486.0
 41
308.3999999999999
 68
     1
 69
     1
 12
202.4999999999999
 22
128.4999999999999
 13
0.0
 23
0.0
 14
0.5
 24
0.5
 15
0.0
 25
0.0
 16
0.0
 26
0.0
 36
1.0
 17
0.0
 27
0.0
 37
0.0
 42
50.0
 43
0.0
 44
0.0
 45
308.3999999999999
 50
0.0
 51
0.0
 72
   100
 90
    32864
  1

281
     0
 71
     1
 74
     0
110
0.0
120
0.0
130
0.0
111
1.0
121
0.0
131
0.0
112
0.0
122
1.0
132
0.0
 79
     0
146
0.0
  0
VIEWPORT
  5
8889
330
8884
100
AcDbEntity
 67
     1
  8
0
100
AcDbViewport
 10
202.4999999999999
 20
128.4999999999999
 30
0.0
 40
324.0
 41
205.6
 68
     2
 69
     2
 12
289.9602666834924
 22
-382.386472404725
 13
0.0
 23
0.0
 14
0.5
 24
0.5
 15
0.0
 25
0.0
 16
0.0
 26
0.0
 36
1.0
 17
0.0
 27
0.0
 37
0.0
 42
50.0
 43
0.0
 44
0.0
 45
358.0824222748951
 50
0.0
 51
0.0
 72
   100
 90
    32864
  1

281
     0
 71
     1
 74
     0
110
0.0
120
0.0
130
0.0
111
1.0
121
0.0
131
0.0
112
0.0
122
1.0
132
0.0
 79
     0
146
0.0
  0
ENDSEC
  0
SECTION
  2
OBJECTS
  0
DICTIONARY
  5
C
330
0
100
AcDbDictionary
281
     1
  3
ACAD_GROUP
350
D
  3
ACAD_IMAGE_VARS
350
8882
  3
ACAD_LAYOUT
350
73F
  3
ACAD_MLINESTYLE
350
1B
  3
ACAD_PLOTSETTINGS
350
740
  3
ACAD_PLOTSTYLENAME
350
73D
  3
ACAD_SCALELIST
350
8856
  3
AcadDim
350
61D4
  3
AcDbVariableDictionary
350
7046
  3
APPDATA
350
8880
  3
DWGPROPS
350
888C
  0
DICTIONARY
  5
D
102
{ACAD_REACTORS
330
C
102
}
330
C
100
AcDbDictionary
281
     1
  3
*A1
350
87B9
  0
RASTERVARIABLES
  5
8882
102
{ACAD_REACTORS
330
C
102
}
330
C
100
AcDbRasterVariables
 90
        0
 70
     1
 71
     1
 72
     0
  0
DICTIONARY
  5
73F
102
{ACAD_REACTORS
330
C
102
}
330
C
100
AcDbDictionary
281
     1
  3
Model
350
741
  3
Sheet1
350
8885
  0
DICTIONARY
  5
1B
102
{ACAD_REACTORS
330
C
102
}
330
C
100
AcDbDictionary
281
     1
  3
STANDARD
350
1C
  0
DICTIONARY
  5
740
102
{ACAD_REACTORS
330
C
102
}
330
C
100
AcDbDictionary
281
     1
  0
ACDBDICTIONARYWDFLT
  5
73D
102
{ACAD_REACTORS
330
C
102
}
330
C
100
AcDbDictionary
281
     1
  3
Normal
350
73E
100
AcDbDictionaryWithDefault
340
73E
  0
DICTIONARY
  5
8856
102
{ACAD_REACTORS
330
C
102
}
330
C
100
AcDbDictionary
281
     1
  3
A0
350
8857
  3
A1
350
8858
  3
A2
350
8859
  3
A3
350
885A
  3
A4
350
885B
  3
A5
350
885C
  3
A6
350
885D
  3
A7
350
885E
  3
A8
350
885F
  3
A9
350
8860
  3
B0
350
8861
  3
B1
350
8862
  3
B2
350
8863
  3
B3
350
8864
  3
B4
350
8865
  3
B5
350
8866
  3
B6
350
8867
  3
B7
350
8868
  3
B8
350
8869
  3
B9
350
886A
  3
C0
350
886B
  3
C1
350
886C
  3
C2
350
886D
  3
C3
350
886E
  3
C4
350
886F
  3
C5
350
8870
  3
C6
350
8871
  3
C7
350
8872
  3
C8
350
8873
  3
C9
350
8874
  3
D0
350
8875
  3
D1
350
8876
  3
D2
350
8877
  0
XRECORD
  5
61D4
102
{ACAD_REACTORS
330
C
102
}
330
C
100
AcDbXrecord
280
     1
 90
   990106
  3

 60
     0
 61
     0
 62
     1
 63
     3
 64
     0
 65
     0
 66
     0
 67
     3
 68
     1
 69
     0
 70
     0
 71
     0
 72
     0
 40
0.0
170
     0
  0
DICTIONARY
  5
7046
102
{ACAD_REACTORS
330
C
102
}
330
C
100
AcDbDictionary
281
     1
  3
DIMASSOC
350
7047
  0
DICTIONARY
  5
8880
102
{ACAD_REACTORS
330
C
102
}
330
C
100
AcDbDictionary
281
     1
  0
XRECORD
  5
888C
102
{ACAD_REACTORS
330
C
102
}
330
C
100
AcDbXrecord
280
     1
  1
DWGPROPS COOKIE
  2

  3

  4

  6

  7

  8
k-yoshida
  9

300
=
301
=
302
=
303
=
304
=
305
=
306
=
307
=
308
=
309
=
 40
0.0
 41
2451224.285162384
 42
2457315.081307268
  1

 90
        0
  0
GROUP
  5
87B9
102
{ACAD_REACTORS
330
D
102
}
330
D
100
AcDbGroup
300

 70
     1
 71
     1
340
8275
340
823D
340
821C
340
8260
340
825F
  0
LAYOUT
  5
741
102
{ACAD_REACTORS
330
73F
102
}
330
73F
100
AcDbPlotSettings
  1

  2
HP DesignJet 750C (D/A1) Color
  4
ISO_A3_(420.00_x_297.00_MM)
  6

 40
7.5
 41
20.0
 42
7.5
 43
20.0
 44
420.0
 45
297.0
 46
0.0
 47
0.0
 48
0.0
 49
0.0
140
0.0
141
0.0
142
1.0
143
1.638792247125093
 70
  1712
 72
     1
 73
     0
 74
     0
  7

 75
     0
147
0.6102054740338707
148
-15.28338711628686
149
588.267499865998
100
AcDbLayout
  1
Model
 70
     1
 71
     0
 10
0.0
 20
0.0
 11
12.0
 21
9.0
 12
0.0
 22
0.0
 32
0.0
 14
98.05838392721467
 24
-558.8504048924187
 34
0.0
 15
481.8621494397703
 25
-206.8558732503647
 35
0.0
146
0.0
 13
0.0
 23
0.0
 33
0.0
 16
1.0
 26
0.0
 36
0.0
 17
0.0
 27
1.0
 37
0.0
 76
     0
330
18
  0
LAYOUT
  5
8885
102
{ACAD_REACTORS
330
73F
102
}
330
73F
100
AcDbPlotSettings
  1

  2
none_device
  4
ISO_A3_(420.00_x_297.00_MM)
  6

 40
7.5
 41
20.0
 42
7.5
 43
20.0
 44
420.0
 45
297.0
 46
0.0
 47
0.0
 48
0.0
 49
0.0
140
0.0
141
0.0
142
1.0
143
1.0
 70
   688
 72
     1
 73
     0
 74
     5
  7

 75
    16
147
1.0
148
0.0
149
0.0
100
AcDbLayout
  1
Sheet1
 70
     1
 71
     1
 10
0.0
 20
0.0
 11
0.0
 21
0.0
 12
0.0
 22
0.0
 32
0.0
 14
40.49999999999999
 24
25.69999999999998
 34
0.0
 15
364.5
 25
231.3
 35
0.0
146
0.0
 13
0.0
 23
0.0
 33
0.0
 16
1.0
 26
0.0
 36
0.0
 17
0.0
 27
1.0
 37
0.0
 76
     0
330
8884
331
8888
  0
MLINESTYLE
  5
1C
102
{ACAD_REACTORS
330
1B
102
}
330
1B
100
AcDbMlineStyle
  2
STANDARD
 70
     0
  3

 62
   256
 51
90.0
 52
90.0
 71
     2
 49
0.5
 62
   256
  6
BYLAYER
 49
-0.5
 62
   256
  6
BYLAYER
  0
ACDBPLACEHOLDER
  5
73E
102
{ACAD_REACTORS
330
73D
102
}
330
73D
  0
ACAD_PROXY_OBJECT
  5
8857
102
{ACAD_REACTORS
330
8856
102
}
330
8856
100
AcDbProxyObject
 90
      499
 91
      507
 95
   655383
 70
     0
 93
       41
310
903313A31581
 94
        0
  0
ACAD_PROXY_OBJECT
  5
8858
102
{ACAD_REACTORS
330
8856
102
}
330
8856
100
AcDbProxyObject
 90
      499
 91
      507
 95
   655383
 70
     0
 93
      105
310
903313A324000000000000004000
 94
        0
  0
ACAD_PROXY_OBJECT
  5
8859
102
{ACAD_REACTORS
330
8856
102
}
330
8856
100
AcDbProxyObject
 90
      499
 91
      507
 95
   655383
 70
     0
 93
      105
310
903313A344000000000000104000
 94
        0
  0
ACAD_PROXY_OBJECT
  5
885A
102
{ACAD_REACTORS
330
8856
102
}
330
8856
100
AcDbProxyObject
 90
      499
 91
      507
 95
   655383
 70
     0
 93
      105
310
903313A354000000000000144000
 94
        0
  0
ACAD_PROXY_OBJECT
  5
885B
102
{ACAD_REACTORS
330
8856
102
}
330
8856
100
AcDbProxyObject
 90
      499
 91
      507
 95
   655383
 70
     0
 93
      105
310
903313A384000000000000204000
 94
        0
  0
ACAD_PROXY_OBJECT
  5
885C
102
{ACAD_REACTORS
330
8856
102
}
330
8856
100
AcDbProxyObject
 90
      499
 91
      507
 95
   655383
 70
     0
 93
      113
310
904313A31304000000000000244024
 94
        0
  0
ACAD_PROXY_OBJECT
  5
885D
102
{ACAD_REACTORS
330
8856
102
}
330
8856
100
AcDbProxyObject
 90
      499
 91
      507
 95
   655383
 70
     0
 93
      113
310
904313A31364000000000000304024
 94
        0
  0
ACAD_PROXY_OBJECT
  5
885E
102
{ACAD_REACTORS
330
8856
102
}
330
8856
100
AcDbProxyObject
 90
      499
 91
      507
 95
   655383
 70
     0
 93
      113
310
904313A32304000000000000344024
 94
        0
  0
ACAD_PROXY_OBJECT
  5
885F
102
{ACAD_REACTORS
330
8856
102
}
330
8856
100
AcDbProxyObject
 90
      499
 91
      507
 95
   655383
 70
     0
 93
      113
310
904313A333040000000000003E4024
 94
        0
  0
ACAD_PROXY_OBJECT
  5
8860
102
{ACAD_REACTORS
330
8856
102
}
330
8856
100
AcDbProxyObject
 90
      499
 91
      507
 95
   655383
 70
     0
 93
      113
310
904313A34304000000000000444024
 94
        0
  0
ACAD_PROXY_OBJECT
  5
8861
102
{ACAD_REACTORS
330
8856
102
}
330
8856
100
AcDbProxyObject
 90
      499
 91
      507
 95
   655383
 70
     0
 93
      113
310
904313A35304000000000000494024
 94
        0
  0
ACAD_PROXY_OBJECT
  5
8862
102
{ACAD_REACTORS
330
8856
102
}
330
8856
100
AcDbProxyObject
 90
      499
 91
      507
 95
   655383
 70
     0
 93
      121
310
905313A3130304000000000000594000
 94
        0
  0
ACAD_PROXY_OBJECT
  5
8863
102
{ACAD_REACTORS
330
8856
102
}
330
8856
100
AcDbProxyObject
 90
      499
 91
      507
 95
   655383
 70
     0
 93
      105
310
903323A310000000000000010159
 94
        0
  0
ACAD_PROXY_OBJECT
  5
8864
102
{ACAD_REACTORS
330
8856
102
}
330
8856
100
AcDbProxyObject
 90
      499
 91
      507
 95
   655383
 70
     0
 93
      105
310
903343A310000000000000410159
 94
        0
  0
ACAD_PROXY_OBJECT
  5
8865
102
{ACAD_REACTORS
330
8856
102
}
330
8856
100
AcDbProxyObject
 90
      499
 91
      507
 95
   655383
 70
     0
 93
      105
310
903383A310000000000000810159
 94
        0
  0
ACAD_PROXY_OBJECT
  5
8866
102
{ACAD_REACTORS
330
8856
102
}
330
8856
100
AcDbProxyObject
 90
      499
 91
      507
 95
   655383
 70
     0
 93
      113
310
90431303A310000000000000910140
 94
        0
  0
ACAD_PROXY_OBJECT
  5
8867
102
{ACAD_REACTORS
330
8856
102
}
330
8856
100
AcDbProxyObject
 90
      499
 91
      507
 95
   655383
 70
     0
 93
      121
310
9053130303A310000000000001650100
 94
        0
  0
ACAD_PROXY_OBJECT
  5
8868
102
{ACAD_REACTORS
330
8856
102
}
330
8856
100
AcDbProxyObject
 90
      499
 91
      507
 95
   655383
 70
     0
 93
      257
310
90E312F31323822203D2031272D3022000000000000200FC000000000000284000
 94
        0
  0
ACAD_PROXY_OBJECT
  5
8869
102
{ACAD_REACTORS
330
8856
102
}
330
8856
100
AcDbProxyObject
 90
      499
 91
      507
 95
   655383
 70
     0
 93
      249
310
90D312F363422203D2031272D3022000000000000240FC000000000000284040
 94
        0
  0
ACAD_PROXY_OBJECT
  5
886A
102
{ACAD_REACTORS
330
8856
102
}
330
8856
100
AcDbProxyObject
 90
      499
 91
      507
 95
   655383
 70
     0
 93
      249
310
90D312F333222203D2031272D3022000000000000280FC000000000000284040
 94
        0
  0
ACAD_PROXY_OBJECT
  5
886B
102
{ACAD_REACTORS
330
8856
102
}
330
8856
100
AcDbProxyObject
 90
      499
 91
      507
 95
   655383
 70
     0
 93
      249
310
90D312F313622203D2031272D30220000000000002C0FC000000000000284040
 94
        0
  0
ACAD_PROXY_OBJECT
  5
886C
102
{ACAD_REACTORS
330
8856
102
}
330
8856
100
AcDbProxyObject
 90
      499
 91
      507
 95
   655383
 70
     0
 93
      249
310
90D332F333222203D2031272D30220000000000002E0FC000000000000284040
 94
        0
  0
ACAD_PROXY_OBJECT
  5
886D
102
{ACAD_REACTORS
330
8856
102
}
330
8856
100
AcDbProxyObject
 90
      499
 91
      507
 95
   655383
 70
     0
 93
      241
310
90C312F3822203D2031272D3022000000000000300FC000000000000284040
 94
        0
  0
ACAD_PROXY_OBJECT
  5
886E
102
{ACAD_REACTORS
330
8856
102
}
330
8856
100
AcDbProxyObject
 90
      499
 91
      507
 95
   655383
 70
     0
 93
      249
310
90D332F313622203D2031272D3022000000000000320FC000000000000284040
 94
        0
  0
ACAD_PROXY_OBJECT
  5
886F
102
{ACAD_REACTORS
330
8856
102
}
330
8856
100
AcDbProxyObject
 90
      499
 91
      507
 95
   655383
 70
     0
 93
      241
310
90C312F3422203D2031272D3022000000000000340FC000000000000284040
 94
        0
  0
ACAD_PROXY_OBJECT
  5
8870
102
{ACAD_REACTORS
330
8856
102
}
330
8856
100
AcDbProxyObject
 90
      499
 91
      507
 95
   655383
 70
     0
 93
      241
310
90C332F3822203D2031272D3022000000000000360FC000000000000284040
 94
        0
  0
ACAD_PROXY_OBJECT
  5
8871
102
{ACAD_REACTORS
330
8856
102
}
330
8856
100
AcDbProxyObject
 90
      499
 91
      507
 95
   655383
 70
     0
 93
      241
310
90C312F3222203D2031272D3022000000000000380FC000000000000284040
 94
        0
  0
ACAD_PROXY_OBJECT
  5
8872
102
{ACAD_REACTORS
330
8856
102
}
330
8856
100
AcDbProxyObject
 90
      499
 91
      507
 95
   655383
 70
     0
 93
      241
310
90C332F3422203D2031272D30220000000000003A0FC000000000000284040
 94
        0
  0
ACAD_PROXY_OBJECT
  5
8873
102
{ACAD_REACTORS
330
8856
102
}
330
8856
100
AcDbProxyObject
 90
      499
 91
      507
 95
   655383
 70
     0
 93
      161
310
90A3122203D2031272D30224000000000000284020
 94
        0
  0
ACAD_PROXY_OBJECT
  5
8874
102
{ACAD_REACTORS
330
8856
102
}
330
8856
100
AcDbProxyObject
 90
      499
 91
      507
 95
   655383
 70
     0
 93
      257
310
90E312D312F3222203D2031272D30220000000000003E0FC000000000000284000
 94
        0
  0
ACAD_PROXY_OBJECT
  5
8875
102
{ACAD_REACTORS
330
8856
102
}
330
8856
100
AcDbProxyObject
 90
      499
 91
      507
 95
   655383
 70
     0
 93
      225
310
90A3322203D2031272D302200000000000002100000000000000284000
 94
        0
  0
ACAD_PROXY_OBJECT
  5
8876
102
{ACAD_REACTORS
330
8856
102
}
330
8856
100
AcDbProxyObject
 90
      499
 91
      507
 95
   655383
 70
     0
 93
      225
310
90A3622203D2031272D302200000000000006100000000000000284000
 94
        0
  0
ACAD_PROXY_OBJECT
  5
8877
102
{ACAD_REACTORS
330
8856
102
}
330
8856
100
AcDbProxyObject
 90
      499
 91
      507
 95
   655383
 70
     0
 93
      249
310
90D31272D3022203D2031272D30220000000000000A100000000000000284040
 94
        0
  0
DICTIONARYVAR
  5
7047
102
{ACAD_REACTORS
330
7046
102
}
330
7046
100
DictionaryVariables
280
     0
  1
1
  0
ENDSEC
  0
EOF
