  0
SECTION
  2
HEADER
  9
$ACADVER
  1
AC1015
  9
$ACADMAINTVER
 70
    10
  9
$DWGCODEPAGE
  3
ANSI_932
  9
$INSBASE
 10
0.0
 20
0.0
 30
0.0
  9
$EXTMIN
 10
501.7933819188634
 20
635.0016022963242
 30
0.0
  9
$EXTMAX
 10
1053.871309248295
 20
1141.600000580016
 30
0.0
  9
$LIMMIN
 10
0.0
 20
0.0
  9
$LIMMAX
 10
420.0
 20
297.0
  9
$ORTHOMODE
 70
     1
  9
$REGENMODE
 70
     1
  9
$FILLMODE
 70
     1
  9
$QTEXTMODE
 70
     0
  9
$MIRRTEXT
 70
     1
  9
$LTSCALE
 40
1.0
  9
$ATTMODE
 70
     1
  9
$TEXTSIZE
 40
2.5
  9
$TRACEWID
 40
1.0
  9
$TEXTSTYLE
  7
STANDARD
  9
$CLAYER
  8
0
  9
$CELTYPE
  6
BYLAYER
  9
$CECOLOR
 62
   256
  9
$CELTSCALE
 40
1.0
  9
$DISPSILH
 70
     0
  9
$DIMSCALE
 40
3.0
  9
$DIMASZ
 40
2.0
  9
$DIMEXO
 40
1.0
  9
$DIMDLI
 40
5.0
  9
$DIMRND
 40
0.0
  9
$DIMDLE
 40
0.0
  9
$DIMEXE
 40
0.75
  9
$DIMTP
 40
0.0
  9
$DIMTM
 40
0.0
  9
$DIMTXT
 40
2.0
  9
$DIMCEN
 40
2.5
  9
$DIMTSZ
 40
0.0
  9
$DIMTOL
 70
     0
  9
$DIMLIM
 70
     0
  9
$DIMTIH
 70
     0
  9
$DIMTOH
 70
     0
  9
$DIMSE1
 70
     0
  9
$DIMSE2
 70
     0
  9
$DIMTAD
 70
     1
  9
$DIMZIN
 70
     9
  9
$DIMBLK
  1

  9
$DIMASO
 70
     1
  9
$DIMSHO
 70
     1
  9
$DIMPOST
  1

  9
$DIMAPOST
  1

  9
$DIMALT
 70
     0
  9
$DIMALTD
 70
     4
  9
$DIMALTF
 40
0.0394
  9
$DIMLFAC
 40
1.0
  9
$DIMTOFL
 70
     1
  9
$DIMTVP
 40
0.0
  9
$DIMTIX
 70
     0
  9
$DIMSOXD
 70
     0
  9
$DIMSAH
 70
     0
  9
$DIMBLK1
  1

  9
$DIMBLK2
  1

  9
$DIMSTYLE
  2
STANDARD
  9
$DIMCLRD
 70
     0
  9
$DIMCLRE
 70
     0
  9
$DIMCLRT
 70
     7
  9
$DIMTFAC
 40
1.0
  9
$DIMGAP
 40
0.5
  9
$DIMJUST
 70
     0
  9
$DIMSD1
 70
     0
  9
$DIMSD2
 70
     0
  9
$DIMTOLJ
 70
     1
  9
$DIMTZIN
 70
     9
  9
$DIMALTZ
 70
     0
  9
$DIMALTTZ
 70
     0
  9
$DIMUPT
 70
     0
  9
$DIMDEC
 70
     4
  9
$DIMTDEC
 70
     4
  9
$DIMALTU
 70
     8
  9
$DIMALTTD
 70
     4
  9
$DIMTXSTY
  7
STANDARD
  9
$DIMAUNIT
 70
     0
  9
$DIMADEC
 70
     0
  9
$DIMALTRND
 40
0.0
  9
$DIMAZIN
 70
     2
  9
$DIMDSEP
 70
    46
  9
$DIMATFIT
 70
     3
  9
$DIMFRAC
 70
     0
  9
$DIMLDRBLK
  1
OPEN
  9
$DIMLUNIT
 70
     2
  9
$DIMLWD
 70
    -2
  9
$DIMLWE
 70
    -2
  9
$DIMTMOVE
 70
     2
  9
$LUNITS
 70
     2
  9
$LUPREC
 70
     4
  9
$SKETCHINC
 40
1.0
  9
$FILLETRAD
 40
1.0
  9
$AUNITS
 70
     0
  9
$AUPREC
 70
     0
  9
$MENU
  1
.
  9
$ELEVATION
 40
0.0
  9
$PELEVATION
 40
0.0
  9
$THICKNESS
 40
0.0
  9
$LIMCHECK
 70
     0
  9
$CHAMFERA
 40
10.0
  9
$CHAMFERB
 40
10.0
  9
$CHAMFERC
 40
20.0
  9
$CHAMFERD
 40
0.0
  9
$SKPOLY
 70
     0
  9
$TDCREATE
 40
2451224.660162384
  9
$TDUCREATE
 40
2451224.285162384
  9
$TDUPDATE
 40
2457366.478615081
  9
$TDUUPDATE
 40
2457366.103615080
  9
$TDINDWG
 40
1.2213193750
  9
$TDUSRTIMER
 40
2457316.342014757
  9
$USRTIMER
 70
     1
  9
$ANGBASE
 50
0.0
  9
$ANGDIR
 70
     0
  9
$PDMODE
 70
     0
  9
$PDSIZE
 40
0.0
  9
$PLINEWID
 40
0.0
  9
$SPLFRAME
 70
     0
  9
$SPLINETYPE
 70
     6
  9
$SPLINESEGS
 70
     8
  9
$HANDSEED
  5
9F07
  9
$SURFTAB1
 70
     6
  9
$SURFTAB2
 70
     6
  9
$SURFTYPE
 70
     6
  9
$SURFU
 70
     6
  9
$SURFV
 70
     6
  9
$UCSBASE
  2

  9
$UCSNAME
  2

  9
$UCSORG
 10
0.0
 20
0.0
 30
0.0
  9
$UCSXDIR
 10
1.0
 20
0.0
 30
0.0
  9
$UCSYDIR
 10
0.0
 20
1.0
 30
0.0
  9
$UCSORTHOREF
  2

  9
$UCSORTHOVIEW
 70
     0
  9
$UCSORGTOP
 10
0.0
 20
0.0
 30
0.0
  9
$UCSORGBOTTOM
 10
0.0
 20
0.0
 30
0.0
  9
$UCSORGLEFT
 10
0.0
 20
0.0
 30
0.0
  9
$UCSORGRIGHT
 10
0.0
 20
0.0
 30
0.0
  9
$UCSORGFRONT
 10
0.0
 20
0.0
 30
0.0
  9
$UCSORGBACK
 10
0.0
 20
0.0
 30
0.0
  9
$PUCSBASE
  2

  9
$PUCSNAME
  2

  9
$PUCSORG
 10
0.0
 20
0.0
 30
0.0
  9
$PUCSXDIR
 10
1.0
 20
0.0
 30
0.0
  9
$PUCSYDIR
 10
0.0
 20
1.0
 30
0.0
  9
$PUCSORTHOREF
  2

  9
$PUCSORTHOVIEW
 70
     0
  9
$PUCSORGTOP
 10
0.0
 20
0.0
 30
0.0
  9
$PUCSORGBOTTOM
 10
0.0
 20
0.0
 30
0.0
  9
$PUCSORGLEFT
 10
0.0
 20
0.0
 30
0.0
  9
$PUCSORGRIGHT
 10
0.0
 20
0.0
 30
0.0
  9
$PUCSORGFRONT
 10
0.0
 20
0.0
 30
0.0
  9
$PUCSORGBACK
 10
0.0
 20
0.0
 30
0.0
  9
$USERI1
 70
     0
  9
$USERI2
 70
     0
  9
$USERI3
 70
     0
  9
$USERI4
 70
     0
  9
$USERI5
 70
     0
  9
$USERR1
 40
0.0
  9
$USERR2
 40
0.0
  9
$USERR3
 40
0.0
  9
$USERR4
 40
0.0
  9
$USERR5
 40
0.0
  9
$WORLDVIEW
 70
     1
  9
$SHADEDGE
 70
     3
  9
$SHADEDIF
 70
    70
  9
$TILEMODE
 70
     1
  9
$MAXACTVP
 70
    48
  9
$PINSBASE
 10
0.0
 20
0.0
 30
0.0
  9
$PLIMCHECK
 70
     0
  9
$PEXTMIN
 10
40.49999999999999
 20
25.69999999999998
 30
0.0
  9
$PEXTMAX
 10
364.5
 20
231.3
 30
0.0
  9
$PLIMMIN
 10
0.0
 20
0.0
  9
$PLIMMAX
 10
0.0
 20
0.0
  9
$UNITMODE
 70
     0
  9
$VISRETAIN
 70
     1
  9
$PLINEGEN
 70
     0
  9
$PSLTSCALE
 70
     1
  9
$TREEDEPTH
 70
  3020
  9
$CMLSTYLE
  2
STANDARD
  9
$CMLJUST
 70
     0
  9
$CMLSCALE
 40
20.0
  9
$PROXYGRAPHICS
 70
     1
  9
$MEASUREMENT
 70
     1
  9
$CELWEIGHT
370
    -1
  9
$ENDCAPS
280
     0
  9
$JOINSTYLE
280
     0
  9
$LWDISPLAY
290
     1
  9
$INSUNITS
 70
     0
  9
$HYPERLINKBASE
  1

  9
$STYLESHEET
  1

  9
$XEDIT
290
     1
  9
$CEPSNTYPE
380
     0
  9
$PSTYLEMODE
290
     1
  9
$FINGERPRINTGUID
  2
{6B368F64-F7EB-11D4-BFBA-00004C030E53}
  9
$VERSIONGUID
  2
{2F00AF3F-714F-4512-96A0-24F3CCD299BC}
  9
$EXTNAMES
290
     1
  9
$PSVPSCALE
 40
0.0
  9
$OLESTARTUP
290
     0
  0
ENDSEC
  0
SECTION
  2
CLASSES
  0
CLASS
  1
HATCH
  2
AcDbHatch
  3
AutoCAD 2000
 90
    32768
280
     0
281
     1
  0
CLASS
  1
LWPOLYLINE
  2
AcDbPolyline
  3
AutoCAD 2000
 90
    32768
280
     0
281
     1
  0
CLASS
  1
ACDBDICTIONARYWDFLT
  2
AcDbDictionaryWithDefault
  3
AutoCAD 2000
 90
        0
280
     0
281
     0
  0
CLASS
  1
ACDBPLACEHOLDER
  2
AcDbPlaceHolder
  3
AutoCAD 2000
 90
        0
280
     0
281
     0
  0
CLASS
  1
LAYOUT
  2
AcDbLayout
  3
AutoCAD 2000
 90
        0
280
     0
281
     0
  0
CLASS
  1
VISUALSTYLE
  2
AcDbVisualStyle
  3
ObjectDBX Classes
 90
    36863
280
     0
281
     0
  0
CLASS
  1
SCALE
  2
AcDbScale
  3
ObjectDBX Classes
 90
     1153
280
     0
281
     0
  0
CLASS
  1
MATERIAL
  2
AcDbMaterial
  3
ObjectDBX Classes
 90
    33921
280
     0
281
     0
  0
CLASS
  1
TABLESTYLE
  2
AcDbTableStyle
  3
ObjectDBX Classes
 90
    36863
280
     0
281
     0
  0
CLASS
  1
MLEADERSTYLE
  2
AcDbMLeaderStyle
  3
ACDB_MLEADERSTYLE_CLASS
 90
    36863
280
     0
281
     0
  0
CLASS
  1
SUN
  2
AcDbSun
  3
SCENEOE
 90
     1153
280
     0
281
     0
  0
CLASS
  1
RASTERVARIABLES
  2
AcDbRasterVariables
  3
ISM
 90
        0
280
     0
281
     0
  0
ENDSEC
  0
SECTION
  2
TABLES
  0
TABLE
  2
VPORT
  5
8
330
0
100
AcDbSymbolTable
 70
     2
  0
VPORT
  5
9F06
330
8
100
AcDbSymbolTableRecord
100
AcDbViewportTableRecord
  2
*Active
 70
     0
 10
0.0
 20
0.0
 11
1.0
 21
1.0
 12
777.843787911815
 22
908.7871561293562
 13
0.0
 23
0.0
 14
10.0
 24
10.0
 15
10.0
 25
10.0
 16
0.0
 26
0.0
 36
1.0
 17
0.0
 27
0.0
 37
0.0
 40
551.5821069198753
 41
1.562182741116751
 42
50.0
 43
0.0
 44
0.0
 50
0.0
 51
0.0
 71
    16
 72
   100
 73
     1
 74
     0
 75
     0
 76
     0
 77
     0
 78
     0
281
     0
 65
     1
110
0.0
120
0.0
130
0.0
111
1.0
121
0.0
131
0.0
112
0.0
122
1.0
132
0.0
 79
     0
146
0.0
  0
ENDTAB
  0
TABLE
  2
LTYPE
  5
5
330
0
100
AcDbSymbolTable
 70
     1
  0
LTYPE
  5
12
330
5
100
AcDbSymbolTableRecord
100
AcDbLinetypeTableRecord
  2
BYBLOCK
 70
     0
  3

 72
    65
 73
     0
 40
0.0
  0
LTYPE
  5
13
330
5
100
AcDbSymbolTableRecord
100
AcDbLinetypeTableRecord
  2
BYLAYER
 70
     0
  3

 72
    65
 73
     0
 40
0.0
  0
LTYPE
  5
14
330
5
100
AcDbSymbolTableRecord
100
AcDbLinetypeTableRecord
  2
CONTINUOUS
 70
     0
  3
Solid line
 72
    65
 73
     0
 40
0.0
  0
ENDTAB
  0
TABLE
  2
LAYER
  5
2
102
{ACAD_XDICTIONARY
360
9DBE
102
}
330
0
100
AcDbSymbolTable
 70
     1
  0
LAYER
  5
E
330
2
100
AcDbSymbolTableRecord
100
AcDbLayerTableRecord
  2
0
 70
     2
 62
     7
  6
CONTINUOUS
370
    -3
390
73E
  0
ENDTAB
  0
TABLE
  2
STYLE
  5
3
330
0
100
AcDbSymbolTable
 70
     2
  0
STYLE
  5
F
330
3
100
AcDbSymbolTableRecord
100
AcDbTextStyleTableRecord
  2
STANDARD
 70
     0
 40
0.0
 41
1.0
 50
0.0
 71
     0
 42
2.5
  3
isocp.shx
  4
bigfont.shx
  0
STYLE
  5
35
330
3
100
AcDbSymbolTableRecord
100
AcDbTextStyleTableRecord
  2
MSｺﾞｼｯｸ
 70
     0
 40
0.0
 41
1.0
 50
0.0
 71
     0
 42
5.0
  3
MS Gothic.ttf
  4

1001
ACAD
1000
MS Gothic
1071
    32817
  0
ENDTAB
  0
TABLE
  2
VIEW
  5
6
330
0
100
AcDbSymbolTable
 70
     0
  0
ENDTAB
  0
TABLE
  2
UCS
  5
7
330
0
100
AcDbSymbolTable
 70
     0
  0
ENDTAB
  0
TABLE
  2
APPID
  5
9
330
0
100
AcDbSymbolTable
 70
     1
  0
APPID
  5
10
330
9
100
AcDbSymbolTableRecord
100
AcDbRegAppTableRecord
  2
ACAD
 70
     0
  0
ENDTAB
  0
TABLE
  2
DIMSTYLE
  5
A
330
0
100
AcDbSymbolTable
 70
     1
100
AcDbDimStyleTable
 71
     0
  0
DIMSTYLE
105
1D
330
A
100
AcDbSymbolTableRecord
100
AcDbDimStyleTableRecord
  2
STANDARD
 70
     0
 78
     8
 79
     2
140
3.0
340
F
341
89E
342
89E
  0
ENDTAB
  0
TABLE
  2
BLOCK_RECORD
  5
1
330
0
100
AcDbSymbolTable
 70
     2
  0
BLOCK_RECORD
  5
18
330
1
100
AcDbSymbolTableRecord
100
AcDbBlockTableRecord
  2
*MODEL_SPACE
340
741
  0
BLOCK_RECORD
  5
9EF8
330
1
100
AcDbSymbolTableRecord
100
AcDbBlockTableRecord
  2
*Paper_Space
340
9EF9
  0
BLOCK_RECORD
  5
24
330
1
100
AcDbSymbolTableRecord
100
AcDbBlockTableRecord
  2
_OPEN
340
0
  0
BLOCK_RECORD
  5
89E
330
1
100
AcDbSymbolTableRecord
100
AcDbBlockTableRecord
  2
_Open30
340
0
  0
ENDTAB
  0
ENDSEC
  0
SECTION
  2
BLOCKS
  0
BLOCK
  5
19
330
18
100
AcDbEntity
  8
0
100
AcDbBlockBegin
  2
*MODEL_SPACE
 70
     0
 10
0.0
 20
0.0
 30
0.0
  3
*MODEL_SPACE
  1

  0
ENDBLK
  5
1A
330
18
100
AcDbEntity
  8
0
100
AcDbBlockEnd
  0
BLOCK
  5
9EFA
330
9EF8
100
AcDbEntity
 67
     1
  8
0
100
AcDbBlockBegin
  2
*Paper_Space
 70
     0
 10
0.0
 20
0.0
 30
0.0
  3
*Paper_Space
  1

  0
ENDBLK
  5
9EFB
330
9EF8
100
AcDbEntity
 67
     1
  8
0
100
AcDbBlockEnd
  0
BLOCK
  5
25
330
24
100
AcDbEntity
  8
0
100
AcDbBlockBegin
  2
_OPEN
 70
     0
 10
0.0
 20
0.0
 30
0.0
  3
_OPEN
  1

  0
LINE
  5
26
330
24
100
AcDbEntity
  8
0
  6
ByBlock
 62
     0
100
AcDbLine
 10
-1.0
 20
0.1666666666666666
 30
0.0
 11
0.0
 21
0.0
 31
0.0
  0
LINE
  5
27
330
24
100
AcDbEntity
  8
0
  6
ByBlock
 62
     0
100
AcDbLine
 10
0.0
 20
0.0
 30
0.0
 11
-1.0
 21
-0.1666666666666666
 31
0.0
  0
LINE
  5
28
330
24
100
AcDbEntity
  8
0
  6
ByBlock
 62
     0
100
AcDbLine
 10
0.0
 20
0.0
 30
0.0
 11
-1.0
 21
0.0
 31
0.0
  0
ENDBLK
  5
29
330
24
100
AcDbEntity
  8
0
100
AcDbBlockEnd
  0
BLOCK
  5
8A2
330
89E
100
AcDbEntity
  8
0
100
AcDbBlockBegin
  2
_Open30
 70
     0
 10
0.0
 20
0.0
 30
0.0
  3
_Open30
  1

  0
LINE
  5
89F
330
89E
100
AcDbEntity
  8
0
  6
ByBlock
 62
     0
370
    -2
100
AcDbLine
 10
-1.0
 20
0.26794919
 30
0.0
 11
0.0
 21
0.0
 31
0.0
  0
LINE
  5
8A0
330
89E
100
AcDbEntity
  8
0
  6
ByBlock
 62
     0
370
    -2
100
AcDbLine
 10
0.0
 20
0.0
 30
0.0
 11
-1.0
 21
-0.26794919
 31
0.0
  0
LINE
  5
8A1
330
89E
100
AcDbEntity
  8
0
  6
ByBlock
 62
     0
370
    -2
100
AcDbLine
 10
0.0
 20
0.0
 30
0.0
 11
-1.0
 21
0.0
 31
0.0
  0
ENDBLK
  5
8A3
330
89E
100
AcDbEntity
  8
0
100
AcDbBlockEnd
  0
ENDSEC
  0
SECTION
  2
ENTITIES
  0
LINE
  5
95F4
330
18
100
AcDbEntity
  8
0
100
AcDbLine
 10
645.7933819188639
 20
941.1529262382003
 30
0.0
 11
645.7933819188639
 21
804.2639029288816
 31
0.0
  0
LWPOLYLINE
  5
95F8
330
18
100
AcDbEntity
  8
0
100
AcDbPolyline
 90
        8
 70
     1
 43
0.0
 10
557.7933819188634
 20
915.4029262382003
 10
557.7933819188634
 20
890.4029262382003
 42
-0.4142135623730951
 10
556.7933819188635
 20
889.4029262382003
 10
518.7933819188635
 20
889.4029262382003
 42
-0.4142135623730951
 10
517.7933819188634
 20
890.4029262382003
 10
517.7933819188634
 20
915.4029262382003
 42
-0.4142135623730951
 10
518.7933819188635
 20
916.4029262382003
 10
556.7933819188635
 20
916.4029262382003
 42
-0.4142135623730951
  0
HATCH
  5
95F9
330
18
100
AcDbEntity
  8
0
100
AcDbHatch
 10
0.0
 20
0.0
 30
0.0
210
0.0
220
0.0
230
1.0
  2
SOLID
 70
     1
 71
     0
 91
        2
 92
        7
 72
     1
 73
     1
 93
        8
 10
557.1894406728294
 20
916.321151408519
 42
0.0
 10
518.3973231648975
 20
916.321151408519
 42
0.1885055804394898
 10
517.879600663734
 20
915.8091328577603
 42
0.0
 10
517.879600663734
 20
889.9967196186404
 42
0.2963712537857847
 10
518.7933819188635
 20
889.4029262382003
 42
0.0
 10
556.7933819188635
 20
889.4029262382003
 42
0.4142135623730951
 10
557.7933819188634
 20
890.4029262382003
 42
0.0
 10
557.7933819188634
 20
915.4029262382003
 42
0.299386580726798
 97
        0
 92
       22
 72
     1
 73
     1
 93
        8
 10
555.7933819188634
 20
915.4029262382003
 42
-0.4142135623730953
 10
556.7933819188635
 20
914.4029262382003
 42
0.0
 10
556.7933819188635
 20
891.4029262382003
 42
-0.4142135623730951
 10
555.7933819188634
 20
890.4029262382003
 42
0.0
 10
519.7933819188635
 20
890.4029262382003
 42
-0.4142135623730951
 10
518.7933819188635
 20
891.4029262382003
 42
0.0
 10
518.7933819188635
 20
914.4029262382003
 42
-0.4142135623730949
 10
519.7933819188635
 20
915.4029262382003
 42
0.0
 97
        0
 75
     0
 76
     1
 47
0.1122686005965
 98
        2
 10
527.6258615254979
 20
916.0231946338635
 10
527.6258615254979
 20
916.0231946338635
  0
LWPOLYLINE
  5
95FA
330
18
100
AcDbEntity
  8
0
100
AcDbPolyline
 90
        8
 70
     1
 43
0.0
 10
556.7933819188635
 20
914.4029262382003
 10
556.7933819188635
 20
891.4029262382003
 42
-0.4142135623730951
 10
555.7933819188634
 20
890.4029262382003
 10
519.7933819188635
 20
890.4029262382003
 42
-0.4142135623730951
 10
518.7933819188635
 20
891.4029262382003
 10
518.7933819188635
 20
914.4029262382003
 42
-0.4142135623730949
 10
519.7933819188635
 20
915.4029262382003
 10
555.7933819188634
 20
915.4029262382003
 42
-0.4142135623730953
  0
LINE
  5
95FB
330
18
100
AcDbEntity
  8
0
100
AcDbLine
 10
509.7933819188634
 20
930.4029262382004
 30
0.0
 11
509.7933819188634
 21
870.4029262382004
 31
0.0
  0
LINE
  5
95FC
330
18
100
AcDbEntity
  8
0
100
AcDbLine
 10
565.7933819188635
 20
930.4029262382004
 30
0.0
 11
565.7933819188635
 21
870.4029262382004
 31
0.0
  0
LINE
  5
95FD
330
18
100
AcDbEntity
  8
0
100
AcDbLine
 10
622.7933819188635
 20
716.1529262382003
 30
0.0
 11
622.7933819188635
 21
956.1529262382002
 31
0.0
  0
LINE
  5
95FE
330
18
100
AcDbEntity
  8
0
100
AcDbLine
 10
501.7933819188634
 20
731.1529262382004
 30
0.0
 11
501.7933819188634
 21
941.1529262382003
 31
0.0
  0
LINE
  5
95FF
330
18
100
AcDbEntity
  8
0
100
AcDbLine
 10
622.7933819188635
 20
716.1529262382003
 30
0.0
 11
622.7933819188635
 21
956.1529262382002
 31
0.0
  0
LINE
  5
9600
330
18
100
AcDbEntity
  8
0
100
AcDbLine
 10
511.7933819188634
 20
868.4029262382004
 30
0.0
 11
563.7933819188634
 21
868.4029262382004
 31
0.0
  0
HATCH
  5
9601
330
18
100
AcDbEntity
  8
0
100
AcDbHatch
 10
0.0
 20
0.0
 30
0.0
210
0.0
220
0.0
230
1.0
  2
SOLID
 70
     1
 71
     0
 91
        5
 92
        7
 72
     1
 73
     1
 93
        8
 10
547.2933819188634
 20
883.152951408519
 42
0.4142135623730951
 10
546.2933819188634
 20
884.1529514085189
 42
0.0
 10
540.2933819188635
 20
884.1529514085189
 42
0.4142135623730951
 10
539.2933819188634
 20
883.152951408519
 42
0.0
 10
539.2933819188634
 20
877.1529514085189
 42
0.4142135623730951
 10
540.2933819188635
 20
876.1529514085189
 42
0.0
 10
546.2933819188634
 20
876.1529514085189
 42
0.4142135623730951
 10
547.2933819188634
 20
877.1529514085189
 42
0.0
 97
        0
 92
       22
 72
     1
 73
     1
 93
        8
 10
546.7933819188634
 20
877.1529514085189
 42
-0.4142135623730951
 10
546.2933819188634
 20
876.652951408519
 42
0.0
 10
540.2933819188635
 20
876.652951408519
 42
-0.4142135623730951
 10
539.7933819188635
 20
877.1529514085189
 42
0.0
 10
539.7933819188635
 20
883.152951408519
 42
-0.4142135623730951
 10
540.2933819188635
 20
883.652951408519
 42
0.0
 10
546.2933819188634
 20
883.652951408519
 42
-0.4142135623730951
 10
546.7933819188634
 20
883.152951408519
 42
0.0
 97
        0
 92
        6
 72
     0
 73
     1
 93
        3
 10
546.0341015437421
 20
878.3703280754027
 10
544.3020507361735
 20
877.3703280754029
 10
544.3020507361735
 20
879.3703280754026
 97
        0
 92
        6
 72
     0
 73
     1
 93
        4
 10
545.2256115548713
 20
880.9673655612298
 10
541.4259104864473
 20
878.7355228169429
 10
541.2992935377611
 20
878.9510875364715
 10
545.098994606185
 20
881.1829302807582
 97
        0
 92
      136
 93
        4
 72
     1
 10
540.1279789380784
 20
880.7843108989446
 11
545.4092289380784
 21
880.7843108989446
 72
     1
 10
545.4092289380784
 20
880.7843108989446
 11
545.4092289380784
 21
883.1046233989447
 72
     1
 10
545.4092289380784
 20
883.1046233989447
 11
540.1279789380784
 21
883.1046233989447
 72
     1
 10
540.1279789380784
 20
883.1046233989447
 11
540.1279789380784
 21
880.7843108989446
 97
        0
 75
     0
 76
     1
 47
0.0316320572239519
 98
        4
 10
546.9344952527859
 20
880.0208891475062
 10
546.9344952527859
 20
880.0208891475062
 10
546.9344952527859
 20
880.0208891475062
 10
546.9344952527859
 20
880.0208891475062
  0
LWPOLYLINE
  5
9602
330
18
100
AcDbEntity
  8
0
100
AcDbPolyline
 90
        8
 70
     1
 43
0.0
 10
547.2933819188634
 20
883.152951408519
 10
547.2933819188634
 20
877.1529514085189
 42
-0.4142135623730951
 10
546.2933819188634
 20
876.1529514085189
 10
540.2933819188635
 20
876.1529514085189
 42
-0.4142135623730951
 10
539.2933819188634
 20
877.1529514085189
 10
539.2933819188634
 20
883.152951408519
 42
-0.4142135623730951
 10
540.2933819188635
 20
884.1529514085189
 10
546.2933819188634
 20
884.1529514085189
 42
-0.4142135623730951
  0
LINE
  5
9603
330
18
100
AcDbEntity
  8
0
100
AcDbLine
 10
580.7933819188634
 20
716.1529262382003
 30
0.0
 11
525.5433819188635
 21
716.1529262382003
 31
0.0
  0
LINE
  5
9604
330
18
100
AcDbEntity
  8
0
100
AcDbLine
 10
501.7933819188634
 20
731.1529262382004
 30
0.0
 11
622.7933819188635
 21
731.1529262382004
 31
0.0
  0
LINE
  5
9605
330
18
100
AcDbEntity
  8
0
100
AcDbLine
 10
580.7933819188634
 20
716.1529262382003
 30
0.0
 11
525.5433819188635
 21
716.1529262382003
 31
0.0
  0
ARC
  5
9606
330
18
100
AcDbEntity
  8
0
100
AcDbCircle
 10
527.7933819188635
 20
737.1529262382003
 30
0.0
 40
2.0
100
AcDbArc
 50
345.5224878140697
 51
14.47751218593027
  0
ARC
  5
9607
330
18
100
AcDbEntity
  8
0
100
AcDbCircle
 10
527.7933819188635
 20
737.1529262382003
 30
0.0
 40
2.0
100
AcDbArc
 50
165.5224878140697
 51
194.4775121859302
  0
CIRCLE
  5
9608
330
18
100
AcDbEntity
  8
0
100
AcDbCircle
 10
527.7933819188635
 20
737.1529262382003
 30
0.0
 40
3.0
  0
CIRCLE
  5
9609
330
18
100
AcDbEntity
  8
0
100
AcDbCircle
 10
527.7933819188635
 20
737.1529262382003
 30
0.0
 40
2.5
  0
LINE
  5
960C
330
18
100
AcDbEntity
  8
0
100
AcDbLine
 10
525.8568902457601
 20
736.6529262382004
 30
0.0
 11
527.2933819188635
 21
736.6529262382004
 31
0.0
  0
LINE
  5
960D
330
18
100
AcDbEntity
  8
0
100
AcDbLine
 10
525.5433819188635
 20
721.1529262382003
 30
0.0
 11
525.5433819188635
 21
716.1529262382003
 31
0.0
  0
LINE
  5
960E
330
18
100
AcDbEntity
  8
0
100
AcDbLine
 10
520.0433819188634
 20
721.1529262382003
 30
0.0
 11
520.0433819188634
 21
716.1529262382003
 31
0.0
  0
LINE
  5
960F
330
18
100
AcDbEntity
  8
0
100
AcDbLine
 10
512.7933819188625
 20
724.2529262383028
 30
0.0
 11
512.7933819188634
 21
716.1529262382003
 31
0.0
  0
LINE
  5
9610
330
18
100
AcDbEntity
  8
0
100
AcDbLine
 10
525.5433819188635
 20
721.1529262382003
 30
0.0
 11
525.5433819188635
 21
716.1529262382003
 31
0.0
  0
LINE
  5
9611
330
18
100
AcDbEntity
  8
0
100
AcDbLine
 10
520.0433819188634
 20
721.1529262382003
 30
0.0
 11
520.0433819188634
 21
716.1529262382003
 31
0.0
  0
LINE
  5
9612
330
18
100
AcDbEntity
  8
0
100
AcDbLine
 10
512.7933819188634
 20
731.1529262382004
 30
0.0
 11
512.7933819188634
 21
716.1529262382003
 31
0.0
  0
LINE
  5
9613
330
18
100
AcDbEntity
  8
0
100
AcDbLine
 10
520.0433819188634
 20
716.1529262382003
 30
0.0
 11
512.7933819188634
 21
716.1529262382003
 31
0.0
  0
LINE
  5
9614
330
18
100
AcDbEntity
  8
0
100
AcDbLine
 10
520.0433819188634
 20
716.1529262382003
 30
0.0
 11
512.7933819188634
 21
716.1529262382003
 31
0.0
  0
LINE
  5
9615
330
18
100
AcDbEntity
  8
0
100
AcDbLine
 10
514.827356515079
 20
724.8529262383033
 30
0.0
 11
518.6273565150787
 21
725.8711331695417
 31
0.0
  0
LINE
  5
9616
330
18
100
AcDbEntity
  8
0
100
AcDbLine
 10
508.6273565150787
 20
724.9637220508814
 30
0.0
 11
508.6273565150787
 21
727.5421304257254
 31
0.0
  0
LINE
  5
9617
330
18
100
AcDbEntity
  8
0
100
AcDbLine
 10
508.1273565150787
 20
731.1529262382004
 30
0.0
 11
508.1273565150787
 21
724.2529262383034
 31
0.0
  0
LINE
  5
9618
330
18
100
AcDbEntity
  8
0
100
AcDbLine
 10
508.9523650412671
 20
726.5764919590211
 30
0.0
 11
508.9523650412671
 21
727.2531114078621
 31
0.0
  0
LINE
  5
9619
330
18
100
AcDbEntity
  8
0
100
AcDbLine
 10
511.3023479888981
 20
727.2531114078621
 30
0.0
 11
511.3023479888981
 21
726.5764919590211
 31
0.0
  0
LINE
  5
961A
330
18
100
AcDbEntity
  8
0
100
AcDbLine
 10
511.6273565150788
 20
724.9637220508814
 30
0.0
 11
511.6273565150788
 21
727.5421304257254
 31
0.0
  0
ARC
  5
961B
330
18
100
AcDbEntity
  8
0
100
AcDbCircle
 10
510.3511644148531
 20
726.0270214419608
 30
0.0
 40
0.9511835740452008
100
AcDbArc
 50
180.0
 51
0.0
  0
LINE
  5
961C
330
18
100
AcDbEntity
  8
0
100
AcDbLine
 10
511.4165607025007
 20
724.7529262383034
 30
0.0
 11
508.8381523276567
 21
724.7529262383034
 31
0.0
  0
LINE
  5
961D
330
18
100
AcDbEntity
  8
0
100
AcDbLine
 10
508.9914581302165
 20
724.2529262383032
 30
0.0
 11
513.827356515079
 21
724.2529262383027
 31
0.0
  0
LINE
  5
961E
330
18
100
AcDbEntity
  8
0
100
AcDbLine
 10
510.904302178492
 20
726.1977699512084
 30
0.0
 11
511.1442511294645
 21
726.1977699512084
 31
0.0
  0
LINE
  5
961F
330
18
100
AcDbEntity
  8
0
100
AcDbLine
 10
511.1442511294645
 20
726.4183950995875
 30
0.0
 11
510.904302178492
 21
726.4183950995875
 31
0.0
  0
CIRCLE
  5
9620
330
18
100
AcDbEntity
  8
0
100
AcDbCircle
 10
510.3511644148531
 20
726.308082525398
 30
0.0
 40
0.2283621302927905
  0
ARC
  5
9621
330
18
100
AcDbEntity
  8
0
100
AcDbCircle
 10
508.8381523276567
 20
724.9637220508814
 30
0.0
 40
0.2107958125779206
100
AcDbArc
 50
180.0
 51
270.0
  0
ARC
  5
9622
330
18
100
AcDbEntity
  8
0
100
AcDbCircle
 10
509.1104619007007
 20
726.5764919590211
 30
0.0
 40
0.1580968594334404
100
AcDbArc
 50
180.0
 51
270.0
  0
ARC
  5
9623
330
18
100
AcDbEntity
  8
0
100
AcDbCircle
 10
509.7980266512141
 20
726.0396730917748
 30
0.0
 40
0.1580968594334435
100
AcDbArc
 50
25.88492445758944
 51
90.0
  0
ARC
  5
9624
330
18
100
AcDbEntity
  8
0
100
AcDbCircle
 10
509.5580777002411
 20
726.0396730917748
 30
0.0
 40
0.1580968594333925
100
AcDbArc
 50
90.0
 51
180.0
  0
ARC
  5
9625
330
18
100
AcDbEntity
  8
0
100
AcDbCircle
 10
510.904302178492
 20
726.0396730917748
 30
0.0
 40
0.1580968594335914
100
AcDbArc
 50
90.0
 51
154.1150755424178
  0
ARC
  5
9626
330
18
100
AcDbEntity
  8
0
100
AcDbCircle
 10
510.3511644148531
 20
726.308082525398
 30
0.0
 40
0.4567242605854611
100
AcDbArc
 50
205.8849244575748
 51
334.115075542425
  0
ARC
  5
9627
330
18
100
AcDbEntity
  8
0
100
AcDbCircle
 10
510.904302178492
 20
726.5764919590211
 30
0.0
 40
0.1580968594334222
100
AcDbArc
 50
205.8849244575661
 51
270.0
  0
ARC
  5
9628
330
18
100
AcDbEntity
  8
0
100
AcDbCircle
 10
510.3511644148531
 20
726.308082525398
 30
0.0
 40
0.4567242605855182
100
AcDbArc
 50
25.88492445757489
 51
154.1150755424251
  0
ARC
  5
9629
330
18
100
AcDbEntity
  8
0
100
AcDbCircle
 10
509.7980266512141
 20
726.5764919590211
 30
0.0
 40
0.1580968594333001
100
AcDbArc
 50
270.0
 51
334.1150755424323
  0
LINE
  5
962A
330
18
100
AcDbEntity
  8
0
100
AcDbLine
 10
508.1273565150787
 20
724.2529262383034
 30
0.0
 11
508.9914581302165
 21
724.2529262383032
 31
0.0
  0
LINE
  5
962B
330
18
100
AcDbEntity
  8
0
100
AcDbLine
 10
509.7980266512141
 20
726.4183950995878
 30
0.0
 11
509.1104619007007
 21
726.4183950995878
 31
0.0
  0
LINE
  5
962C
330
18
100
AcDbEntity
  8
0
100
AcDbLine
 10
509.3999808408081
 20
726.0270214419608
 30
0.0
 11
509.3999808408081
 21
726.0396730917748
 31
0.0
  0
LINE
  5
962D
330
18
100
AcDbEntity
  8
0
100
AcDbLine
 10
509.5580777002416
 20
726.1977699512081
 30
0.0
 11
509.7980266512141
 21
726.1977699512081
 31
0.0
  0
ARC
  5
962E
330
18
100
AcDbEntity
  8
0
100
AcDbCircle
 10
514.327356515079
 20
724.1529262383032
 30
0.0
 40
0.5000000000000107
100
AcDbArc
 50
270.0
 51
0.0
  0
ARC
  5
962F
330
18
100
AcDbEntity
  8
0
100
AcDbCircle
 10
511.4165607025007
 20
724.9637220508814
 30
0.0
 40
0.2107958125780023
100
AcDbArc
 50
270.0
 51
0.0
  0
ARC
  5
9630
330
18
100
AcDbEntity
  8
0
100
AcDbCircle
 10
514.1273565150787
 20
723.9529262383032
 30
0.0
 40
0.3000000000000185
100
AcDbArc
 50
180.0
 51
270.0
  0
ARC
  5
9631
330
18
100
AcDbEntity
  8
0
100
AcDbCircle
 10
511.144251129465
 20
726.0396730917748
 30
0.0
 40
0.1580968594334404
100
AcDbArc
 50
0.0
 51
90.00000000002605
  0
ARC
  5
9632
330
18
100
AcDbEntity
  8
0
100
AcDbCircle
 10
511.144251129465
 20
726.5764919590211
 30
0.0
 40
0.1580968594336127
100
AcDbArc
 50
269.9999999999739
 51
0.0
  0
LINE
  5
9633
330
18
100
AcDbEntity
  8
0
100
AcDbLine
 10
514.827356515079
 20
724.1529262383034
 30
0.0
 11
514.827356515079
 21
724.8529262383033
 31
0.0
  0
LINE
  5
9634
330
18
100
AcDbEntity
  8
0
100
AcDbLine
 10
513.827356515079
 20
723.9529262383032
 30
0.0
 11
513.827356515079
 21
724.2529262383027
 31
0.0
  0
LINE
  5
9635
330
18
100
AcDbEntity
  8
0
100
AcDbLine
 10
514.1273565150787
 20
723.6529262383032
 30
0.0
 11
514.327356515079
 21
723.6529262383032
 31
0.0
  0
LINE
  5
9636
330
18
100
AcDbEntity
  8
0
100
AcDbLine
 10
511.3023479888981
 20
726.0396730917748
 30
0.0
 11
511.3023479888981
 21
726.0270214419608
 31
0.0
  0
LINE
  5
9637
330
18
100
AcDbEntity
  8
0
100
AcDbLine
 10
511.4165607025007
 20
727.7529262383033
 30
0.0
 11
508.8381523276567
 21
727.7529262383033
 31
0.0
  0
LINE
  5
9638
330
18
100
AcDbEntity
  8
0
100
AcDbLine
 10
509.1104619007007
 20
727.4112082672957
 30
0.0
 11
511.144251129465
 21
727.4112082672957
 31
0.0
  0
ARC
  5
9639
330
18
100
AcDbEntity
  8
0
100
AcDbCircle
 10
508.8381523276567
 20
727.5421304257254
 30
0.0
 40
0.2107958125779987
100
AcDbArc
 50
90.0
 51
180.0
  0
ARC
  5
963A
330
18
100
AcDbEntity
  8
0
100
AcDbCircle
 10
509.1104619007007
 20
727.2531114078621
 30
0.0
 40
0.158096859433499
100
AcDbArc
 50
90.0
 51
180.0
  0
ARC
  5
963B
330
18
100
AcDbEntity
  8
0
100
AcDbCircle
 10
511.144251129465
 20
727.2531114078621
 30
0.0
 40
0.1580968594334404
100
AcDbArc
 50
0.0
 51
90.0
  0
ARC
  5
963C
330
18
100
AcDbEntity
  8
0
100
AcDbCircle
 10
511.4165607025007
 20
727.5421304257254
 30
0.0
 40
0.2107958125779188
100
AcDbArc
 50
0.0
 51
90.0
  0
LINE
  5
963D
330
18
100
AcDbEntity
  8
0
100
AcDbLine
 10
519.2273565150791
 20
725.9529262383032
 30
0.0
 11
519.2273565150791
 21
728.1029262383031
 31
0.0
  0
ARC
  5
963E
330
18
100
AcDbEntity
  8
0
100
AcDbCircle
 10
522.7933819188634
 20
721.1529262382003
 30
0.0
 40
2.75
100
AcDbArc
 50
0.0
 51
180.0
  0
ARC
  5
963F
330
18
100
AcDbEntity
  8
0
100
AcDbCircle
 10
522.7933819188634
 20
721.1529262382003
 30
0.0
 40
2.75
100
AcDbArc
 50
0.0
 51
180.0
  0
ARC
  5
9641
330
18
100
AcDbEntity
  8
0
100
AcDbCircle
 10
518.9273565150789
 20
725.9529262383032
 30
0.0
 40
0.3000000000000007
100
AcDbArc
 50
270.0
 51
0.0
  0
LINE
  5
9642
330
18
100
AcDbEntity
  8
0
100
AcDbLine
 10
518.6273565150787
 20
725.6529262383033
 30
0.0
 11
518.9273565150789
 21
725.6529262383033
 31
0.0
  0
LINE
  5
9643
330
18
100
AcDbEntity
  8
0
100
AcDbLine
 10
518.6273565150787
 20
725.8711331695417
 30
0.0
 11
518.6273565150787
 21
725.6529262383033
 31
0.0
  0
LINE
  5
9645
330
18
100
AcDbEntity
  8
0
100
AcDbLine
 10
519.2273565150791
 20
728.1029262383031
 30
0.0
 11
519.2273565150791
 21
730.6629262383032
 31
0.0
  0
ARC
  5
9646
330
18
100
AcDbEntity
  8
0
100
AcDbCircle
 10
527.7933819188635
 20
737.1529262382003
 30
0.0
 40
2.0
100
AcDbArc
 50
255.5224878140705
 51
284.4775121859294
  0
LINE
  5
9647
330
18
100
AcDbEntity
  8
0
100
AcDbLine
 10
527.2933819188635
 20
735.2164345650966
 30
0.0
 11
527.2933819188635
 21
736.6529262382004
 31
0.0
  0
LINE
  5
9648
330
18
100
AcDbEntity
  8
0
100
AcDbLine
 10
528.2933819188635
 20
735.2164345650966
 30
0.0
 11
528.2933819188635
 21
736.6529262382004
 31
0.0
  0
LINE
  5
9649
330
18
100
AcDbEntity
  8
0
100
AcDbLine
 10
528.2933819188635
 20
736.6529262382004
 30
0.0
 11
529.7298735919672
 21
736.6529262382004
 31
0.0
  0
LINE
  5
964A
330
18
100
AcDbEntity
  8
0
100
AcDbLine
 10
525.8568902457601
 20
737.6529262382003
 30
0.0
 11
527.2933819188635
 21
737.6529262382003
 31
0.0
  0
CIRCLE
  5
964B
330
18
100
AcDbEntity
  8
0
100
AcDbCircle
 10
515.7933819188635
 20
749.6529262383021
 30
0.0
 40
3.0
  0
CIRCLE
  5
964C
330
18
100
AcDbEntity
  8
0
100
AcDbCircle
 10
515.7933819188635
 20
749.6529262383021
 30
0.0
 40
2.5
  0
CIRCLE
  5
964D
330
18
100
AcDbEntity
  8
0
100
AcDbCircle
 10
515.7933819188635
 20
749.6529262383021
 30
0.0
 40
3.0
  0
CIRCLE
  5
964E
330
18
100
AcDbEntity
  8
0
100
AcDbCircle
 10
515.7933819188635
 20
749.6529262383021
 30
0.0
 40
2.5
  0
LINE
  5
964F
330
18
100
AcDbEntity
  8
0
 48
5.0
100
AcDbLine
 10
517.2933819188634
 20
749.6529262383021
 30
0.0
 11
514.2933819188634
 21
749.6529262383021
 31
0.0
  0
MTEXT
  5
9650
330
18
100
AcDbEntity
  8
0
100
AcDbMText
 10
509.105812842493
 20
740.6111368685038
 30
0.0
 40
3.0
 41
0.0
 71
     1
 72
     5
  1
TB3
  7
MSｺﾞｼｯｸ
 73
     1
 44
1.0
  0
LINE
  5
9651
330
18
100
AcDbEntity
  8
0
 48
5.0
100
AcDbLine
 10
515.7933819188635
 20
751.1529262383021
 30
0.0
 11
515.7933819188635
 21
748.1529262383021
 31
0.0
  0
LINE
  5
9652
330
18
100
AcDbEntity
  8
0
 48
5.0
100
AcDbLine
 10
515.7933819188635
 20
751.1529262383021
 30
0.0
 11
515.7933819188635
 21
748.1529262383021
 31
0.0
  0
LINE
  5
9653
330
18
100
AcDbEntity
  8
0
100
AcDbLine
 10
528.2933819188635
 20
737.6529262382003
 30
0.0
 11
528.2933819188635
 21
739.0894179113042
 31
0.0
  0
LINE
  5
9654
330
18
100
AcDbEntity
  8
0
100
AcDbLine
 10
527.2933819188635
 20
737.6529262382003
 30
0.0
 11
527.2933819188635
 21
739.0894179113042
 31
0.0
  0
ARC
  5
9655
330
18
100
AcDbEntity
  8
0
100
AcDbCircle
 10
527.7933819188635
 20
737.1529262382003
 30
0.0
 40
2.0
100
AcDbArc
 50
75.52248781407055
 51
104.4775121859294
  0
LINE
  5
9656
330
18
100
AcDbEntity
  8
0
100
AcDbLine
 10
528.2933819188635
 20
737.6529262382003
 30
0.0
 11
529.7298735919672
 21
737.6529262382003
 31
0.0
  0
LINE
  5
9657
330
18
100
AcDbEntity
  8
0
 48
5.0
100
AcDbLine
 10
517.2933819188634
 20
783.6529262383021
 30
0.0
 11
514.2933819188634
 21
783.6529262383021
 31
0.0
  0
CIRCLE
  5
9658
330
18
100
AcDbEntity
  8
0
100
AcDbCircle
 10
515.7933819188635
 20
783.6529262383021
 30
0.0
 40
3.0
  0
CIRCLE
  5
9659
330
18
100
AcDbEntity
  8
0
100
AcDbCircle
 10
515.7933819188635
 20
783.6529262383021
 30
0.0
 40
2.5
  0
CIRCLE
  5
965A
330
18
100
AcDbEntity
  8
0
100
AcDbCircle
 10
515.7933819188635
 20
783.6529262383021
 30
0.0
 40
3.0
  0
CIRCLE
  5
965B
330
18
100
AcDbEntity
  8
0
100
AcDbCircle
 10
515.7933819188635
 20
783.6529262383021
 30
0.0
 40
2.5
  0
LINE
  5
965C
330
18
100
AcDbEntity
  8
0
 48
5.0
100
AcDbLine
 10
515.7933819188635
 20
785.1529262383021
 30
0.0
 11
515.7933819188635
 21
782.1529262383021
 31
0.0
  0
LINE
  5
965D
330
18
100
AcDbEntity
  8
0
 48
5.0
100
AcDbLine
 10
515.7933819188635
 20
785.1529262383021
 30
0.0
 11
515.7933819188635
 21
782.1529262383021
 31
0.0
  0
HATCH
  5
965E
330
18
100
AcDbEntity
  8
0
100
AcDbHatch
 10
0.0
 20
0.0
 30
0.0
210
0.0
220
0.0
230
1.0
  2
SOLID
 70
     1
 71
     0
 91
        2
 92
        7
 72
     0
 73
     1
 93
        3
 10
521.2933819188639
 20
881.8850014085191
 10
519.2933828513643
 20
878.420901408519
 10
523.2933809863635
 20
878.420901408519
 97
        0
 92
        7
 72
     0
 73
     1
 93
        3
 10
532.2933819188639
 20
878.4209024852769
 10
534.2933809863636
 20
881.8850024852771
 10
530.2933828513642
 20
881.8850024852771
 97
        0
 75
     0
 76
     1
 47
0.0188367729183999
 98
        2
 10
521.6548592557179
 20
879.9870416850893
 10
531.9810555184245
 20
880.3637770639692
  0
HATCH
  5
965F
330
18
100
AcDbEntity
  8
0
100
AcDbHatch
 10
0.0
 20
0.0
 30
0.0
210
0.0
220
0.0
230
1.0
  2
SOLID
 70
     1
 71
     0
 91
        6
 92
        7
 72
     1
 73
     1
 93
        8
 10
535.2933819188634
 20
884.1529514085189
 42
0.0
 10
529.2933819188634
 20
884.1529514085189
 42
0.4142135623730951
 10
528.2933819188635
 20
883.152951408519
 42
0.0
 10
528.2933819188635
 20
877.1529514085189
 42
0.4142135623730951
 10
529.2933819188634
 20
876.1529514085189
 42
0.0
 10
535.2933819188634
 20
876.1529514085189
 42
0.4142135623730951
 10
536.2933819188635
 20
877.1529514085189
 42
0.0
 10
536.2933819188635
 20
883.152951408519
 42
0.4142135623730951
 97
        0
 92
       22
 72
     1
 73
     1
 93
        8
 10
535.2933819188634
 20
883.652951408519
 42
-0.4142135623730951
 10
535.7933819188635
 20
883.152951408519
 42
0.0
 10
535.7933819188635
 20
877.1529514085189
 42
-0.4142135623730951
 10
535.2933819188634
 20
876.652951408519
 42
0.0
 10
529.2933819188634
 20
876.652951408519
 42
-0.4142135623730951
 10
528.7933819188634
 20
877.1529514085189
 42
0.0
 10
528.7933819188634
 20
883.152951408519
 42
-0.4142135623730951
 10
529.2933819188634
 20
883.652951408519
 42
0.0
 97
        0
 92
        6
 72
     0
 73
     1
 93
        3
 10
530.2933828513642
 20
881.8850024852773
 10
534.2933809863636
 20
881.8850024852771
 10
532.2933819188639
 20
878.4209024852769
 97
        0
 92
        7
 72
     1
 73
     1
 93
        8
 10
524.2933819188634
 20
884.1529514085189
 42
0.0
 10
518.2933819188634
 20
884.1529514085189
 42
0.4142135623730951
 10
517.2933819188634
 20
883.152951408519
 42
0.0
 10
517.2933819188634
 20
877.1529514085189
 42
0.4142135623730951
 10
518.2933819188634
 20
876.1529514085189
 42
0.0
 10
524.2933819188634
 20
876.1529514085189
 42
0.4142135623730951
 10
525.2933819188634
 20
877.1529514085189
 42
0.0
 10
525.2933819188634
 20
883.152951408519
 42
0.4142135623730951
 97
        0
 92
       22
 72
     1
 73
     1
 93
        8
 10
524.2933819188634
 20
883.652951408519
 42
-0.4142135623730951
 10
524.7933819188634
 20
883.152951408519
 42
0.0
 10
524.7933819188634
 20
877.1529514085189
 42
-0.4142135623730951
 10
524.2933819188634
 20
876.652951408519
 42
0.0
 10
518.2933819188634
 20
876.652951408519
 42
-0.4142135623730951
 10
517.7933819188634
 20
877.1529514085189
 42
0.0
 10
517.7933819188634
 20
883.152951408519
 42
-0.4142135623730951
 10
518.2933819188634
 20
883.652951408519
 42
0.0
 97
        0
 92
        6
 72
     0
 73
     1
 93
        3
 10
521.2933819188639
 20
881.8850014085189
 10
523.293380986364
 20
878.4209014085186
 10
519.2933828513638
 20
878.420901408519
 97
        0
 75
     0
 76
     1
 47
0.0188367729183999
 98
        6
 10
529.9648090128345
 20
883.8674211787951
 10
529.9648090128345
 20
883.8674211787951
 10
529.9648090128345
 20
883.8674211787951
 10
522.5405006411343
 20
883.8674211787951
 10
522.5405006411343
 20
883.8674211787951
 10
522.5405006411343
 20
883.8674211787951
  0
ARC
  5
9660
330
18
100
AcDbEntity
  8
0
100
AcDbCircle
 10
511.7933819188634
 20
870.4029262382004
 30
0.0
 40
2.0
100
AcDbArc
 50
180.0
 51
270.0
  0
LWPOLYLINE
  5
9661
330
18
100
AcDbEntity
  8
0
100
AcDbPolyline
 90
        8
 70
     1
 43
0.0
 10
524.7933819188634
 20
883.152951408519
 10
524.7933819188634
 20
877.1529514085189
 42
-0.4142135623730951
 10
524.2933819188634
 20
876.652951408519
 10
518.2933819188634
 20
876.652951408519
 42
-0.4142135623730951
 10
517.7933819188634
 20
877.1529514085189
 10
517.7933819188634
 20
883.152951408519
 42
-0.4142135623730951
 10
518.2933819188634
 20
883.652951408519
 10
524.2933819188634
 20
883.652951408519
 42
-0.4142135623730951
  0
LWPOLYLINE
  5
9662
330
18
100
AcDbEntity
  8
0
100
AcDbPolyline
 90
        8
 70
     1
 43
0.0
 10
525.2933819188634
 20
883.152951408519
 10
525.2933819188634
 20
877.1529514085189
 42
-0.4142135623730951
 10
524.2933819188634
 20
876.1529514085189
 10
518.2933819188634
 20
876.1529514085189
 42
-0.4142135623730951
 10
517.2933819188634
 20
877.1529514085189
 10
517.2933819188634
 20
883.152951408519
 42
-0.4142135623730951
 10
518.2933819188634
 20
884.1529514085189
 10
524.2933819188634
 20
884.1529514085189
 42
-0.4142135623730951
  0
LWPOLYLINE
  5
9663
330
18
100
AcDbEntity
  8
0
100
AcDbPolyline
 90
        3
 70
     1
 43
0.0
 10
521.2933819188639
 20
881.8850014085191
 10
519.2933828513643
 20
878.420901408519
 10
523.2933809863635
 20
878.420901408519
  0
LWPOLYLINE
  5
9664
330
18
100
AcDbEntity
  8
0
100
AcDbPolyline
 90
        8
 70
     1
 43
0.0
 10
535.7933819188635
 20
883.152951408519
 10
535.7933819188635
 20
877.1529514085189
 42
-0.4142135623730951
 10
535.2933819188634
 20
876.652951408519
 10
529.2933819188634
 20
876.652951408519
 42
-0.4142135623730951
 10
528.7933819188634
 20
877.1529514085189
 10
528.7933819188634
 20
883.152951408519
 42
-0.4142135623730951
 10
529.2933819188634
 20
883.652951408519
 10
535.2933819188634
 20
883.652951408519
 42
-0.4142135623730951
  0
LWPOLYLINE
  5
9665
330
18
100
AcDbEntity
  8
0
100
AcDbPolyline
 90
        8
 70
     1
 43
0.0
 10
536.2933819188635
 20
883.152951408519
 10
536.2933819188635
 20
877.1529514085189
 42
-0.4142135623730951
 10
535.2933819188634
 20
876.1529514085189
 10
529.2933819188634
 20
876.1529514085189
 42
-0.4142135623730951
 10
528.2933819188635
 20
877.1529514085189
 10
528.2933819188635
 20
883.152951408519
 42
-0.4142135623730951
 10
529.2933819188634
 20
884.1529514085189
 10
535.2933819188634
 20
884.1529514085189
 42
-0.4142135623730951
  0
LWPOLYLINE
  5
9666
330
18
100
AcDbEntity
  8
0
100
AcDbPolyline
 90
        3
 70
     1
 43
0.0
 10
532.2933819188639
 20
878.4209024852769
 10
530.2933828513642
 20
881.8850024852771
 10
534.2933809863636
 20
881.8850024852771
  0
LWPOLYLINE
  5
9667
330
18
100
AcDbEntity
  8
0
100
AcDbPolyline
 90
        8
 70
     1
 43
0.0
 10
546.7933819188634
 20
883.152951408519
 10
546.7933819188634
 20
877.1529514085189
 42
-0.4142135623730951
 10
546.2933819188634
 20
876.652951408519
 10
540.2933819188635
 20
876.652951408519
 42
-0.4142135623730951
 10
539.7933819188635
 20
877.1529514085189
 10
539.7933819188635
 20
883.152951408519
 42
-0.4142135623730951
 10
540.2933819188635
 20
883.652951408519
 10
546.2933819188634
 20
883.652951408519
 42
-0.4142135623730951
  0
TEXT
  5
9668
330
18
100
AcDbEntity
  8
0
100
AcDbText
 10
540.3975101880783
 20
881.1866546489447
 30
0.0
 40
1.5
  1
MOD
  7
MSｺﾞｼｯｸ
100
AcDbText
  0
LWPOLYLINE
  5
9669
330
18
100
AcDbEntity
  8
0
100
AcDbPolyline
 90
        4
 70
     1
 43
0.0
 10
545.2256115548717
 20
880.9673655612302
 10
541.4259104864473
 20
878.7355228169429
 10
541.2992935377611
 20
878.9510875364713
 10
545.098994606185
 20
881.1829302807586
  0
LWPOLYLINE
  5
966A
330
18
100
AcDbEntity
  8
0
100
AcDbPolyline
 90
        3
 70
     1
 43
0.0
 10
544.3020507361735
 20
877.3703280754027
 10
546.0341015437421
 20
878.3703280754027
 10
544.3020507361735
 20
879.3703280754026
  0
LINE
  5
966B
330
18
100
AcDbEntity
  8
0
100
AcDbLine
 10
645.7933819188634
 20
778.8639029288812
 30
0.0
 11
645.7933819188634
 21
731.1529262382006
 31
0.0
  0
CIRCLE
  5
966C
330
18
100
AcDbEntity
  8
0
100
AcDbCircle
 10
597.7933819188635
 20
737.1529262382003
 30
0.0
 40
3.0
  0
CIRCLE
  5
966D
330
18
100
AcDbEntity
  8
0
100
AcDbCircle
 10
597.7933819188635
 20
737.1529262382003
 30
0.0
 40
2.5
  0
ARC
  5
966E
330
18
100
AcDbEntity
  8
0
100
AcDbCircle
 10
597.7933819188635
 20
737.1529262382003
 30
0.0
 40
2.0
100
AcDbArc
 50
165.5224878140697
 51
194.4775121859302
  0
ARC
  5
966F
330
18
100
AcDbEntity
  8
0
100
AcDbCircle
 10
597.7933819188635
 20
737.1529262382003
 30
0.0
 40
2.0
100
AcDbArc
 50
345.5224878140697
 51
14.47751218593027
  0
LINE
  5
9672
330
18
100
AcDbEntity
  8
0
100
AcDbLine
 10
645.7933819188634
 20
731.1529262382006
 30
0.0
 11
622.7933819188635
 21
731.1529262382006
 31
0.0
  0
ARC
  5
9673
330
18
100
AcDbEntity
  8
0
100
AcDbCircle
 10
586.7933819188634
 20
716.1529262382003
 30
0.0
 40
6.0
100
AcDbArc
 50
0.0
 51
180.0
  0
ARC
  5
9674
330
18
100
AcDbEntity
  8
0
100
AcDbCircle
 10
586.7933819188634
 20
716.1529262382003
 30
0.0
 40
6.0
100
AcDbArc
 50
0.0
 51
180.0
  0
LINE
  5
9675
330
18
100
AcDbEntity
  8
0
100
AcDbLine
 10
610.0433819188634
 20
716.1529262382003
 30
0.0
 11
592.7933819188634
 21
716.1529262382003
 31
0.0
  0
LINE
  5
9676
330
18
100
AcDbEntity
  8
0
100
AcDbLine
 10
610.0433819188634
 20
716.1529262382003
 30
0.0
 11
592.7933819188634
 21
716.1529262382003
 31
0.0
  0
LINE
  5
9677
330
18
100
AcDbEntity
  8
0
100
AcDbLine
 10
598.2933819188635
 20
736.6529262382004
 30
0.0
 11
599.7298735919672
 21
736.6529262382004
 31
0.0
  0
LINE
  5
9678
330
18
100
AcDbEntity
  8
0
100
AcDbLine
 10
595.8568902457601
 20
736.6529262382004
 30
0.0
 11
597.2933819188634
 21
736.6529262382004
 31
0.0
  0
ARC
  5
9679
330
18
100
AcDbEntity
  8
0
100
AcDbCircle
 10
597.7933819188635
 20
737.1529262382003
 30
0.0
 40
2.0
100
AcDbArc
 50
255.5224878140705
 51
284.4775121859294
  0
LINE
  5
967A
330
18
100
AcDbEntity
  8
0
100
AcDbLine
 10
597.2933819188634
 20
735.2164345650966
 30
0.0
 11
597.2933819188634
 21
736.6529262382004
 31
0.0
  0
LINE
  5
967B
330
18
100
AcDbEntity
  8
0
100
AcDbLine
 10
598.2933819188635
 20
735.2164345650966
 30
0.0
 11
598.2933819188635
 21
736.6529262382004
 31
0.0
  0
LINE
  5
967C
330
18
100
AcDbEntity
  8
0
100
AcDbLine
 10
615.5433819188634
 20
721.1529262382003
 30
0.0
 11
615.5433819188634
 21
716.1529262382003
 31
0.0
  0
LINE
  5
967D
330
18
100
AcDbEntity
  8
0
100
AcDbLine
 10
610.0433819188634
 20
721.1529262382003
 30
0.0
 11
610.0433819188634
 21
716.1529262382003
 31
0.0
  0
LINE
  5
967E
330
18
100
AcDbEntity
  8
0
100
AcDbLine
 10
615.5433819188634
 20
721.1529262382003
 30
0.0
 11
615.5433819188634
 21
716.1529262382003
 31
0.0
  0
LINE
  5
967F
330
18
100
AcDbEntity
  8
0
100
AcDbLine
 10
610.0433819188634
 20
721.1529262382003
 30
0.0
 11
610.0433819188634
 21
716.1529262382003
 31
0.0
  0
LINE
  5
9680
330
18
100
AcDbEntity
  8
0
100
AcDbLine
 10
622.7933819188635
 20
716.1529262382003
 30
0.0
 11
615.5433819188634
 21
716.1529262382003
 31
0.0
  0
LINE
  5
9681
330
18
100
AcDbEntity
  8
0
100
AcDbLine
 10
622.7933819188635
 20
716.1529262382003
 30
0.0
 11
615.5433819188634
 21
716.1529262382003
 31
0.0
  0
ARC
  5
9682
330
18
100
AcDbEntity
  8
0
100
AcDbCircle
 10
612.7933819188634
 20
721.1529262382003
 30
0.0
 40
2.75
100
AcDbArc
 50
0.0
 51
180.0
  0
ARC
  5
9683
330
18
100
AcDbEntity
  8
0
100
AcDbCircle
 10
612.7933819188634
 20
721.1529262382003
 30
0.0
 40
2.75
100
AcDbArc
 50
0.0
 51
180.0
  0
LINE
  5
9686
330
18
100
AcDbEntity
  8
0
100
AcDbLine
 10
644.7933819188639
 20
848.1529262381995
 30
0.0
 11
622.7933819188625
 21
848.1529262381998
 31
0.0
  0
LINE
  5
9687
330
18
100
AcDbEntity
  8
0
100
AcDbLine
 10
644.7933819188639
 20
757.1529262382006
 30
0.0
 11
622.7933819188629
 21
757.1529262382008
 31
0.0
  0
LINE
  5
9688
330
18
100
AcDbEntity
  8
0
100
AcDbLine
 10
623.293381918863
 20
848.1529262382004
 30
0.0
 11
623.2933819188625
 21
757.1529262382006
 31
0.0
  0
LINE
  5
9689
330
18
100
AcDbEntity
  8
0
100
AcDbLine
 10
624.293381918863
 20
848.1529262382004
 30
0.0
 11
624.2933819188626
 21
757.1529262382006
 31
0.0
  0
LINE
  5
968A
330
18
100
AcDbEntity
  8
0
100
AcDbLine
 10
629.2933819188634
 20
848.1529262381998
 30
0.0
 11
629.2933819188639
 21
757.1529262382008
 31
0.0
  0
LINE
  5
968B
330
18
100
AcDbEntity
  8
0
100
AcDbLine
 10
586.7933819188634
 20
768.1529262382004
 30
0.0
 11
586.7933819188634
 21
861.1529262382005
 31
0.0
  0
LINE
  5
968C
330
18
100
AcDbEntity
  8
0
100
AcDbLine
 10
585.3933819188638
 20
768.1529262382004
 30
0.0
 11
585.3933819188633
 21
861.1529262382005
 31
0.0
  0
LINE
  5
968D
330
18
100
AcDbEntity
  8
0
100
AcDbLine
 10
607.4683819188636
 20
830.6529262382003
 30
0.0
 11
607.4683819188636
 21
797.3279262382003
 31
0.0
  0
LINE
  5
968E
330
18
100
AcDbEntity
  8
0
100
AcDbLine
 10
616.6933819188635
 20
797.3279262382003
 30
0.0
 11
616.6933819188635
 21
830.6529262382003
 31
0.0
  0
LINE
  5
968F
330
18
100
AcDbEntity
  8
0
100
AcDbLine
 10
609.0183819188638
 20
822.1779262382005
 30
0.0
 11
609.0183819188638
 21
806.0779262382004
 31
0.0
  0
LWPOLYLINE
  5
9690
330
18
100
AcDbEntity
  8
0
100
AcDbPolyline
 90
        4
 70
     1
 43
0.0
 10
613.9683819188636
 20
821.3279262382004
 10
610.2683819188638
 20
821.3279262382004
 10
610.2683819188638
 20
807.1779262382005
 10
613.9683819188636
 20
807.1779262382005
  0
LINE
  5
9691
330
18
100
AcDbEntity
  8
0
100
AcDbLine
 10
615.1433819188638
 20
807.1279262382002
 30
0.0
 11
615.1433819188638
 21
821.2529262382002
 31
0.0
  0
LINE
  5
9692
330
18
100
AcDbEntity
  8
0
100
AcDbLine
 10
613.2683819188638
 20
815.2029262382002
 30
0.0
 11
613.2683819188638
 21
814.2279262382004
 31
0.0
  0
LINE
  5
9693
330
18
100
AcDbEntity
  8
0
100
AcDbLine
 10
613.6183819188633
 20
814.2279262382004
 30
0.0
 11
613.6183819188633
 21
815.2029262382002
 31
0.0
  0
LINE
  5
9694
330
18
100
AcDbEntity
  8
0
100
AcDbLine
 10
610.4933819188633
 20
815.2029262382002
 30
0.0
 11
610.4933819188633
 21
814.2279262382004
 31
0.0
  0
LINE
  5
9695
330
18
100
AcDbEntity
  8
0
100
AcDbLine
 10
610.8433819188636
 20
814.2279262382004
 30
0.0
 11
610.8433819188636
 21
815.2029262382002
 31
0.0
  0
LINE
  5
9696
330
18
100
AcDbEntity
  8
0
100
AcDbLine
 10
561.7933819188634
 20
768.1529262382004
 30
0.0
 11
561.7933819188634
 21
861.1529262382005
 31
0.0
  0
LINE
  5
9697
330
18
100
AcDbEntity
  8
0
100
AcDbLine
 10
583.7933819188639
 20
768.1529262382004
 30
0.0
 11
583.7933819188639
 21
861.1529262382005
 31
0.0
  0
LINE
  5
9698
330
18
100
AcDbEntity
  8
0
100
AcDbLine
 10
562.7933819188639
 20
813.6529262382003
 30
0.0
 11
562.7933819188639
 21
815.6529262382004
 31
0.0
  0
LINE
  5
9699
330
18
100
AcDbEntity
  8
0
100
AcDbLine
 10
583.7933819188634
 20
813.6529262382003
 30
0.0
 11
583.7933819188634
 21
815.6529262382004
 31
0.0
  0
LINE
  5
969A
330
18
100
AcDbEntity
  8
0
100
AcDbLine
 10
619.2933819188635
 20
750.6529262382009
 30
0.0
 11
619.2933819188635
 21
891.6529262382006
 31
0.0
  0
LINE
  5
969B
330
18
100
AcDbEntity
  8
0
100
AcDbLine
 10
617.793381918863
 20
891.6529262382006
 30
0.0
 11
617.7933819188634
 21
750.6529262382009
 31
0.0
  0
LINE
  5
969C
330
18
100
AcDbEntity
  8
0
100
AcDbLine
 10
604.2933819188625
 20
829.1529262382004
 30
0.0
 11
604.2933819188634
 21
750.6529262382009
 31
0.0
  0
CIRCLE
  5
969D
330
18
100
AcDbEntity
  8
0
100
AcDbCircle
 10
589.8933819188633
 20
762.1529262382003
 30
0.0
 40
4.0
  0
CIRCLE
  5
969E
330
18
100
AcDbEntity
  8
0
100
AcDbCircle
 10
589.8933819188633
 20
762.1529262382003
 30
0.0
 40
3.333333333333333
  0
LINE
  5
969F
330
18
100
AcDbEntity
  8
0
100
AcDbLine
 10
587.3113930213922
 20
762.8195929048671
 30
0.0
 11
589.2267152521968
 21
762.8195929048671
 31
0.0
  0
LINE
  5
96A0
330
18
100
AcDbEntity
  8
0
100
AcDbLine
 10
587.3113930213922
 20
761.4862595715337
 30
0.0
 11
589.2267152521968
 21
761.4862595715337
 31
0.0
  0
LINE
  5
96A1
330
18
100
AcDbEntity
  8
0
100
AcDbLine
 10
587.3113930213922
 20
750.8195929048671
 30
0.0
 11
589.2267152521968
 21
750.8195929048671
 31
0.0
  0
LINE
  5
96A2
330
18
100
AcDbEntity
  8
0
100
AcDbLine
 10
587.3113930213922
 20
749.4862595715336
 30
0.0
 11
589.2267152521968
 21
749.4862595715336
 31
0.0
  0
CIRCLE
  5
96A3
330
18
100
AcDbEntity
  8
0
100
AcDbCircle
 10
589.8933819188633
 20
750.1529262382003
 30
0.0
 40
4.0
  0
CIRCLE
  5
96A4
330
18
100
AcDbEntity
  8
0
100
AcDbCircle
 10
589.8933819188633
 20
750.1529262382003
 30
0.0
 40
3.333333333333333
  0
LINE
  5
96A5
330
18
100
AcDbEntity
  8
0
100
AcDbLine
 10
565.2933819188635
 20
771.6529262382004
 30
0.0
 11
565.2933819188639
 21
780.6529262382004
 31
0.0
  0
LINE
  5
96A6
330
18
100
AcDbEntity
  8
0
100
AcDbLine
 10
581.2933819188635
 20
771.6529262382004
 30
0.0
 11
581.2933819188635
 21
780.6529262382004
 31
0.0
  0
CIRCLE
  5
96A7
330
18
100
AcDbEntity
  8
0
100
AcDbCircle
 10
573.2933819188635
 20
776.1529262382
 30
0.0
 40
4.0
  0
TEXT
  5
96A8
330
18
100
AcDbEntity
  8
0
 48
5.0
100
AcDbText
 10
555.8415599786927
 20
773.7631291753765
 30
0.0
 40
5.0
  1
W
 41
1.199999999999999
  7
MSｺﾞｼｯｸ
 11
555.8415599786927
 21
776.2631291753765
 31
0.0
100
AcDbText
 73
     2
  0
LINE
  5
96A9
330
18
100
AcDbEntity
  8
0
100
AcDbLine
 10
562.7933819188634
 20
771.6529262382004
 30
0.0
 11
583.7933819188634
 21
771.6529262382004
 31
0.0
  0
LINE
  5
96AA
330
18
100
AcDbEntity
  8
0
100
AcDbLine
 10
562.7933819188634
 20
769.6529262382004
 30
0.0
 11
583.7933819188634
 21
769.6529262382004
 31
0.0
  0
LINE
  5
96AB
330
18
100
AcDbEntity
  8
0
100
AcDbLine
 10
565.2933819188598
 20
769.3529262382006
 30
0.0
 11
581.2933819188598
 21
769.3529262382002
 31
0.0
  0
LINE
  5
96AC
330
18
100
AcDbEntity
  8
0
100
AcDbLine
 10
586.7933819188634
 20
768.1529262382004
 30
0.0
 11
561.7933819188634
 21
768.1529262382004
 31
0.0
  0
LINE
  5
96AD
330
18
100
AcDbEntity
  8
0
100
AcDbLine
 10
565.2933819188635
 20
769.3529262382006
 30
0.0
 11
565.2933819188635
 21
769.6529262382004
 31
0.0
  0
LINE
  5
96AE
330
18
100
AcDbEntity
  8
0
100
AcDbLine
 10
562.7933819188639
 20
769.6529262382004
 30
0.0
 11
562.7933819188639
 21
771.6529262382004
 31
0.0
  0
ARC
  5
96AF
330
18
100
AcDbEntity
  8
0
100
AcDbCircle
 10
589.8933819188633
 20
750.1529262382003
 30
0.0
 40
2.666666666666666
100
AcDbArc
 50
165.5224878140697
 51
194.4775121859302
  0
ARC
  5
96B0
330
18
100
AcDbEntity
  8
0
100
AcDbCircle
 10
589.8933819188633
 20
762.1529262382003
 30
0.0
 40
2.666666666666666
100
AcDbArc
 50
165.5224878140697
 51
194.4775121859302
  0
LINE
  5
96B1
330
18
100
AcDbEntity
  8
0
100
AcDbLine
 10
583.7933819188639
 20
774.1529262382004
 30
0.0
 11
581.2933819188635
 21
774.1529262382004
 31
0.0
  0
LINE
  5
96B2
330
18
100
AcDbEntity
  8
0
100
AcDbLine
 10
581.2933819188635
 20
769.3529262382002
 30
0.0
 11
581.2933819188635
 21
769.6529262382004
 31
0.0
  0
ARC
  5
96B3
330
18
100
AcDbEntity
  8
0
100
AcDbCircle
 10
586.2933819188635
 20
776.1529262382
 30
0.0
 40
1.0
100
AcDbArc
 50
270.0
 51
300.0000000000005
  0
LINE
  5
96B4
330
18
100
AcDbEntity
  8
0
100
AcDbLine
 10
585.3933819188642
 20
775.1529262382003
 30
0.0
 11
586.2933819188635
 21
775.1529262382003
 31
0.0
  0
LINE
  5
96B5
330
18
100
AcDbEntity
  8
0
100
AcDbLine
 10
583.7933819188639
 20
775.1529262382003
 30
0.0
 11
583.7933819188639
 21
774.1529262382004
 31
0.0
  0
LINE
  5
96B6
330
18
100
AcDbEntity
  8
0
100
AcDbLine
 10
583.7933819188634
 20
769.6529262382004
 30
0.0
 11
583.7933819188634
 21
771.6529262382004
 31
0.0
  0
LINE
  5
96B7
330
18
100
AcDbEntity
  8
0
100
AcDbLine
 10
562.7933819188634
 20
793.6529262382004
 30
0.0
 11
583.7933819188634
 21
793.6529262382004
 31
0.0
  0
LINE
  5
96B8
330
18
100
AcDbEntity
  8
0
100
AcDbLine
 10
562.7933819188634
 20
791.6529262382003
 30
0.0
 11
583.7933819188634
 21
791.6529262382003
 31
0.0
  0
LINE
  5
96B9
330
18
100
AcDbEntity
  8
0
100
AcDbLine
 10
562.7933819188634
 20
813.6529262382003
 30
0.0
 11
583.7933819188634
 21
813.6529262382003
 31
0.0
  0
LINE
  5
96BA
330
18
100
AcDbEntity
  8
0
100
AcDbLine
 10
562.7933819188634
 20
802.6529262382004
 30
0.0
 11
583.7933819188634
 21
802.6529262382004
 31
0.0
  0
LINE
  5
96BB
330
18
100
AcDbEntity
  8
0
100
AcDbLine
 10
562.7933819188634
 20
804.6529262382003
 30
0.0
 11
583.7933819188634
 21
804.6529262382003
 31
0.0
  0
LINE
  5
96BC
330
18
100
AcDbEntity
  8
0
100
AcDbLine
 10
562.7933819188634
 20
782.6529262382003
 30
0.0
 11
583.7933819188634
 21
782.6529262382003
 31
0.0
  0
LINE
  5
96BD
330
18
100
AcDbEntity
  8
0
100
AcDbLine
 10
562.7933819188634
 20
780.6529262382004
 30
0.0
 11
583.7933819188634
 21
780.6529262382004
 31
0.0
  0
LINE
  5
96BE
330
18
100
AcDbEntity
  8
0
100
AcDbLine
 10
565.2933819188639
 20
793.6529262382008
 30
0.0
 11
565.2933819188639
 21
802.6529262382004
 31
0.0
  0
TEXT
  5
96BF
330
18
100
AcDbEntity
  8
0
 48
5.0
100
AcDbText
 10
555.8415599786927
 20
795.7631291753765
 30
0.0
 40
5.0
  1
U
 41
1.199999999999999
  7
MSｺﾞｼｯｸ
 11
555.8415599786927
 21
798.2631291753765
 31
0.0
100
AcDbText
 73
     2
  0
TEXT
  5
96C0
330
18
100
AcDbEntity
  8
0
 48
5.0
100
AcDbText
 10
555.8415599786927
 20
784.7631291753765
 30
0.0
 40
5.0
  1
V
 41
1.199999999999999
  7
MSｺﾞｼｯｸ
 11
555.8415599786927
 21
787.2631291753765
 31
0.0
100
AcDbText
 73
     2
  0
LINE
  5
96C1
330
18
100
AcDbEntity
  8
0
100
AcDbLine
 10
565.2933819188639
 20
782.6529262382003
 30
0.0
 11
565.2933819188639
 21
791.6529262382003
 31
0.0
  0
LINE
  5
96C2
330
18
100
AcDbEntity
  8
0
100
AcDbLine
 10
562.7933819188639
 20
780.6529262382004
 30
0.0
 11
562.7933819188639
 21
782.6529262382003
 31
0.0
  0
LINE
  5
96C3
330
18
100
AcDbEntity
  8
0
100
AcDbLine
 10
562.7933819188639
 20
791.6529262382003
 30
0.0
 11
562.7933819188639
 21
793.6529262382004
 31
0.0
  0
TEXT
  5
96C4
330
18
100
AcDbEntity
  8
0
 48
5.0
100
AcDbText
 10
553.8615195715193
 20
806.7631291753766
 30
0.0
 40
5.0
  1
B2
 41
1.199999999999999
  7
MSｺﾞｼｯｸ
 11
553.8615195715193
 21
809.2631291753765
 31
0.0
100
AcDbText
 73
     2
  0
LINE
  5
96C5
330
18
100
AcDbEntity
  8
0
100
AcDbLine
 10
565.2933819188639
 20
804.6529262382003
 30
0.0
 11
565.2933819188639
 21
813.6529262382003
 31
0.0
  0
LINE
  5
96C6
330
18
100
AcDbEntity
  8
0
100
AcDbLine
 10
562.7933819188639
 20
802.6529262382004
 30
0.0
 11
562.7933819188639
 21
804.6529262382003
 31
0.0
  0
LINE
  5
96C7
330
18
100
AcDbEntity
  8
0
100
AcDbLine
 10
581.2933819188639
 20
793.6529262382004
 30
0.0
 11
581.2933819188639
 21
802.6529262382004
 31
0.0
  0
CIRCLE
  5
96C8
330
18
100
AcDbEntity
  8
0
100
AcDbCircle
 10
573.2933819188635
 20
798.1529262382
 30
0.0
 40
4.0
  0
CIRCLE
  5
96C9
330
18
100
AcDbEntity
  8
0
100
AcDbCircle
 10
573.2933819188635
 20
787.1529262382
 30
0.0
 40
4.0
  0
LINE
  5
96CA
330
18
100
AcDbEntity
  8
0
100
AcDbLine
 10
583.7933819188639
 20
786.1529262382004
 30
0.0
 11
583.7933819188639
 21
785.1529262382004
 31
0.0
  0
LINE
  5
96CB
330
18
100
AcDbEntity
  8
0
100
AcDbLine
 10
581.2933819188635
 20
782.6529262382003
 30
0.0
 11
581.2933819188639
 21
791.6529262382003
 31
0.0
  0
LINE
  5
96CC
330
18
100
AcDbEntity
  8
0
100
AcDbLine
 10
583.7933819188639
 20
785.1529262382004
 30
0.0
 11
581.2933819188635
 21
785.1529262382004
 31
0.0
  0
LINE
  5
96CD
330
18
100
AcDbEntity
  8
0
100
AcDbLine
 10
583.7933819188639
 20
778.1529262382004
 30
0.0
 11
581.2933819188635
 21
778.1529262382008
 31
0.0
  0
LINE
  5
96CE
330
18
100
AcDbEntity
  8
0
100
AcDbLine
 10
585.3933819188642
 20
777.1529262382005
 30
0.0
 11
586.2933819188635
 21
777.1529262382004
 31
0.0
  0
ARC
  5
96CF
330
18
100
AcDbEntity
  8
0
100
AcDbCircle
 10
586.2933819188635
 20
776.1529262382
 30
0.0
 40
1.0
100
AcDbArc
 50
59.99999999999946
 51
90.0
  0
LINE
  5
96D0
330
18
100
AcDbEntity
  8
0
100
AcDbLine
 10
583.7933819188634
 20
778.1529262382004
 30
0.0
 11
583.7933819188639
 21
777.1529262382004
 31
0.0
  0
LINE
  5
96D1
330
18
100
AcDbEntity
  8
0
100
AcDbLine
 10
583.7933819188634
 20
780.6529262382004
 30
0.0
 11
583.7933819188634
 21
782.6529262382003
 31
0.0
  0
LINE
  5
96D2
330
18
100
AcDbEntity
  8
0
100
AcDbLine
 10
583.7933819188639
 20
789.1529262382004
 30
0.0
 11
581.2933819188635
 21
789.1529262382008
 31
0.0
  0
LINE
  5
96D3
330
18
100
AcDbEntity
  8
0
100
AcDbLine
 10
585.3933819188642
 20
788.1529262382005
 30
0.0
 11
586.2933819188635
 21
788.1529262382003
 31
0.0
  0
LINE
  5
96D4
330
18
100
AcDbEntity
  8
0
100
AcDbLine
 10
585.3933819188642
 20
786.1529262382004
 30
0.0
 11
586.2933819188635
 21
786.1529262382004
 31
0.0
  0
ARC
  5
96D5
330
18
100
AcDbEntity
  8
0
100
AcDbCircle
 10
586.2933819188635
 20
787.1529262382
 30
0.0
 40
1.0
100
AcDbArc
 50
270.0
 51
300.0000000000005
  0
ARC
  5
96D6
330
18
100
AcDbEntity
  8
0
100
AcDbCircle
 10
586.2933819188635
 20
787.1529262382
 30
0.0
 40
1.0
100
AcDbArc
 50
59.99999999999946
 51
90.0
  0
LINE
  5
96D7
330
18
100
AcDbEntity
  8
0
100
AcDbLine
 10
583.7933819188634
 20
789.1529262382004
 30
0.0
 11
583.7933819188639
 21
788.1529262382003
 31
0.0
  0
LINE
  5
96D8
330
18
100
AcDbEntity
  8
0
100
AcDbLine
 10
583.7933819188634
 20
791.6529262382003
 30
0.0
 11
583.7933819188634
 21
793.6529262382004
 31
0.0
  0
CIRCLE
  5
96D9
330
18
100
AcDbEntity
  8
0
100
AcDbCircle
 10
573.2933819188635
 20
809.1529262382
 30
0.0
 40
4.0
  0
LINE
  5
96DA
330
18
100
AcDbEntity
  8
0
100
AcDbLine
 10
581.2933819188639
 20
804.6529262382003
 30
0.0
 11
581.2933819188639
 21
813.6529262382003
 31
0.0
  0
LINE
  5
96DB
330
18
100
AcDbEntity
  8
0
100
AcDbLine
 10
583.7933819188639
 20
796.1529262382003
 30
0.0
 11
581.2933819188635
 21
796.1529262382003
 31
0.0
  0
LINE
  5
96DC
330
18
100
AcDbEntity
  8
0
100
AcDbLine
 10
583.7933819188639
 20
800.1529262382003
 30
0.0
 11
581.2933819188635
 21
800.1529262382009
 31
0.0
  0
LINE
  5
96DD
330
18
100
AcDbEntity
  8
0
100
AcDbLine
 10
583.7933819188639
 20
796.1529262382003
 30
0.0
 11
581.2933819188639
 21
796.1529262382003
 31
0.0
  0
LINE
  5
96DE
330
18
100
AcDbEntity
  8
0
100
AcDbLine
 10
583.7933819188639
 20
800.1529262382003
 30
0.0
 11
581.2933819188639
 21
800.1529262382003
 31
0.0
  0
ARC
  5
96DF
330
18
100
AcDbEntity
  8
0
100
AcDbCircle
 10
586.2933819188635
 20
798.1529262382
 30
0.0
 40
1.0
100
AcDbArc
 50
270.0
 51
300.0000000000005
  0
LINE
  5
96E0
330
18
100
AcDbEntity
  8
0
100
AcDbLine
 10
585.3933819188633
 20
797.1529262382004
 30
0.0
 11
586.2933819188635
 21
797.1529262382004
 31
0.0
  0
LINE
  5
96E1
330
18
100
AcDbEntity
  8
0
100
AcDbLine
 10
585.3933819188633
 20
799.1529262382004
 30
0.0
 11
586.2933819188635
 21
799.1529262382004
 31
0.0
  0
ARC
  5
96E2
330
18
100
AcDbEntity
  8
0
100
AcDbCircle
 10
586.2933819188635
 20
798.1529262382
 30
0.0
 40
1.0
100
AcDbArc
 50
59.99999999999946
 51
90.0
  0
LINE
  5
96E3
330
18
100
AcDbEntity
  8
0
100
AcDbLine
 10
583.7933819188643
 20
797.1529262382004
 30
0.0
 11
583.7933819188639
 21
796.1529262382003
 31
0.0
  0
LINE
  5
96E4
330
18
100
AcDbEntity
  8
0
100
AcDbLine
 10
583.7933819188639
 20
800.1529262382003
 30
0.0
 11
583.7933819188639
 21
799.1529262382004
 31
0.0
  0
LINE
  5
96E5
330
18
100
AcDbEntity
  8
0
100
AcDbLine
 10
583.7933819188634
 20
802.6529262382004
 30
0.0
 11
583.7933819188634
 21
804.6529262382003
 31
0.0
  0
LINE
  5
96E6
330
18
100
AcDbEntity
  8
0
100
AcDbLine
 10
583.7933819188639
 20
807.1529262382004
 30
0.0
 11
581.2933819188635
 21
807.1529262382004
 31
0.0
  0
LINE
  5
96E7
330
18
100
AcDbEntity
  8
0
100
AcDbLine
 10
583.7933819188639
 20
811.1529262382003
 30
0.0
 11
581.2933819188635
 21
811.1529262382008
 31
0.0
  0
LINE
  5
96E8
330
18
100
AcDbEntity
  8
0
100
AcDbLine
 10
583.7933819188639
 20
807.1529262382004
 30
0.0
 11
581.2933819188639
 21
807.1529262382004
 31
0.0
  0
LINE
  5
96E9
330
18
100
AcDbEntity
  8
0
100
AcDbLine
 10
583.7933819188639
 20
811.1529262382003
 30
0.0
 11
581.2933819188639
 21
811.1529262382003
 31
0.0
  0
ARC
  5
96EA
330
18
100
AcDbEntity
  8
0
100
AcDbCircle
 10
586.2933819188635
 20
809.1529262382
 30
0.0
 40
1.0
100
AcDbArc
 50
270.0
 51
300.0000000000005
  0
LINE
  5
96EB
330
18
100
AcDbEntity
  8
0
100
AcDbLine
 10
585.3933819188633
 20
810.1529262382005
 30
0.0
 11
586.2933819188635
 21
810.1529262382003
 31
0.0
  0
LINE
  5
96EC
330
18
100
AcDbEntity
  8
0
100
AcDbLine
 10
585.3933819188633
 20
808.1529262382003
 30
0.0
 11
586.2933819188635
 21
808.1529262382003
 31
0.0
  0
ARC
  5
96ED
330
18
100
AcDbEntity
  8
0
100
AcDbCircle
 10
586.2933819188635
 20
809.1529262382
 30
0.0
 40
1.0
100
AcDbArc
 50
59.99999999999946
 51
90.0
  0
LINE
  5
96EE
330
18
100
AcDbEntity
  8
0
100
AcDbLine
 10
583.7933819188643
 20
808.1529262382003
 30
0.0
 11
583.7933819188639
 21
807.1529262382004
 31
0.0
  0
LINE
  5
96EF
330
18
100
AcDbEntity
  8
0
100
AcDbLine
 10
583.7933819188639
 20
811.1529262382003
 30
0.0
 11
583.7933819188639
 21
810.1529262382003
 31
0.0
  0
LINE
  5
96F0
330
18
100
AcDbEntity
  8
0
100
AcDbLine
 10
613.2433819188633
 20
776.3029262382007
 30
0.0
 11
613.2433819188633
 21
775.3279262382003
 31
0.0
  0
LINE
  5
96F1
330
18
100
AcDbEntity
  8
0
100
AcDbLine
 10
613.5933819188636
 20
775.3279262382003
 30
0.0
 11
613.5933819188636
 21
776.3029262382007
 31
0.0
  0
MTEXT
  5
96F2
330
18
100
AcDbEntity
  8
0
100
AcDbMText
 10
594.9510939970552
 20
777.8492038805092
 30
0.0
 40
2.0
 41
0.0
 71
     1
 72
     5
  1
ＣＮ１
  7
MSｺﾞｼｯｸ
 73
     1
 44
1.0
  0
LINE
  5
96F3
330
18
100
AcDbEntity
  8
0
100
AcDbLine
 10
610.4683819188636
 20
776.3029262382007
 30
0.0
 11
610.4683819188636
 21
775.3279262382003
 31
0.0
  0
LINE
  5
96F4
330
18
100
AcDbEntity
  8
0
100
AcDbLine
 10
610.8183819188635
 20
775.3279262382003
 30
0.0
 11
610.8183819188635
 21
776.3029262382007
 31
0.0
  0
LINE
  5
96F5
330
18
100
AcDbEntity
  8
0
100
AcDbLine
 10
607.4683819188636
 20
796.6529262382006
 30
0.0
 11
607.4683819188636
 21
753.3529262382004
 31
0.0
  0
LINE
  5
96F6
330
18
100
AcDbEntity
  8
0
100
AcDbLine
 10
616.6933819188635
 20
753.3529262382004
 30
0.0
 11
616.6933819188635
 21
796.6529262382006
 31
0.0
  0
LINE
  5
96F7
330
18
100
AcDbEntity
  8
0
100
AcDbLine
 10
609.0183819188638
 20
788.1779262382007
 30
0.0
 11
609.0183819188638
 21
762.1529262382006
 31
0.0
  0
LWPOLYLINE
  5
96F8
330
18
100
AcDbEntity
  8
0
100
AcDbPolyline
 90
        4
 70
     1
 43
0.0
 10
613.9683819188636
 20
787.3279262382003
 10
610.2683819188638
 20
787.3279262382003
 10
610.2683819188638
 20
763.5279262382006
 10
613.9683819188636
 20
763.5279262382006
  0
LINE
  5
96F9
330
18
100
AcDbEntity
  8
0
100
AcDbLine
 10
615.1433819188638
 20
763.0779262382003
 30
0.0
 11
615.1433819188638
 21
787.2529262382005
 31
0.0
  0
ELLIPSE
  5
96FA
330
18
100
AcDbEntity
  8
0
100
AcDbEllipse
 10
610.2433819188632
 20
762.3279262382003
 30
0.0
 11
0.0
 21
1.25
 31
0.0
210
0.0
220
0.0
230
1.0
 40
0.98
 41
1.708854999999999
 42
3.380894
  0
LINE
  5
96FB
330
18
100
AcDbEntity
  8
0
100
AcDbLine
 10
610.3933819188638
 20
757.6279262382005
 30
0.0
 11
608.2683819188638
 21
757.6279262382005
 31
0.0
  0
LINE
  5
96FC
330
18
100
AcDbEntity
  8
0
100
AcDbLine
 10
607.4683819188636
 20
753.3529262382004
 30
0.0
 11
616.6933819188635
 21
753.3529262382004
 31
0.0
  0
LINE
  5
96FD
330
18
100
AcDbEntity
  8
0
100
AcDbLine
 10
615.8933819188638
 20
759.7029262382003
 30
0.0
 11
608.2683819188638
 21
759.7029262382003
 31
0.0
  0
LINE
  5
96FE
330
18
100
AcDbEntity
  8
0
100
AcDbLine
 10
604.2933819188634
 20
750.6529262382009
 30
0.0
 11
619.2933819188635
 21
750.6529262382009
 31
0.0
  0
LINE
  5
96FF
330
18
100
AcDbEntity
  8
0
100
AcDbLine
 10
598.2933819188635
 20
737.6529262382003
 30
0.0
 11
599.7298735919672
 21
737.6529262382003
 31
0.0
  0
CIRCLE
  5
9700
330
18
100
AcDbEntity
  8
0
370
    50
100
AcDbCircle
 10
599.7933819188634
 20
750.152926238201
 30
0.0
 40
3.0
  0
LINE
  5
9701
330
18
100
AcDbEntity
  8
0
370
    50
100
AcDbLine
 10
598.5433819188634
 20
749.3529262382009
 30
0.0
 11
601.0433819188635
 21
749.3529262382009
 31
0.0
  0
LINE
  5
9702
330
18
100
AcDbEntity
  8
0
370
    50
100
AcDbLine
 10
601.7933819188634
 20
750.5529262382012
 30
0.0
 11
597.7933819188635
 21
750.5529262382012
 31
0.0
  0
LINE
  5
9703
330
18
100
AcDbEntity
  8
0
100
AcDbLine
 10
595.8568902457601
 20
737.6529262382003
 30
0.0
 11
597.2933819188634
 21
737.6529262382003
 31
0.0
  0
LINE
  5
9704
330
18
100
AcDbEntity
  8
0
100
AcDbLine
 10
598.2933819188635
 20
737.6529262382003
 30
0.0
 11
598.2933819188635
 21
739.0894179113042
 31
0.0
  0
LINE
  5
9705
330
18
100
AcDbEntity
  8
0
100
AcDbLine
 10
597.2933819188634
 20
737.6529262382003
 30
0.0
 11
597.2933819188634
 21
739.0894179113042
 31
0.0
  0
ARC
  5
9706
330
18
100
AcDbEntity
  8
0
100
AcDbCircle
 10
597.7933819188635
 20
737.1529262382003
 30
0.0
 40
2.0
100
AcDbArc
 50
75.52248781407055
 51
104.4775121859294
  0
ARC
  5
9707
330
18
100
AcDbEntity
  8
0
100
AcDbCircle
 10
589.8933819188633
 20
750.1529262382003
 30
0.0
 40
2.666666666666666
100
AcDbArc
 50
75.52248781407055
 51
104.4775121859294
  0
ARC
  5
9708
330
18
100
AcDbEntity
  8
0
100
AcDbCircle
 10
589.8933819188633
 20
750.1529262382003
 30
0.0
 40
2.666666666666666
100
AcDbArc
 50
255.5224878140705
 51
284.4775121859294
  0
LINE
  5
9709
330
18
100
AcDbEntity
  8
0
100
AcDbLine
 10
589.2267152521968
 20
750.8195929048671
 30
0.0
 11
589.2267152521968
 21
752.7349151356721
 31
0.0
  0
LINE
  5
970A
330
18
100
AcDbEntity
  8
0
100
AcDbLine
 10
589.2267152521968
 20
747.5709373407286
 30
0.0
 11
589.2267152521968
 21
749.4862595715336
 31
0.0
  0
LINE
  5
970B
330
18
100
AcDbEntity
  8
0
100
AcDbLine
 10
590.5600485855298
 20
750.8195929048671
 30
0.0
 11
592.4753708163349
 21
750.8195929048671
 31
0.0
  0
LINE
  5
970C
330
18
100
AcDbEntity
  8
0
100
AcDbLine
 10
590.5600485855298
 20
750.8195929048671
 30
0.0
 11
590.5600485855298
 21
752.7349151356721
 31
0.0
  0
LINE
  5
970D
330
18
100
AcDbEntity
  8
0
100
AcDbLine
 10
590.5600485855298
 20
749.4862595715336
 30
0.0
 11
592.4753708163349
 21
749.4862595715336
 31
0.0
  0
LINE
  5
970E
330
18
100
AcDbEntity
  8
0
100
AcDbLine
 10
590.5600485855298
 20
747.5709373407286
 30
0.0
 11
590.5600485855298
 21
749.4862595715336
 31
0.0
  0
ARC
  5
970F
330
18
100
AcDbEntity
  8
0
100
AcDbCircle
 10
589.8933819188633
 20
750.1529262382003
 30
0.0
 40
2.666666666666666
100
AcDbArc
 50
345.5224878140697
 51
14.47751218593027
  0
LINE
  5
9710
330
18
100
AcDbEntity
  8
0
370
    50
100
AcDbLine
 10
600.2933819188634
 20
748.1529262382011
 30
0.0
 11
599.2933819188634
 21
748.1529262382011
 31
0.0
  0
LINE
  5
9711
330
18
100
AcDbEntity
  8
0
370
    50
100
AcDbLine
 10
599.7933819188634
 20
752.152926238201
 30
0.0
 11
599.7933819188634
 21
750.5529262382012
 31
0.0
  0
CIRCLE
  5
9712
330
18
100
AcDbEntity
  8
0
370
    50
100
AcDbCircle
 10
599.7933819188634
 20
762.1529262382011
 30
0.0
 40
3.0
  0
LINE
  5
9713
330
18
100
AcDbEntity
  8
0
370
    50
100
AcDbLine
 10
598.5433819188634
 20
761.3529262382009
 30
0.0
 11
601.0433819188635
 21
761.3529262382009
 31
0.0
  0
LINE
  5
9714
330
18
100
AcDbEntity
  8
0
370
    50
100
AcDbLine
 10
601.7933819188634
 20
762.5529262382011
 30
0.0
 11
597.7933819188635
 21
762.5529262382011
 31
0.0
  0
ARC
  5
9715
330
18
100
AcDbEntity
  8
0
100
AcDbCircle
 10
589.8933819188633
 20
762.1529262382003
 30
0.0
 40
2.666666666666666
100
AcDbArc
 50
75.52248781407055
 51
104.4775121859294
  0
ARC
  5
9716
330
18
100
AcDbEntity
  8
0
100
AcDbCircle
 10
589.8933819188633
 20
762.1529262382003
 30
0.0
 40
2.666666666666666
100
AcDbArc
 50
255.5224878140705
 51
284.4775121859294
  0
LINE
  5
9717
330
18
100
AcDbEntity
  8
0
100
AcDbLine
 10
589.2267152521968
 20
762.8195929048671
 30
0.0
 11
589.2267152521968
 21
764.7349151356721
 31
0.0
  0
LINE
  5
9718
330
18
100
AcDbEntity
  8
0
100
AcDbLine
 10
589.2267152521968
 20
759.5709373407286
 30
0.0
 11
589.2267152521968
 21
761.4862595715337
 31
0.0
  0
LINE
  5
9719
330
18
100
AcDbEntity
  8
0
100
AcDbLine
 10
590.5600485855298
 20
762.8195929048671
 30
0.0
 11
592.4753708163349
 21
762.8195929048671
 31
0.0
  0
LINE
  5
971A
330
18
100
AcDbEntity
  8
0
100
AcDbLine
 10
590.5600485855298
 20
762.8195929048671
 30
0.0
 11
590.5600485855298
 21
764.7349151356721
 31
0.0
  0
LINE
  5
971B
330
18
100
AcDbEntity
  8
0
100
AcDbLine
 10
590.5600485855298
 20
761.4862595715337
 30
0.0
 11
592.4753708163349
 21
761.4862595715337
 31
0.0
  0
LINE
  5
971C
330
18
100
AcDbEntity
  8
0
100
AcDbLine
 10
590.5600485855298
 20
759.5709373407286
 30
0.0
 11
590.5600485855298
 21
761.4862595715337
 31
0.0
  0
ARC
  5
971D
330
18
100
AcDbEntity
  8
0
100
AcDbCircle
 10
589.8933819188633
 20
762.1529262382003
 30
0.0
 40
2.666666666666666
100
AcDbArc
 50
345.5224878140697
 51
14.47751218593027
  0
LINE
  5
971E
330
18
100
AcDbEntity
  8
0
370
    50
100
AcDbLine
 10
600.2933819188634
 20
760.152926238201
 30
0.0
 11
599.2933819188634
 21
760.152926238201
 31
0.0
  0
LINE
  5
971F
330
18
100
AcDbEntity
  8
0
370
    50
100
AcDbLine
 10
599.7933819188634
 20
764.152926238201
 30
0.0
 11
599.7933819188634
 21
762.5529262382011
 31
0.0
  0
LINE
  5
9720
330
18
100
AcDbEntity
  8
0
100
AcDbLine
 10
608.2683819188638
 20
757.6279262382005
 30
0.0
 11
608.2683819188638
 21
759.7029262382003
 31
0.0
  0
ELLIPSE
  5
9721
330
18
100
AcDbEntity
  8
0
100
AcDbEllipse
 10
612.0933819188636
 20
756.7279262382004
 30
0.0
 11
0.0
 21
0.775
 31
0.0
210
0.0
220
0.0
230
1.0
 40
0.9677419999999999
 41
0.0
 42
6.283184999999999
  0
LINE
  5
9722
330
18
100
AcDbEntity
  8
0
100
AcDbLine
 10
613.2433819188633
 20
766.7779262382006
 30
0.0
 11
613.2433819188633
 21
765.8029262382007
 31
0.0
  0
LINE
  5
9723
330
18
100
AcDbEntity
  8
0
100
AcDbLine
 10
613.5933819188636
 20
765.8029262382007
 30
0.0
 11
613.5933819188636
 21
766.7779262382006
 31
0.0
  0
LINE
  5
9724
330
18
100
AcDbEntity
  8
0
100
AcDbLine
 10
610.4683819188636
 20
766.7779262382006
 30
0.0
 11
610.4683819188636
 21
765.8029262382007
 31
0.0
  0
LINE
  5
9725
330
18
100
AcDbEntity
  8
0
100
AcDbLine
 10
610.8183819188635
 20
765.8029262382007
 30
0.0
 11
610.8183819188635
 21
766.7779262382006
 31
0.0
  0
ELLIPSE
  5
9726
330
18
100
AcDbEntity
  8
0
100
AcDbEllipse
 10
613.9183819188635
 20
763.3029262382007
 30
0.0
 11
0.0
 21
1.25
 31
0.0
210
0.0
220
0.0
230
1.0
 40
0.98
 41
3.380894
 42
4.528311
  0
LINE
  5
9727
330
18
100
AcDbEntity
  8
0
100
AcDbLine
 10
615.8933819188638
 20
757.6279262382005
 30
0.0
 11
613.9683819188636
 21
757.6279262382005
 31
0.0
  0
LINE
  5
9728
330
18
100
AcDbEntity
  8
0
100
AcDbLine
 10
613.2433819188633
 20
765.5529262382007
 30
0.0
 11
613.2433819188633
 21
764.5779262382003
 31
0.0
  0
LINE
  5
9729
330
18
100
AcDbEntity
  8
0
100
AcDbLine
 10
613.5933819188636
 20
764.5779262382003
 30
0.0
 11
613.5933819188636
 21
765.5529262382007
 31
0.0
  0
LINE
  5
972A
330
18
100
AcDbEntity
  8
0
100
AcDbLine
 10
613.2433819188633
 20
764.5779262382003
 30
0.0
 11
613.5933819188636
 21
764.5779262382003
 31
0.0
  0
LINE
  5
972B
330
18
100
AcDbEntity
  8
0
100
AcDbLine
 10
613.9683819188636
 20
757.6029262382004
 30
0.0
 11
613.9683819188636
 21
758.5779262382003
 31
0.0
  0
LINE
  5
972C
330
18
100
AcDbEntity
  8
0
100
AcDbLine
 10
613.2433819188633
 20
765.8029262382007
 30
0.0
 11
613.5933819188636
 21
765.8029262382007
 31
0.0
  0
LINE
  5
972D
330
18
100
AcDbEntity
  8
0
100
AcDbLine
 10
613.5933819188636
 20
765.5529262382007
 30
0.0
 11
613.2433819188633
 21
765.5529262382007
 31
0.0
  0
LINE
  5
972E
330
18
100
AcDbEntity
  8
0
100
AcDbLine
 10
610.4683819188636
 20
765.5529262382007
 30
0.0
 11
610.4683819188636
 21
764.5779262382003
 31
0.0
  0
LINE
  5
972F
330
18
100
AcDbEntity
  8
0
100
AcDbLine
 10
610.8183819188635
 20
764.5779262382003
 30
0.0
 11
610.8183819188635
 21
765.5529262382007
 31
0.0
  0
LINE
  5
9730
330
18
100
AcDbEntity
  8
0
100
AcDbLine
 10
610.4683819188636
 20
764.5779262382003
 30
0.0
 11
610.8183819188635
 21
764.5779262382003
 31
0.0
  0
LINE
  5
9731
330
18
100
AcDbEntity
  8
0
100
AcDbLine
 10
610.3933819188638
 20
757.6279262382005
 30
0.0
 11
610.3933819188638
 21
758.6029262382004
 31
0.0
  0
LINE
  5
9732
330
18
100
AcDbEntity
  8
0
100
AcDbLine
 10
610.4683819188636
 20
765.8029262382007
 30
0.0
 11
610.8183819188635
 21
765.8029262382007
 31
0.0
  0
LINE
  5
9733
330
18
100
AcDbEntity
  8
0
100
AcDbLine
 10
610.8183819188635
 20
765.5529262382007
 30
0.0
 11
610.4683819188636
 21
765.5529262382007
 31
0.0
  0
LINE
  5
9734
330
18
100
AcDbEntity
  8
0
100
AcDbLine
 10
613.9683819188636
 20
758.6029262382004
 30
0.0
 11
610.3933819188638
 21
758.6029262382004
 31
0.0
  0
LINE
  5
9735
330
18
100
AcDbEntity
  8
0
100
AcDbLine
 10
610.5183819188638
 20
761.0779262382003
 30
0.0
 11
614.2183819188637
 21
762.0529262382007
 31
0.0
  0
LINE
  5
9736
330
18
100
AcDbEntity
  8
0
100
AcDbLine
 10
615.8933819188638
 20
757.6279262382005
 30
0.0
 11
615.8933819188638
 21
759.7029262382003
 31
0.0
  0
LINE
  5
9737
330
18
100
AcDbEntity
  8
0
100
AcDbLine
 10
613.5933819188636
 20
775.1029262382004
 30
0.0
 11
613.2433819188633
 21
775.1029262382004
 31
0.0
  0
LINE
  5
9738
330
18
100
AcDbEntity
  8
0
100
AcDbLine
 10
613.2433819188633
 20
775.3279262382003
 30
0.0
 11
613.5933819188636
 21
775.3279262382003
 31
0.0
  0
LINE
  5
9739
330
18
100
AcDbEntity
  8
0
100
AcDbLine
 10
613.2433819188633
 20
774.1279262382005
 30
0.0
 11
613.5933819188636
 21
774.1279262382005
 31
0.0
  0
LINE
  5
973A
330
18
100
AcDbEntity
  8
0
100
AcDbLine
 10
613.5933819188636
 20
773.9279262382007
 30
0.0
 11
613.2433819188633
 21
773.9279262382007
 31
0.0
  0
LINE
  5
973B
330
18
100
AcDbEntity
  8
0
100
AcDbLine
 10
613.2433819188633
 20
775.1029262382004
 30
0.0
 11
613.2433819188633
 21
774.1279262382005
 31
0.0
  0
LINE
  5
973C
330
18
100
AcDbEntity
  8
0
100
AcDbLine
 10
613.5933819188636
 20
774.1279262382005
 30
0.0
 11
613.5933819188636
 21
775.1029262382004
 31
0.0
  0
LINE
  5
973D
330
18
100
AcDbEntity
  8
0
100
AcDbLine
 10
613.2433819188633
 20
772.9529262382003
 30
0.0
 11
613.5933819188636
 21
772.9529262382003
 31
0.0
  0
LINE
  5
973E
330
18
100
AcDbEntity
  8
0
100
AcDbLine
 10
613.5933819188636
 20
772.7279262382004
 30
0.0
 11
613.2433819188633
 21
772.7279262382004
 31
0.0
  0
LINE
  5
973F
330
18
100
AcDbEntity
  8
0
100
AcDbLine
 10
613.2433819188633
 20
772.7279262382004
 30
0.0
 11
613.2433819188633
 21
771.7529262382005
 31
0.0
  0
LINE
  5
9740
330
18
100
AcDbEntity
  8
0
100
AcDbLine
 10
613.2433819188633
 20
771.7529262382005
 30
0.0
 11
613.5933819188636
 21
771.7529262382005
 31
0.0
  0
LINE
  5
9741
330
18
100
AcDbEntity
  8
0
100
AcDbLine
 10
613.5933819188636
 20
771.7529262382005
 30
0.0
 11
613.5933819188636
 21
772.7279262382004
 31
0.0
  0
LINE
  5
9742
330
18
100
AcDbEntity
  8
0
100
AcDbLine
 10
613.5933819188636
 20
771.5529262382006
 30
0.0
 11
613.2433819188633
 21
771.5529262382006
 31
0.0
  0
LINE
  5
9743
330
18
100
AcDbEntity
  8
0
100
AcDbLine
 10
613.2433819188633
 20
771.5529262382006
 30
0.0
 11
613.2433819188633
 21
770.5779262382003
 31
0.0
  0
LINE
  5
9744
330
18
100
AcDbEntity
  8
0
100
AcDbLine
 10
613.2433819188633
 20
770.5779262382003
 30
0.0
 11
613.5933819188636
 21
770.5779262382003
 31
0.0
  0
LINE
  5
9745
330
18
100
AcDbEntity
  8
0
100
AcDbLine
 10
613.5933819188636
 20
770.5779262382003
 30
0.0
 11
613.5933819188636
 21
771.5529262382006
 31
0.0
  0
LINE
  5
9746
330
18
100
AcDbEntity
  8
0
100
AcDbLine
 10
613.5933819188636
 20
770.3779262382005
 30
0.0
 11
613.2433819188633
 21
770.3779262382005
 31
0.0
  0
LINE
  5
9747
330
18
100
AcDbEntity
  8
0
100
AcDbLine
 10
613.2433819188633
 20
773.9279262382007
 30
0.0
 11
613.2433819188633
 21
772.9529262382003
 31
0.0
  0
LINE
  5
9748
330
18
100
AcDbEntity
  8
0
100
AcDbLine
 10
613.5933819188636
 20
772.9529262382003
 30
0.0
 11
613.5933819188636
 21
773.9279262382007
 31
0.0
  0
LINE
  5
9749
330
18
100
AcDbEntity
  8
0
100
AcDbLine
 10
613.5933819188636
 20
769.2029262382003
 30
0.0
 11
613.2433819188633
 21
769.2029262382003
 31
0.0
  0
LINE
  5
974A
330
18
100
AcDbEntity
  8
0
100
AcDbLine
 10
613.2433819188633
 20
769.4029262382006
 30
0.0
 11
613.5933819188636
 21
769.4029262382006
 31
0.0
  0
LINE
  5
974B
330
18
100
AcDbEntity
  8
0
100
AcDbLine
 10
613.2433819188633
 20
768.2279262382004
 30
0.0
 11
613.5933819188636
 21
768.2279262382004
 31
0.0
  0
LINE
  5
974C
330
18
100
AcDbEntity
  8
0
100
AcDbLine
 10
613.5933819188636
 20
768.0029262382005
 30
0.0
 11
613.2433819188633
 21
768.0029262382005
 31
0.0
  0
LINE
  5
974D
330
18
100
AcDbEntity
  8
0
100
AcDbLine
 10
613.2433819188633
 20
767.0279262382006
 30
0.0
 11
613.5933819188636
 21
767.0279262382006
 31
0.0
  0
LINE
  5
974E
330
18
100
AcDbEntity
  8
0
100
AcDbLine
 10
613.2433819188633
 20
768.0029262382005
 30
0.0
 11
613.2433819188633
 21
767.0279262382006
 31
0.0
  0
LINE
  5
974F
330
18
100
AcDbEntity
  8
0
100
AcDbLine
 10
613.5933819188636
 20
767.0279262382006
 30
0.0
 11
613.5933819188636
 21
768.0029262382005
 31
0.0
  0
LINE
  5
9750
330
18
100
AcDbEntity
  8
0
100
AcDbLine
 10
613.2433819188633
 20
769.2029262382003
 30
0.0
 11
613.2433819188633
 21
768.2279262382004
 31
0.0
  0
LINE
  5
9751
330
18
100
AcDbEntity
  8
0
100
AcDbLine
 10
613.5933819188636
 20
768.2279262382004
 30
0.0
 11
613.5933819188636
 21
769.2029262382003
 31
0.0
  0
LINE
  5
9752
330
18
100
AcDbEntity
  8
0
100
AcDbLine
 10
613.5933819188636
 20
766.7779262382006
 30
0.0
 11
613.2433819188633
 21
766.7779262382006
 31
0.0
  0
LINE
  5
9753
330
18
100
AcDbEntity
  8
0
100
AcDbLine
 10
613.2433819188633
 20
770.3779262382005
 30
0.0
 11
613.2433819188633
 21
769.4029262382006
 31
0.0
  0
LINE
  5
9754
330
18
100
AcDbEntity
  8
0
100
AcDbLine
 10
613.5933819188636
 20
769.4029262382006
 30
0.0
 11
613.5933819188636
 21
770.3779262382005
 31
0.0
  0
LINE
  5
9755
330
18
100
AcDbEntity
  8
0
100
AcDbLine
 10
610.8183819188635
 20
775.1029262382004
 30
0.0
 11
610.4683819188636
 21
775.1029262382004
 31
0.0
  0
LINE
  5
9756
330
18
100
AcDbEntity
  8
0
100
AcDbLine
 10
610.4683819188636
 20
775.3279262382003
 30
0.0
 11
610.8183819188635
 21
775.3279262382003
 31
0.0
  0
LINE
  5
9757
330
18
100
AcDbEntity
  8
0
100
AcDbLine
 10
610.4683819188636
 20
774.1279262382005
 30
0.0
 11
610.8183819188635
 21
774.1279262382005
 31
0.0
  0
LINE
  5
9758
330
18
100
AcDbEntity
  8
0
100
AcDbLine
 10
610.8183819188635
 20
773.9279262382007
 30
0.0
 11
610.4683819188636
 21
773.9279262382007
 31
0.0
  0
LINE
  5
9759
330
18
100
AcDbEntity
  8
0
100
AcDbLine
 10
610.4683819188636
 20
775.1029262382004
 30
0.0
 11
610.4683819188636
 21
774.1279262382005
 31
0.0
  0
LINE
  5
975A
330
18
100
AcDbEntity
  8
0
100
AcDbLine
 10
610.8183819188635
 20
774.1279262382005
 30
0.0
 11
610.8183819188635
 21
775.1029262382004
 31
0.0
  0
LINE
  5
975B
330
18
100
AcDbEntity
  8
0
100
AcDbLine
 10
610.4683819188636
 20
772.9529262382003
 30
0.0
 11
610.8183819188635
 21
772.9529262382003
 31
0.0
  0
LINE
  5
975C
330
18
100
AcDbEntity
  8
0
100
AcDbLine
 10
610.8183819188635
 20
772.7279262382004
 30
0.0
 11
610.4683819188636
 21
772.7279262382004
 31
0.0
  0
LINE
  5
975D
330
18
100
AcDbEntity
  8
0
100
AcDbLine
 10
610.4683819188636
 20
772.7279262382004
 30
0.0
 11
610.4683819188636
 21
771.7529262382005
 31
0.0
  0
LINE
  5
975E
330
18
100
AcDbEntity
  8
0
100
AcDbLine
 10
610.4683819188636
 20
771.7529262382005
 30
0.0
 11
610.8183819188635
 21
771.7529262382005
 31
0.0
  0
LINE
  5
975F
330
18
100
AcDbEntity
  8
0
100
AcDbLine
 10
610.8183819188635
 20
771.7529262382005
 30
0.0
 11
610.8183819188635
 21
772.7279262382004
 31
0.0
  0
LINE
  5
9760
330
18
100
AcDbEntity
  8
0
100
AcDbLine
 10
610.8183819188635
 20
771.5529262382006
 30
0.0
 11
610.4683819188636
 21
771.5529262382006
 31
0.0
  0
LINE
  5
9761
330
18
100
AcDbEntity
  8
0
100
AcDbLine
 10
610.4683819188636
 20
771.5529262382006
 30
0.0
 11
610.4683819188636
 21
770.5779262382003
 31
0.0
  0
LINE
  5
9762
330
18
100
AcDbEntity
  8
0
100
AcDbLine
 10
610.4683819188636
 20
770.5779262382003
 30
0.0
 11
610.8183819188635
 21
770.5779262382003
 31
0.0
  0
LINE
  5
9763
330
18
100
AcDbEntity
  8
0
100
AcDbLine
 10
610.8183819188635
 20
770.5779262382003
 30
0.0
 11
610.8183819188635
 21
771.5529262382006
 31
0.0
  0
LINE
  5
9764
330
18
100
AcDbEntity
  8
0
100
AcDbLine
 10
610.8183819188635
 20
770.3779262382005
 30
0.0
 11
610.4683819188636
 21
770.3779262382005
 31
0.0
  0
LINE
  5
9765
330
18
100
AcDbEntity
  8
0
100
AcDbLine
 10
610.4683819188636
 20
773.9279262382007
 30
0.0
 11
610.4683819188636
 21
772.9529262382003
 31
0.0
  0
LINE
  5
9766
330
18
100
AcDbEntity
  8
0
100
AcDbLine
 10
610.8183819188635
 20
772.9529262382003
 30
0.0
 11
610.8183819188635
 21
773.9279262382007
 31
0.0
  0
LINE
  5
9767
330
18
100
AcDbEntity
  8
0
100
AcDbLine
 10
610.8183819188635
 20
769.2029262382003
 30
0.0
 11
610.4683819188636
 21
769.2029262382003
 31
0.0
  0
LINE
  5
9768
330
18
100
AcDbEntity
  8
0
100
AcDbLine
 10
610.4683819188636
 20
769.4029262382006
 30
0.0
 11
610.8183819188635
 21
769.4029262382006
 31
0.0
  0
LINE
  5
9769
330
18
100
AcDbEntity
  8
0
100
AcDbLine
 10
610.4683819188636
 20
768.2279262382004
 30
0.0
 11
610.8183819188635
 21
768.2279262382004
 31
0.0
  0
LINE
  5
976A
330
18
100
AcDbEntity
  8
0
100
AcDbLine
 10
610.8183819188635
 20
768.0029262382005
 30
0.0
 11
610.4683819188636
 21
768.0029262382005
 31
0.0
  0
LINE
  5
976B
330
18
100
AcDbEntity
  8
0
100
AcDbLine
 10
610.4683819188636
 20
767.0279262382006
 30
0.0
 11
610.8183819188635
 21
767.0279262382006
 31
0.0
  0
LINE
  5
976C
330
18
100
AcDbEntity
  8
0
100
AcDbLine
 10
610.4683819188636
 20
768.0029262382005
 30
0.0
 11
610.4683819188636
 21
767.0279262382006
 31
0.0
  0
LINE
  5
976D
330
18
100
AcDbEntity
  8
0
100
AcDbLine
 10
610.8183819188635
 20
767.0279262382006
 30
0.0
 11
610.8183819188635
 21
768.0029262382005
 31
0.0
  0
LINE
  5
976E
330
18
100
AcDbEntity
  8
0
100
AcDbLine
 10
610.4683819188636
 20
769.2029262382003
 30
0.0
 11
610.4683819188636
 21
768.2279262382004
 31
0.0
  0
LINE
  5
976F
330
18
100
AcDbEntity
  8
0
100
AcDbLine
 10
610.8183819188635
 20
768.2279262382004
 30
0.0
 11
610.8183819188635
 21
769.2029262382003
 31
0.0
  0
LINE
  5
9770
330
18
100
AcDbEntity
  8
0
100
AcDbLine
 10
610.8183819188635
 20
766.7779262382006
 30
0.0
 11
610.4683819188636
 21
766.7779262382006
 31
0.0
  0
LINE
  5
9771
330
18
100
AcDbEntity
  8
0
100
AcDbLine
 10
610.4683819188636
 20
770.3779262382005
 30
0.0
 11
610.4683819188636
 21
769.4029262382006
 31
0.0
  0
LINE
  5
9772
330
18
100
AcDbEntity
  8
0
100
AcDbLine
 10
610.8183819188635
 20
769.4029262382006
 30
0.0
 11
610.8183819188635
 21
770.3779262382005
 31
0.0
  0
ELLIPSE
  5
9773
330
18
100
AcDbEntity
  8
0
100
AcDbEllipse
 10
610.2433819188632
 20
788.1779262382007
 30
0.0
 11
0.0
 21
1.25
 31
0.0
210
0.0
220
0.0
230
1.0
 40
0.98
 41
6.03468
 42
8.053399307179585
  0
LINE
  5
9774
330
18
100
AcDbEntity
  8
0
100
AcDbLine
 10
610.3933819188638
 20
793.0529262382007
 30
0.0
 11
608.2683819188638
 21
793.0529262382007
 31
0.0
  0
ELLIPSE
  5
9775
330
18
100
AcDbEntity
  8
0
100
AcDbEllipse
 10
610.2433819188632
 20
806.2529262382003
 30
0.0
 11
0.0
 21
1.25
 31
0.0
210
0.0
220
0.0
230
1.0
 40
0.98
 41
1.708854999999999
 42
3.380894
  0
LINE
  5
9776
330
18
100
AcDbEntity
  8
0
100
AcDbLine
 10
610.3933819188638
 20
801.5029262382002
 30
0.0
 11
608.2683819188638
 21
801.5029262382002
 31
0.0
  0
LINE
  5
9777
330
18
100
AcDbEntity
  8
0
100
AcDbLine
 10
607.4683819188636
 20
797.3279262382003
 30
0.0
 11
616.6933819188635
 21
797.3279262382003
 31
0.0
  0
LINE
  5
9778
330
18
100
AcDbEntity
  8
0
100
AcDbLine
 10
616.6933819188635
 20
796.6529262382006
 30
0.0
 11
607.4683819188636
 21
796.6529262382006
 31
0.0
  0
LINE
  5
9779
330
18
100
AcDbEntity
  8
0
100
AcDbLine
 10
615.8933819188638
 20
790.9779262382004
 30
0.0
 11
608.2683819188638
 21
790.9779262382004
 31
0.0
  0
LINE
  5
977A
330
18
100
AcDbEntity
  8
0
100
AcDbLine
 10
615.8933819188638
 20
803.5779262382003
 30
0.0
 11
608.2683819188638
 21
803.5779262382003
 31
0.0
  0
LINE
  5
977B
330
18
100
AcDbEntity
  8
0
100
AcDbLine
 10
608.2683819188638
 20
793.0529262382007
 30
0.0
 11
608.2683819188638
 21
790.9779262382004
 31
0.0
  0
TEXT
  5
977C
330
18
100
AcDbEntity
  8
0
100
AcDbText
 10
594.9943503178084
 20
810.6125919154395
 30
0.0
 40
2.0
  1
ＣＮ２
  7
MSｺﾞｼｯｸ
100
AcDbText
  0
LINE
  5
977D
330
18
100
AcDbEntity
  8
0
100
AcDbLine
 10
608.2683819188638
 20
801.5029262382002
 30
0.0
 11
608.2683819188638
 21
803.5779262382003
 31
0.0
  0
LINE
  5
977E
330
18
100
AcDbEntity
  8
0
100
AcDbLine
 10
613.2683819188638
 20
786.3029262382007
 30
0.0
 11
613.2683819188638
 21
785.3029262382007
 31
0.0
  0
LINE
  5
977F
330
18
100
AcDbEntity
  8
0
100
AcDbLine
 10
613.6183819188633
 20
785.3029262382007
 30
0.0
 11
613.6183819188633
 21
786.3029262382007
 31
0.0
  0
LINE
  5
9780
330
18
100
AcDbEntity
  8
0
100
AcDbLine
 10
610.4933819188633
 20
786.3029262382007
 30
0.0
 11
610.4933819188633
 21
785.3029262382007
 31
0.0
  0
LINE
  5
9781
330
18
100
AcDbEntity
  8
0
100
AcDbLine
 10
610.8433819188636
 20
785.3029262382007
 30
0.0
 11
610.8433819188636
 21
786.3029262382007
 31
0.0
  0
LINE
  5
9782
330
18
100
AcDbEntity
  8
0
100
AcDbLine
 10
613.2683819188638
 20
785.3029262382007
 30
0.0
 11
613.6183819188633
 21
785.3029262382007
 31
0.0
  0
LINE
  5
9783
330
18
100
AcDbEntity
  8
0
100
AcDbLine
 10
613.6183819188633
 20
785.0279262382006
 30
0.0
 11
613.2683819188638
 21
785.0279262382006
 31
0.0
  0
LINE
  5
9784
330
18
100
AcDbEntity
  8
0
100
AcDbLine
 10
610.4933819188633
 20
785.3029262382007
 30
0.0
 11
610.8433819188636
 21
785.3029262382007
 31
0.0
  0
LINE
  5
9785
330
18
100
AcDbEntity
  8
0
100
AcDbLine
 10
610.8433819188636
 20
785.0279262382006
 30
0.0
 11
610.4933819188633
 21
785.0279262382006
 31
0.0
  0
LINE
  5
9786
330
18
100
AcDbEntity
  8
0
100
AcDbLine
 10
613.6183819188633
 20
777.5029262382005
 30
0.0
 11
613.2683819188638
 21
777.5029262382005
 31
0.0
  0
LINE
  5
9787
330
18
100
AcDbEntity
  8
0
100
AcDbLine
 10
613.2683819188638
 20
777.5029262382005
 30
0.0
 11
613.2683819188638
 21
776.5279262382006
 31
0.0
  0
LINE
  5
9788
330
18
100
AcDbEntity
  8
0
100
AcDbLine
 10
613.2683819188638
 20
776.5279262382006
 30
0.0
 11
613.6183819188633
 21
776.5279262382006
 31
0.0
  0
LINE
  5
9789
330
18
100
AcDbEntity
  8
0
100
AcDbLine
 10
613.6183819188633
 20
776.5279262382006
 30
0.0
 11
613.6183819188633
 21
777.5029262382005
 31
0.0
  0
LINE
  5
978A
330
18
100
AcDbEntity
  8
0
100
AcDbLine
 10
613.5933819188636
 20
776.3029262382007
 30
0.0
 11
613.2433819188633
 21
776.3029262382007
 31
0.0
  0
LINE
  5
978B
330
18
100
AcDbEntity
  8
0
100
AcDbLine
 10
613.2683819188638
 20
784.0529262382006
 30
0.0
 11
613.6183819188633
 21
784.0529262382006
 31
0.0
  0
LINE
  5
978C
330
18
100
AcDbEntity
  8
0
100
AcDbLine
 10
613.6183819188633
 20
783.8029262382007
 30
0.0
 11
613.2683819188638
 21
783.8029262382007
 31
0.0
  0
LINE
  5
978D
330
18
100
AcDbEntity
  8
0
100
AcDbLine
 10
613.2683819188638
 20
783.8029262382007
 30
0.0
 11
613.2683819188638
 21
782.8279262382003
 31
0.0
  0
LINE
  5
978E
330
18
100
AcDbEntity
  8
0
100
AcDbLine
 10
613.2683819188638
 20
782.8279262382003
 30
0.0
 11
613.6183819188633
 21
782.8279262382003
 31
0.0
  0
LINE
  5
978F
330
18
100
AcDbEntity
  8
0
100
AcDbLine
 10
613.6183819188633
 20
782.8279262382003
 30
0.0
 11
613.6183819188633
 21
783.8029262382007
 31
0.0
  0
LINE
  5
9790
330
18
100
AcDbEntity
  8
0
100
AcDbLine
 10
613.6183819188633
 20
782.5279262382005
 30
0.0
 11
613.2683819188638
 21
782.5279262382005
 31
0.0
  0
LINE
  5
9791
330
18
100
AcDbEntity
  8
0
100
AcDbLine
 10
613.2683819188638
 20
782.5279262382005
 30
0.0
 11
613.2683819188638
 21
781.5779262382003
 31
0.0
  0
LINE
  5
9792
330
18
100
AcDbEntity
  8
0
100
AcDbLine
 10
613.2683819188638
 20
781.5779262382003
 30
0.0
 11
613.6183819188633
 21
781.5779262382003
 31
0.0
  0
LINE
  5
9793
330
18
100
AcDbEntity
  8
0
100
AcDbLine
 10
613.6183819188633
 20
781.5779262382003
 30
0.0
 11
613.6183819188633
 21
782.5279262382005
 31
0.0
  0
LINE
  5
9794
330
18
100
AcDbEntity
  8
0
100
AcDbLine
 10
613.6183819188633
 20
781.2029262382004
 30
0.0
 11
613.2683819188638
 21
781.2029262382004
 31
0.0
  0
LINE
  5
9795
330
18
100
AcDbEntity
  8
0
100
AcDbLine
 10
613.2683819188638
 20
781.2029262382004
 30
0.0
 11
613.2683819188638
 21
780.2279262382004
 31
0.0
  0
LINE
  5
9796
330
18
100
AcDbEntity
  8
0
100
AcDbLine
 10
613.2683819188638
 20
780.2279262382004
 30
0.0
 11
613.6183819188633
 21
780.2279262382004
 31
0.0
  0
LINE
  5
9797
330
18
100
AcDbEntity
  8
0
100
AcDbLine
 10
613.6183819188633
 20
780.2279262382004
 30
0.0
 11
613.6183819188633
 21
781.2029262382004
 31
0.0
  0
LINE
  5
9798
330
18
100
AcDbEntity
  8
0
100
AcDbLine
 10
613.6183819188633
 20
779.9279262382007
 30
0.0
 11
613.2683819188638
 21
779.9279262382007
 31
0.0
  0
LINE
  5
9799
330
18
100
AcDbEntity
  8
0
100
AcDbLine
 10
613.2683819188638
 20
779.9279262382007
 30
0.0
 11
613.2683819188638
 21
778.9529262382004
 31
0.0
  0
LINE
  5
979A
330
18
100
AcDbEntity
  8
0
100
AcDbLine
 10
613.2683819188638
 20
778.9529262382004
 30
0.0
 11
613.6183819188633
 21
778.9529262382004
 31
0.0
  0
LINE
  5
979B
330
18
100
AcDbEntity
  8
0
100
AcDbLine
 10
613.6183819188633
 20
778.9529262382004
 30
0.0
 11
613.6183819188633
 21
779.9279262382007
 31
0.0
  0
LINE
  5
979C
330
18
100
AcDbEntity
  8
0
100
AcDbLine
 10
613.6183819188633
 20
778.7529262382005
 30
0.0
 11
613.2683819188638
 21
778.7529262382005
 31
0.0
  0
LINE
  5
979D
330
18
100
AcDbEntity
  8
0
100
AcDbLine
 10
613.2683819188638
 20
778.7529262382005
 30
0.0
 11
613.2683819188638
 21
777.7779262382006
 31
0.0
  0
LINE
  5
979E
330
18
100
AcDbEntity
  8
0
100
AcDbLine
 10
613.2683819188638
 20
777.7779262382006
 30
0.0
 11
613.6183819188633
 21
777.7779262382006
 31
0.0
  0
LINE
  5
979F
330
18
100
AcDbEntity
  8
0
100
AcDbLine
 10
613.6183819188633
 20
777.7779262382006
 30
0.0
 11
613.6183819188633
 21
778.7529262382005
 31
0.0
  0
LINE
  5
97A0
330
18
100
AcDbEntity
  8
0
100
AcDbLine
 10
610.8433819188636
 20
777.5029262382005
 30
0.0
 11
610.4933819188633
 21
777.5029262382005
 31
0.0
  0
LINE
  5
97A1
330
18
100
AcDbEntity
  8
0
100
AcDbLine
 10
610.4933819188633
 20
777.5029262382005
 30
0.0
 11
610.4933819188633
 21
776.5279262382006
 31
0.0
  0
LINE
  5
97A2
330
18
100
AcDbEntity
  8
0
100
AcDbLine
 10
610.4933819188633
 20
776.5279262382006
 30
0.0
 11
610.8433819188636
 21
776.5279262382006
 31
0.0
  0
LINE
  5
97A3
330
18
100
AcDbEntity
  8
0
100
AcDbLine
 10
610.8433819188636
 20
776.5279262382006
 30
0.0
 11
610.8433819188636
 21
777.5029262382005
 31
0.0
  0
LINE
  5
97A4
330
18
100
AcDbEntity
  8
0
100
AcDbLine
 10
610.8183819188635
 20
776.3029262382007
 30
0.0
 11
610.4683819188636
 21
776.3029262382007
 31
0.0
  0
LINE
  5
97A5
330
18
100
AcDbEntity
  8
0
100
AcDbLine
 10
610.4933819188633
 20
784.0529262382006
 30
0.0
 11
610.8433819188636
 21
784.0529262382006
 31
0.0
  0
LINE
  5
97A6
330
18
100
AcDbEntity
  8
0
100
AcDbLine
 10
610.8433819188636
 20
783.8029262382007
 30
0.0
 11
610.4933819188633
 21
783.8029262382007
 31
0.0
  0
LINE
  5
97A7
330
18
100
AcDbEntity
  8
0
100
AcDbLine
 10
610.4933819188633
 20
783.8029262382007
 30
0.0
 11
610.4933819188633
 21
782.8279262382003
 31
0.0
  0
LINE
  5
97A8
330
18
100
AcDbEntity
  8
0
100
AcDbLine
 10
610.4933819188633
 20
782.8279262382003
 30
0.0
 11
610.8433819188636
 21
782.8279262382003
 31
0.0
  0
LINE
  5
97A9
330
18
100
AcDbEntity
  8
0
100
AcDbLine
 10
610.8433819188636
 20
782.8279262382003
 30
0.0
 11
610.8433819188636
 21
783.8029262382007
 31
0.0
  0
LINE
  5
97AA
330
18
100
AcDbEntity
  8
0
100
AcDbLine
 10
610.8433819188636
 20
782.5279262382005
 30
0.0
 11
610.4933819188633
 21
782.5279262382005
 31
0.0
  0
LINE
  5
97AB
330
18
100
AcDbEntity
  8
0
100
AcDbLine
 10
610.4933819188633
 20
782.5279262382005
 30
0.0
 11
610.4933819188633
 21
781.5779262382003
 31
0.0
  0
LINE
  5
97AC
330
18
100
AcDbEntity
  8
0
100
AcDbLine
 10
610.4933819188633
 20
781.5779262382003
 30
0.0
 11
610.8433819188636
 21
781.5779262382003
 31
0.0
  0
LINE
  5
97AD
330
18
100
AcDbEntity
  8
0
100
AcDbLine
 10
610.8433819188636
 20
781.5779262382003
 30
0.0
 11
610.8433819188636
 21
782.5279262382005
 31
0.0
  0
LINE
  5
97AE
330
18
100
AcDbEntity
  8
0
100
AcDbLine
 10
610.8433819188636
 20
781.2029262382004
 30
0.0
 11
610.4933819188633
 21
781.2029262382004
 31
0.0
  0
LINE
  5
97AF
330
18
100
AcDbEntity
  8
0
100
AcDbLine
 10
610.4933819188633
 20
781.2029262382004
 30
0.0
 11
610.4933819188633
 21
780.2279262382004
 31
0.0
  0
LINE
  5
97B0
330
18
100
AcDbEntity
  8
0
100
AcDbLine
 10
610.4933819188633
 20
780.2279262382004
 30
0.0
 11
610.8433819188636
 21
780.2279262382004
 31
0.0
  0
LINE
  5
97B1
330
18
100
AcDbEntity
  8
0
100
AcDbLine
 10
610.8433819188636
 20
780.2279262382004
 30
0.0
 11
610.8433819188636
 21
781.2029262382004
 31
0.0
  0
LINE
  5
97B2
330
18
100
AcDbEntity
  8
0
100
AcDbLine
 10
610.8433819188636
 20
779.9279262382007
 30
0.0
 11
610.4933819188633
 21
779.9279262382007
 31
0.0
  0
LINE
  5
97B3
330
18
100
AcDbEntity
  8
0
100
AcDbLine
 10
610.4933819188633
 20
779.9279262382007
 30
0.0
 11
610.4933819188633
 21
778.9529262382004
 31
0.0
  0
LINE
  5
97B4
330
18
100
AcDbEntity
  8
0
100
AcDbLine
 10
610.4933819188633
 20
778.9529262382004
 30
0.0
 11
610.8433819188636
 21
778.9529262382004
 31
0.0
  0
LINE
  5
97B5
330
18
100
AcDbEntity
  8
0
100
AcDbLine
 10
610.8433819188636
 20
778.9529262382004
 30
0.0
 11
610.8433819188636
 21
779.9279262382007
 31
0.0
  0
LINE
  5
97B6
330
18
100
AcDbEntity
  8
0
100
AcDbLine
 10
610.8433819188636
 20
778.7529262382005
 30
0.0
 11
610.4933819188633
 21
778.7529262382005
 31
0.0
  0
LINE
  5
97B7
330
18
100
AcDbEntity
  8
0
100
AcDbLine
 10
610.4933819188633
 20
778.7529262382005
 30
0.0
 11
610.4933819188633
 21
777.7779262382006
 31
0.0
  0
LINE
  5
97B8
330
18
100
AcDbEntity
  8
0
100
AcDbLine
 10
610.4933819188633
 20
777.7779262382006
 30
0.0
 11
610.8433819188636
 21
777.7779262382006
 31
0.0
  0
LINE
  5
97B9
330
18
100
AcDbEntity
  8
0
100
AcDbLine
 10
610.8433819188636
 20
777.7779262382006
 30
0.0
 11
610.8433819188636
 21
778.7529262382005
 31
0.0
  0
LINE
  5
97BA
330
18
100
AcDbEntity
  8
0
100
AcDbLine
 10
613.2683819188638
 20
785.0279262382006
 30
0.0
 11
613.2683819188638
 21
784.0529262382006
 31
0.0
  0
LINE
  5
97BB
330
18
100
AcDbEntity
  8
0
100
AcDbLine
 10
613.6183819188633
 20
784.0529262382006
 30
0.0
 11
613.6183819188633
 21
785.0279262382006
 31
0.0
  0
LINE
  5
97BC
330
18
100
AcDbEntity
  8
0
100
AcDbLine
 10
610.4933819188633
 20
785.0279262382006
 30
0.0
 11
610.4933819188633
 21
784.0529262382006
 31
0.0
  0
LINE
  5
97BD
330
18
100
AcDbEntity
  8
0
100
AcDbLine
 10
610.8433819188636
 20
784.0529262382006
 30
0.0
 11
610.8433819188636
 21
785.0279262382006
 31
0.0
  0
ELLIPSE
  5
97BE
330
18
100
AcDbEntity
  8
0
100
AcDbEllipse
 10
613.9183819188635
 20
787.2529262382005
 30
0.0
 11
0.0
 21
1.25
 31
0.0
210
0.0
220
0.0
230
1.0
 40
0.98
 41
4.509903999999999
 42
6.059223999999999
  0
LINE
  5
97BF
330
18
100
AcDbEntity
  8
0
100
AcDbLine
 10
615.8933819188638
 20
793.0529262382007
 30
0.0
 11
613.9683819188636
 21
793.0529262382007
 31
0.0
  0
LINE
  5
97C0
330
18
100
AcDbEntity
  8
0
100
AcDbLine
 10
613.6183819188633
 20
786.3029262382007
 30
0.0
 11
613.2683819188638
 21
786.3029262382007
 31
0.0
  0
LINE
  5
97C1
330
18
100
AcDbEntity
  8
0
100
AcDbLine
 10
613.9683819188636
 20
793.0779262382003
 30
0.0
 11
613.9683819188636
 21
792.1029262382004
 31
0.0
  0
LINE
  5
97C2
330
18
100
AcDbEntity
  8
0
100
AcDbLine
 10
610.8433819188636
 20
786.3029262382007
 30
0.0
 11
610.4933819188633
 21
786.3029262382007
 31
0.0
  0
LINE
  5
97C3
330
18
100
AcDbEntity
  8
0
100
AcDbLine
 10
610.3933819188638
 20
793.0529262382007
 30
0.0
 11
610.3933819188638
 21
792.0779262382003
 31
0.0
  0
LINE
  5
97C4
330
18
100
AcDbEntity
  8
0
100
AcDbLine
 10
614.2183819188637
 20
788.4279262382007
 30
0.0
 11
610.5183819188638
 21
789.3529262382004
 31
0.0
  0
ELLIPSE
  5
97C5
330
18
100
AcDbEntity
  8
0
100
AcDbEllipse
 10
612.0933819188636
 20
794.2779262382006
 30
0.0
 11
0.0
 21
0.775
 31
0.0
210
0.0
220
0.0
230
1.0
 40
0.9677419999999999
 41
0.0
 42
6.283184999999999
  0
LINE
  5
97C6
330
18
100
AcDbEntity
  8
0
100
AcDbLine
 10
613.9683819188636
 20
792.0779262382003
 30
0.0
 11
610.3933819188638
 21
792.0779262382003
 31
0.0
  0
LINE
  5
97C7
330
18
100
AcDbEntity
  8
0
100
AcDbLine
 10
615.8933819188638
 20
793.0529262382007
 30
0.0
 11
615.8933819188638
 21
790.9779262382004
 31
0.0
  0
LINE
  5
97C8
330
18
100
AcDbEntity
  8
0
100
AcDbLine
 10
615.8933819188638
 20
801.5029262382002
 30
0.0
 11
613.9683819188636
 21
801.5029262382002
 31
0.0
  0
LINE
  5
97C9
330
18
100
AcDbEntity
  8
0
100
AcDbLine
 10
613.9683819188636
 20
801.4779262382004
 30
0.0
 11
613.9683819188636
 21
802.4529262382003
 31
0.0
  0
LINE
  5
97CA
330
18
100
AcDbEntity
  8
0
100
AcDbLine
 10
610.3933819188638
 20
801.5029262382002
 30
0.0
 11
610.3933819188638
 21
802.4779262382004
 31
0.0
  0
ELLIPSE
  5
97CB
330
18
100
AcDbEntity
  8
0
100
AcDbEllipse
 10
612.0933819188636
 20
800.6029262382003
 30
0.0
 11
0.0
 21
0.775
 31
0.0
210
0.0
220
0.0
230
1.0
 40
0.9677419999999999
 41
0.0
 42
6.283184999999999
  0
LINE
  5
97CC
330
18
100
AcDbEntity
  8
0
100
AcDbLine
 10
613.9683819188636
 20
802.4779262382004
 30
0.0
 11
610.3933819188638
 21
802.4779262382004
 31
0.0
  0
LINE
  5
97CD
330
18
100
AcDbEntity
  8
0
100
AcDbLine
 10
615.8933819188638
 20
801.5029262382002
 30
0.0
 11
615.8933819188638
 21
803.5779262382003
 31
0.0
  0
ELLIPSE
  5
97CE
330
18
100
AcDbEntity
  8
0
100
AcDbEllipse
 10
613.9183819188635
 20
807.2279262382004
 30
0.0
 11
0.0
 21
1.25
 31
0.0
210
0.0
220
0.0
230
1.0
 40
0.98
 41
3.380894
 42
4.528311
  0
LINE
  5
97CF
330
18
100
AcDbEntity
  8
0
100
AcDbLine
 10
613.2683819188638
 20
812.7529262382003
 30
0.0
 11
613.2683819188638
 21
811.7779262382004
 31
0.0
  0
LINE
  5
97D0
330
18
100
AcDbEntity
  8
0
100
AcDbLine
 10
613.6183819188633
 20
811.7779262382004
 30
0.0
 11
613.6183819188633
 21
812.7529262382003
 31
0.0
  0
LINE
  5
97D1
330
18
100
AcDbEntity
  8
0
100
AcDbLine
 10
613.2433819188633
 20
810.3029262382005
 30
0.0
 11
613.2433819188633
 21
809.3279262382003
 31
0.0
  0
LINE
  5
97D2
330
18
100
AcDbEntity
  8
0
100
AcDbLine
 10
613.5933819188636
 20
809.3279262382003
 30
0.0
 11
613.5933819188636
 21
810.3029262382005
 31
0.0
  0
LINE
  5
97D3
330
18
100
AcDbEntity
  8
0
100
AcDbLine
 10
613.2433819188633
 20
809.3279262382003
 30
0.0
 11
613.5933819188636
 21
809.3279262382003
 31
0.0
  0
LINE
  5
97D4
330
18
100
AcDbEntity
  8
0
100
AcDbLine
 10
613.5933819188636
 20
809.1029262382004
 30
0.0
 11
613.2433819188633
 21
809.1029262382004
 31
0.0
  0
LINE
  5
97D5
330
18
100
AcDbEntity
  8
0
100
AcDbLine
 10
613.2433819188633
 20
808.1279262382002
 30
0.0
 11
613.5933819188636
 21
808.1279262382002
 31
0.0
  0
LINE
  5
97D6
330
18
100
AcDbEntity
  8
0
100
AcDbLine
 10
613.2433819188633
 20
809.1029262382004
 30
0.0
 11
613.2433819188633
 21
808.1279262382002
 31
0.0
  0
LINE
  5
97D7
330
18
100
AcDbEntity
  8
0
100
AcDbLine
 10
613.5933819188636
 20
808.1279262382002
 30
0.0
 11
613.5933819188636
 21
809.1029262382004
 31
0.0
  0
LINE
  5
97D8
330
18
100
AcDbEntity
  8
0
100
AcDbLine
 10
613.2683819188638
 20
811.7779262382004
 30
0.0
 11
613.6183819188633
 21
811.7779262382004
 31
0.0
  0
LINE
  5
97D9
330
18
100
AcDbEntity
  8
0
100
AcDbLine
 10
613.6183819188633
 20
811.5029262382003
 30
0.0
 11
613.2683819188638
 21
811.5029262382003
 31
0.0
  0
LINE
  5
97DA
330
18
100
AcDbEntity
  8
0
100
AcDbLine
 10
613.2683819188638
 20
811.5029262382003
 30
0.0
 11
613.2683819188638
 21
810.5279262382003
 31
0.0
  0
LINE
  5
97DB
330
18
100
AcDbEntity
  8
0
100
AcDbLine
 10
613.2683819188638
 20
810.5279262382003
 30
0.0
 11
613.6183819188633
 21
810.5279262382003
 31
0.0
  0
LINE
  5
97DC
330
18
100
AcDbEntity
  8
0
100
AcDbLine
 10
613.6183819188633
 20
810.5279262382003
 30
0.0
 11
613.6183819188633
 21
811.5029262382003
 31
0.0
  0
LINE
  5
97DD
330
18
100
AcDbEntity
  8
0
100
AcDbLine
 10
613.5933819188636
 20
810.3029262382005
 30
0.0
 11
613.2433819188633
 21
810.3029262382005
 31
0.0
  0
LINE
  5
97DE
330
18
100
AcDbEntity
  8
0
100
AcDbLine
 10
613.6183819188633
 20
813.9279262382004
 30
0.0
 11
613.2683819188638
 21
813.9279262382004
 31
0.0
  0
LINE
  5
97DF
330
18
100
AcDbEntity
  8
0
100
AcDbLine
 10
613.2683819188638
 20
814.2279262382004
 30
0.0
 11
613.6183819188633
 21
814.2279262382004
 31
0.0
  0
LINE
  5
97E0
330
18
100
AcDbEntity
  8
0
100
AcDbLine
 10
613.2683819188638
 20
812.9529262382003
 30
0.0
 11
613.6183819188633
 21
812.9529262382003
 31
0.0
  0
LINE
  5
97E1
330
18
100
AcDbEntity
  8
0
100
AcDbLine
 10
613.6183819188633
 20
812.7529262382003
 30
0.0
 11
613.2683819188638
 21
812.7529262382003
 31
0.0
  0
LINE
  5
97E2
330
18
100
AcDbEntity
  8
0
100
AcDbLine
 10
613.2683819188638
 20
813.9279262382004
 30
0.0
 11
613.2683819188638
 21
812.9529262382003
 31
0.0
  0
LINE
  5
97E3
330
18
100
AcDbEntity
  8
0
100
AcDbLine
 10
613.6183819188633
 20
812.9529262382003
 30
0.0
 11
613.6183819188633
 21
813.9279262382004
 31
0.0
  0
LINE
  5
97E4
330
18
100
AcDbEntity
  8
0
100
AcDbLine
 10
610.4933819188633
 20
812.7529262382003
 30
0.0
 11
610.4933819188633
 21
811.7779262382004
 31
0.0
  0
LINE
  5
97E5
330
18
100
AcDbEntity
  8
0
100
AcDbLine
 10
610.8433819188636
 20
811.7779262382004
 30
0.0
 11
610.8433819188636
 21
812.7529262382003
 31
0.0
  0
LINE
  5
97E6
330
18
100
AcDbEntity
  8
0
100
AcDbLine
 10
610.4683819188636
 20
810.3029262382005
 30
0.0
 11
610.4683819188636
 21
809.3279262382003
 31
0.0
  0
LINE
  5
97E7
330
18
100
AcDbEntity
  8
0
100
AcDbLine
 10
610.8183819188635
 20
809.3279262382003
 30
0.0
 11
610.8183819188635
 21
810.3029262382005
 31
0.0
  0
LINE
  5
97E8
330
18
100
AcDbEntity
  8
0
100
AcDbLine
 10
610.4683819188636
 20
809.3279262382003
 30
0.0
 11
610.8183819188635
 21
809.3279262382003
 31
0.0
  0
LINE
  5
97E9
330
18
100
AcDbEntity
  8
0
100
AcDbLine
 10
610.8183819188635
 20
809.1029262382004
 30
0.0
 11
610.4683819188636
 21
809.1029262382004
 31
0.0
  0
LINE
  5
97EA
330
18
100
AcDbEntity
  8
0
100
AcDbLine
 10
610.4683819188636
 20
808.1279262382002
 30
0.0
 11
610.8183819188635
 21
808.1279262382002
 31
0.0
  0
LINE
  5
97EB
330
18
100
AcDbEntity
  8
0
100
AcDbLine
 10
610.4683819188636
 20
809.1029262382004
 30
0.0
 11
610.4683819188636
 21
808.1279262382002
 31
0.0
  0
LINE
  5
97EC
330
18
100
AcDbEntity
  8
0
100
AcDbLine
 10
610.8183819188635
 20
808.1279262382002
 30
0.0
 11
610.8183819188635
 21
809.1029262382004
 31
0.0
  0
LINE
  5
97ED
330
18
100
AcDbEntity
  8
0
100
AcDbLine
 10
610.4933819188633
 20
811.7779262382004
 30
0.0
 11
610.8433819188636
 21
811.7779262382004
 31
0.0
  0
LINE
  5
97EE
330
18
100
AcDbEntity
  8
0
100
AcDbLine
 10
610.8433819188636
 20
811.5029262382003
 30
0.0
 11
610.4933819188633
 21
811.5029262382003
 31
0.0
  0
LINE
  5
97EF
330
18
100
AcDbEntity
  8
0
100
AcDbLine
 10
610.4933819188633
 20
811.5029262382003
 30
0.0
 11
610.4933819188633
 21
810.5279262382003
 31
0.0
  0
LINE
  5
97F0
330
18
100
AcDbEntity
  8
0
100
AcDbLine
 10
610.4933819188633
 20
810.5279262382003
 30
0.0
 11
610.8433819188636
 21
810.5279262382003
 31
0.0
  0
LINE
  5
97F1
330
18
100
AcDbEntity
  8
0
100
AcDbLine
 10
610.8433819188636
 20
810.5279262382003
 30
0.0
 11
610.8433819188636
 21
811.5029262382003
 31
0.0
  0
LINE
  5
97F2
330
18
100
AcDbEntity
  8
0
100
AcDbLine
 10
610.8183819188635
 20
810.3029262382005
 30
0.0
 11
610.4683819188636
 21
810.3029262382005
 31
0.0
  0
LINE
  5
97F3
330
18
100
AcDbEntity
  8
0
100
AcDbLine
 10
610.8433819188636
 20
813.9279262382004
 30
0.0
 11
610.4933819188633
 21
813.9279262382004
 31
0.0
  0
LINE
  5
97F4
330
18
100
AcDbEntity
  8
0
100
AcDbLine
 10
610.4933819188633
 20
814.2279262382004
 30
0.0
 11
610.8433819188636
 21
814.2279262382004
 31
0.0
  0
LINE
  5
97F5
330
18
100
AcDbEntity
  8
0
100
AcDbLine
 10
610.4933819188633
 20
812.9529262382003
 30
0.0
 11
610.8433819188636
 21
812.9529262382003
 31
0.0
  0
LINE
  5
97F6
330
18
100
AcDbEntity
  8
0
100
AcDbLine
 10
610.8433819188636
 20
812.7529262382003
 30
0.0
 11
610.4933819188633
 21
812.7529262382003
 31
0.0
  0
LINE
  5
97F7
330
18
100
AcDbEntity
  8
0
100
AcDbLine
 10
610.4933819188633
 20
813.9279262382004
 30
0.0
 11
610.4933819188633
 21
812.9529262382003
 31
0.0
  0
LINE
  5
97F8
330
18
100
AcDbEntity
  8
0
100
AcDbLine
 10
610.8433819188636
 20
812.9529262382003
 30
0.0
 11
610.8433819188636
 21
813.9279262382004
 31
0.0
  0
LINE
  5
97F9
330
18
100
AcDbEntity
  8
0
100
AcDbLine
 10
610.5183819188638
 20
805.0029262382002
 30
0.0
 11
614.2183819188637
 21
805.9779262382004
 31
0.0
  0
CIRCLE
  5
97FA
330
18
100
AcDbEntity
  8
0
100
AcDbCircle
 10
589.8933819188633
 20
886.1529262382005
 30
0.0
 40
4.0
  0
CIRCLE
  5
97FB
330
18
100
AcDbEntity
  8
0
100
AcDbCircle
 10
589.8933819188633
 20
886.1529262382005
 30
0.0
 40
3.333333333333333
  0
LINE
  5
97FC
330
18
100
AcDbEntity
  8
0
100
AcDbLine
 10
587.3113930213922
 20
886.819592904867
 30
0.0
 11
589.2267152521968
 21
886.819592904867
 31
0.0
  0
LINE
  5
97FD
330
18
100
AcDbEntity
  8
0
100
AcDbLine
 10
587.3113930213922
 20
885.4862595715337
 30
0.0
 11
589.2267152521968
 21
885.4862595715337
 31
0.0
  0
LINE
  5
97FE
330
18
100
AcDbEntity
  8
0
100
AcDbLine
 10
565.2933819188639
 20
848.6529262382003
 30
0.0
 11
565.2933819188639
 21
857.6529262382004
 31
0.0
  0
CIRCLE
  5
97FF
330
18
100
AcDbEntity
  8
0
100
AcDbCircle
 10
573.2933819188635
 20
853.1529262382001
 30
0.0
 40
4.0
  0
LINE
  5
9800
330
18
100
AcDbEntity
  8
0
100
AcDbLine
 10
581.2933819188639
 20
848.6529262382003
 30
0.0
 11
581.2933819188639
 21
857.6529262382004
 31
0.0
  0
TEXT
  5
9801
330
18
100
AcDbEntity
  8
0
 48
5.0
100
AcDbText
 10
555.8415599786927
 20
850.7631291753767
 30
0.0
 40
5.0
  1
R
 41
1.199999999999999
  7
MSｺﾞｼｯｸ
 11
555.8415599786927
 21
853.2631291753768
 31
0.0
100
AcDbText
 73
     2
  0
LINE
  5
9802
330
18
100
AcDbEntity
  8
0
100
AcDbLine
 10
562.7933819188639
 20
846.6529262382003
 30
0.0
 11
583.7933819188639
 21
846.6529262382003
 31
0.0
  0
LINE
  5
9803
330
18
100
AcDbEntity
  8
0
100
AcDbLine
 10
562.7933819188639
 20
848.6529262382003
 30
0.0
 11
583.7933819188639
 21
848.6529262382003
 31
0.0
  0
LINE
  5
9804
330
18
100
AcDbEntity
  8
0
100
AcDbLine
 10
562.7933819188639
 20
835.6529262382004
 30
0.0
 11
583.7933819188639
 21
835.6529262382004
 31
0.0
  0
LINE
  5
9805
330
18
100
AcDbEntity
  8
0
100
AcDbLine
 10
562.7933819188639
 20
837.6529262382003
 30
0.0
 11
583.7933819188639
 21
837.6529262382003
 31
0.0
  0
LINE
  5
9806
330
18
100
AcDbEntity
  8
0
100
AcDbLine
 10
562.7933819188634
 20
815.6529262382004
 30
0.0
 11
583.7933819188634
 21
815.6529262382004
 31
0.0
  0
LINE
  5
9807
330
18
100
AcDbEntity
  8
0
100
AcDbLine
 10
562.7933819188639
 20
826.6529262382004
 30
0.0
 11
583.7933819188639
 21
826.6529262382004
 31
0.0
  0
LINE
  5
9808
330
18
100
AcDbEntity
  8
0
100
AcDbLine
 10
562.7933819188634
 20
824.6529262382004
 30
0.0
 11
583.7933819188634
 21
824.6529262382004
 31
0.0
  0
LINE
  5
9809
330
18
100
AcDbEntity
  8
0
100
AcDbLine
 10
565.2933819188639
 20
826.6529262382004
 30
0.0
 11
565.2933819188639
 21
835.6529262382004
 31
0.0
  0
TEXT
  5
980A
330
18
100
AcDbEntity
  8
0
 48
5.0
100
AcDbText
 10
555.8415599786927
 20
828.7631291753765
 30
0.0
 40
5.0
  1
T
 41
1.199999999999999
  7
MSｺﾞｼｯｸ
 11
555.8415599786927
 21
831.2631291753765
 31
0.0
100
AcDbText
 73
     2
  0
TEXT
  5
980B
330
18
100
AcDbEntity
  8
0
 48
5.0
100
AcDbText
 10
553.8615195715193
 20
817.7631291753765
 30
0.0
 40
5.0
  1
B1
 41
1.199999999999999
  7
MSｺﾞｼｯｸ
 11
553.8615195715193
 21
820.2631291753766
 31
0.0
100
AcDbText
 73
     2
  0
LINE
  5
980C
330
18
100
AcDbEntity
  8
0
100
AcDbLine
 10
565.2933819188639
 20
815.6529262382004
 30
0.0
 11
565.2933819188639
 21
824.6529262382004
 31
0.0
  0
LINE
  5
980D
330
18
100
AcDbEntity
  8
0
100
AcDbLine
 10
562.7933819188639
 20
824.6529262382004
 30
0.0
 11
562.7933819188639
 21
826.6529262382004
 31
0.0
  0
TEXT
  5
980E
330
18
100
AcDbEntity
  8
0
 48
5.0
100
AcDbText
 10
555.8415599786927
 20
839.7631291753768
 30
0.0
 40
5.0
  1
S
 41
1.199999999999999
  7
MSｺﾞｼｯｸ
 11
555.8415599786927
 21
842.2631291753768
 31
0.0
100
AcDbText
 73
     2
  0
LINE
  5
980F
330
18
100
AcDbEntity
  8
0
100
AcDbLine
 10
565.2933819188639
 20
837.6529262382003
 30
0.0
 11
565.2933819188639
 21
846.6529262382003
 31
0.0
  0
LINE
  5
9810
330
18
100
AcDbEntity
  8
0
100
AcDbLine
 10
562.7933819188639
 20
835.6529262382004
 30
0.0
 11
562.7933819188639
 21
837.6529262382003
 31
0.0
  0
LINE
  5
9811
330
18
100
AcDbEntity
  8
0
100
AcDbLine
 10
562.7933819188639
 20
846.6529262382003
 30
0.0
 11
562.7933819188639
 21
848.6529262382003
 31
0.0
  0
CIRCLE
  5
9812
330
18
100
AcDbEntity
  8
0
100
AcDbCircle
 10
573.2933819188635
 20
831.1529262382
 30
0.0
 40
4.0
  0
LINE
  5
9813
330
18
100
AcDbEntity
  8
0
100
AcDbLine
 10
581.2933819188639
 20
826.6529262382004
 30
0.0
 11
581.2933819188639
 21
835.6529262382004
 31
0.0
  0
CIRCLE
  5
9814
330
18
100
AcDbEntity
  8
0
100
AcDbCircle
 10
573.2933819188635
 20
820.1529262382001
 30
0.0
 40
4.0
  0
LINE
  5
9815
330
18
100
AcDbEntity
  8
0
100
AcDbLine
 10
581.2933819188639
 20
815.6529262382004
 30
0.0
 11
581.2933819188639
 21
824.6529262382004
 31
0.0
  0
LINE
  5
9816
330
18
100
AcDbEntity
  8
0
100
AcDbLine
 10
583.7933819188639
 20
818.1529262382003
 30
0.0
 11
581.2933819188635
 21
818.1529262382003
 31
0.0
  0
LINE
  5
9817
330
18
100
AcDbEntity
  8
0
100
AcDbLine
 10
583.7933819188639
 20
822.1529262382004
 30
0.0
 11
581.2933819188635
 21
822.1529262382007
 31
0.0
  0
ARC
  5
9818
330
18
100
AcDbEntity
  8
0
100
AcDbCircle
 10
586.2933819188635
 20
820.1529262382001
 30
0.0
 40
1.0
100
AcDbArc
 50
270.0
 51
300.0000000000005
  0
LINE
  5
9819
330
18
100
AcDbEntity
  8
0
100
AcDbLine
 10
585.3933819188633
 20
819.1529262382003
 30
0.0
 11
586.2933819188635
 21
819.1529262382003
 31
0.0
  0
LINE
  5
981A
330
18
100
AcDbEntity
  8
0
100
AcDbLine
 10
585.3933819188633
 20
821.1529262382004
 30
0.0
 11
586.2933819188635
 21
821.1529262382004
 31
0.0
  0
ARC
  5
981B
330
18
100
AcDbEntity
  8
0
100
AcDbCircle
 10
586.2933819188635
 20
820.1529262382001
 30
0.0
 40
1.0
100
AcDbArc
 50
59.99999999999946
 51
90.0
  0
LINE
  5
981C
330
18
100
AcDbEntity
  8
0
100
AcDbLine
 10
583.7933819188643
 20
819.1529262382003
 30
0.0
 11
583.7933819188639
 21
818.1529262382003
 31
0.0
  0
LINE
  5
981D
330
18
100
AcDbEntity
  8
0
100
AcDbLine
 10
583.7933819188639
 20
822.1529262382004
 30
0.0
 11
583.7933819188639
 21
821.1529262382004
 31
0.0
  0
LINE
  5
981E
330
18
100
AcDbEntity
  8
0
100
AcDbLine
 10
583.7933819188639
 20
829.1529262382004
 30
0.0
 11
581.2933819188639
 21
829.1529262382004
 31
0.0
  0
LINE
  5
981F
330
18
100
AcDbEntity
  8
0
100
AcDbLine
 10
583.7933819188639
 20
833.1529262382003
 30
0.0
 11
581.2933819188639
 21
833.1529262382009
 31
0.0
  0
ARC
  5
9820
330
18
100
AcDbEntity
  8
0
100
AcDbCircle
 10
586.2933819188635
 20
831.1529262382
 30
0.0
 40
1.0
100
AcDbArc
 50
270.0
 51
300.0000000000005
  0
LINE
  5
9821
330
18
100
AcDbEntity
  8
0
100
AcDbLine
 10
585.3933819188633
 20
830.1529262382004
 30
0.0
 11
586.2933819188635
 21
830.1529262382004
 31
0.0
  0
LINE
  5
9822
330
18
100
AcDbEntity
  8
0
100
AcDbLine
 10
585.3933819188633
 20
832.1529262382005
 30
0.0
 11
586.2933819188635
 21
832.1529262382004
 31
0.0
  0
ARC
  5
9823
330
18
100
AcDbEntity
  8
0
100
AcDbCircle
 10
586.2933819188635
 20
831.1529262382
 30
0.0
 40
1.0
100
AcDbArc
 50
59.99999999999946
 51
90.0
  0
LINE
  5
9824
330
18
100
AcDbEntity
  8
0
100
AcDbLine
 10
583.7933819188643
 20
830.1529262382004
 30
0.0
 11
583.7933819188639
 21
829.1529262382004
 31
0.0
  0
LINE
  5
9825
330
18
100
AcDbEntity
  8
0
100
AcDbLine
 10
583.7933819188639
 20
833.1529262382003
 30
0.0
 11
583.7933819188639
 21
832.1529262382004
 31
0.0
  0
LINE
  5
9826
330
18
100
AcDbEntity
  8
0
100
AcDbLine
 10
583.7933819188634
 20
824.6529262382004
 30
0.0
 11
583.7933819188639
 21
826.6529262382004
 31
0.0
  0
CIRCLE
  5
9827
330
18
100
AcDbEntity
  8
0
100
AcDbCircle
 10
573.2933819188635
 20
842.1529262382
 30
0.0
 40
4.0
  0
LINE
  5
9828
330
18
100
AcDbEntity
  8
0
100
AcDbLine
 10
583.7933819188639
 20
844.1529262382003
 30
0.0
 11
583.7933819188639
 21
843.1529262382003
 31
0.0
  0
LINE
  5
9829
330
18
100
AcDbEntity
  8
0
100
AcDbLine
 10
581.2933819188639
 20
837.6529262382003
 30
0.0
 11
581.2933819188639
 21
846.6529262382003
 31
0.0
  0
LINE
  5
982A
330
18
100
AcDbEntity
  8
0
100
AcDbLine
 10
583.7933819188639
 20
840.1529262382004
 30
0.0
 11
581.2933819188639
 21
840.1529262382004
 31
0.0
  0
ARC
  5
982B
330
18
100
AcDbEntity
  8
0
100
AcDbCircle
 10
586.2933819188635
 20
842.1529262382
 30
0.0
 40
1.0
100
AcDbArc
 50
270.0
 51
300.0000000000005
  0
LINE
  5
982C
330
18
100
AcDbEntity
  8
0
100
AcDbLine
 10
585.3933819188633
 20
841.1529262382003
 30
0.0
 11
586.2933819188635
 21
841.1529262382003
 31
0.0
  0
LINE
  5
982D
330
18
100
AcDbEntity
  8
0
100
AcDbLine
 10
585.3933819188633
 20
843.1529262382003
 30
0.0
 11
586.2933819188635
 21
843.1529262382003
 31
0.0
  0
ARC
  5
982E
330
18
100
AcDbEntity
  8
0
100
AcDbCircle
 10
586.2933819188635
 20
842.1529262382
 30
0.0
 40
1.0
100
AcDbArc
 50
59.99999999999946
 51
90.0
  0
LINE
  5
982F
330
18
100
AcDbEntity
  8
0
100
AcDbLine
 10
583.7933819188643
 20
841.1529262382003
 30
0.0
 11
583.7933819188639
 21
840.1529262382004
 31
0.0
  0
LINE
  5
9830
330
18
100
AcDbEntity
  8
0
100
AcDbLine
 10
583.7933819188639
 20
835.6529262382004
 30
0.0
 11
583.7933819188639
 21
837.6529262382003
 31
0.0
  0
LINE
  5
9831
330
18
100
AcDbEntity
  8
0
100
AcDbLine
 10
583.7933819188639
 20
851.1529262382003
 30
0.0
 11
581.2933819188639
 21
851.1529262382003
 31
0.0
  0
LINE
  5
9832
330
18
100
AcDbEntity
  8
0
100
AcDbLine
 10
583.7933819188639
 20
844.1529262382003
 30
0.0
 11
581.2933819188639
 21
844.1529262382008
 31
0.0
  0
ARC
  5
9833
330
18
100
AcDbEntity
  8
0
100
AcDbCircle
 10
586.2933819188635
 20
853.1529262382001
 30
0.0
 40
1.0
100
AcDbArc
 50
270.0
 51
300.0000000000005
  0
LINE
  5
9834
330
18
100
AcDbEntity
  8
0
100
AcDbLine
 10
585.3933819188633
 20
852.1529262382005
 30
0.0
 11
586.2933819188635
 21
852.1529262382003
 31
0.0
  0
LINE
  5
9835
330
18
100
AcDbEntity
  8
0
100
AcDbLine
 10
583.7933819188639
 20
846.6529262382003
 30
0.0
 11
583.7933819188639
 21
848.6529262382003
 31
0.0
  0
LINE
  5
9836
330
18
100
AcDbEntity
  8
0
100
AcDbLine
 10
583.7933819188643
 20
852.1529262382003
 30
0.0
 11
583.7933819188639
 21
851.1529262382003
 31
0.0
  0
LINE
  5
9837
330
18
100
AcDbEntity
  8
0
100
AcDbLine
 10
562.7933819188639
 20
857.6529262382004
 30
0.0
 11
583.7933819188639
 21
857.6529262382004
 31
0.0
  0
LINE
  5
9838
330
18
100
AcDbEntity
  8
0
100
AcDbLine
 10
562.7933819188639
 20
859.6529262382004
 30
0.0
 11
583.7933819188639
 21
859.6529262382004
 31
0.0
  0
LINE
  5
9839
330
18
100
AcDbEntity
  8
0
100
AcDbLine
 10
565.2933819188639
 20
859.9529262382006
 30
0.0
 11
581.2933819188639
 21
859.9529262381997
 31
0.0
  0
LINE
  5
983A
330
18
100
AcDbEntity
  8
0
100
AcDbLine
 10
586.7933819188634
 20
861.1529262382005
 30
0.0
 11
561.7933819188634
 21
861.1529262382005
 31
0.0
  0
TEXT
  5
983B
330
18
100
AcDbEntity
  8
0
 48
5.0
100
AcDbText
 10
554.8898530794033
 20
861.9033956277879
 30
0.0
 40
3.0
  1
TB2
  7
MSｺﾞｼｯｸ
 72
     2
 11
560.737568815444
 21
863.403395627788
 31
0.0
100
AcDbText
 73
     2
  0
LINE
  5
983C
330
18
100
AcDbEntity
  8
0
100
AcDbLine
 10
562.7933819188639
 20
857.6529262382004
 30
0.0
 11
562.7933819188639
 21
859.6529262382004
 31
0.0
  0
LINE
  5
983D
330
18
100
AcDbEntity
  8
0
100
AcDbLine
 10
565.2933819188639
 20
859.6529262382004
 30
0.0
 11
565.2933819188639
 21
859.9529262382006
 31
0.0
  0
ARC
  5
983E
330
18
100
AcDbEntity
  8
0
100
AcDbCircle
 10
563.7933819188634
 20
870.4029262382004
 30
0.0
 40
2.0
100
AcDbArc
 50
270.0
 51
0.0
  0
TEXT
  5
983F
330
18
100
AcDbEntity
  8
0
100
AcDbText
 10
551.8568336955133
 20
878.9029514085189
 30
0.0
 40
2.5
  1
ENT
  7
MSｺﾞｼｯｸ
 72
     1
 11
554.2933819188634
 21
880.152951408519
 31
0.0
100
AcDbText
 73
     2
  0
HATCH
  5
9840
330
18
100
AcDbEntity
  8
0
100
AcDbHatch
 10
0.0
 20
0.0
 30
0.0
210
0.0
220
0.0
230
1.0
  2
SOLID
 70
     1
 71
     0
 91
        2
 92
        7
 72
     1
 73
     1
 93
        8
 10
551.2933819188634
 20
884.1529514085189
 42
0.4142135623730951
 10
550.2933819188634
 20
883.152951408519
 42
0.0
 10
550.2933819188634
 20
877.1529514085189
 42
0.4142135623730951
 10
551.2933819188634
 20
876.1529514085189
 42
0.0
 10
557.2933819188635
 20
876.1529514085189
 42
0.4142135623730951
 10
558.2933819188634
 20
877.1529514085189
 42
0.0
 10
558.2933819188634
 20
883.152951408519
 42
0.4142135623730951
 10
557.2933819188635
 20
884.1529514085189
 42
0.0
 97
        0
 92
       22
 72
     1
 73
     1
 93
        8
 10
557.2933819188635
 20
883.652951408519
 42
-0.4142135623730951
 10
557.7933819188634
 20
883.152951408519
 42
0.0
 10
557.7933819188634
 20
877.1529514085189
 42
-0.4142135623730951
 10
557.2933819188635
 20
876.652951408519
 42
0.0
 10
551.2933819188634
 20
876.652951408519
 42
-0.4142135623730951
 10
550.7933819188634
 20
877.1529514085189
 42
0.0
 10
550.7933819188634
 20
883.152951408519
 42
-0.4142135623730951
 10
551.2933819188634
 20
883.652951408519
 42
0.0
 97
        0
 75
     0
 76
     1
 47
0.0112091961687951
 98
        2
 10
555.6258054614987
 20
883.8839422784543
 10
555.6258054614987
 20
883.8839422784543
  0
LWPOLYLINE
  5
9841
330
18
100
AcDbEntity
  8
0
100
AcDbPolyline
 90
        8
 70
     1
 43
0.0
 10
558.2933819188634
 20
883.152951408519
 10
558.2933819188634
 20
877.1529514085189
 42
-0.4142135623730951
 10
557.2933819188635
 20
876.1529514085189
 10
551.2933819188634
 20
876.1529514085189
 42
-0.4142135623730951
 10
550.2933819188634
 20
877.1529514085189
 10
550.2933819188634
 20
883.152951408519
 42
-0.4142135623730951
 10
551.2933819188634
 20
884.1529514085189
 10
557.2933819188635
 20
884.1529514085189
 42
-0.4142135623730951
  0
LWPOLYLINE
  5
9842
330
18
100
AcDbEntity
  8
0
100
AcDbPolyline
 90
        8
 70
     1
 43
0.0
 10
557.7933819188634
 20
883.152951408519
 10
557.7933819188634
 20
877.1529514085189
 42
-0.4142135623730951
 10
557.2933819188635
 20
876.652951408519
 10
551.2933819188634
 20
876.652951408519
 42
-0.4142135623730951
 10
550.7933819188634
 20
877.1529514085189
 10
550.7933819188634
 20
883.152951408519
 42
-0.4142135623730951
 10
551.2933819188634
 20
883.652951408519
 10
557.2933819188635
 20
883.652951408519
 42
-0.4142135623730951
  0
LINE
  5
9843
330
18
100
AcDbEntity
  8
0
100
AcDbLine
 10
583.7933819188639
 20
855.1529262382004
 30
0.0
 11
581.2933819188639
 21
855.1529262382008
 31
0.0
  0
LINE
  5
9844
330
18
100
AcDbEntity
  8
0
100
AcDbLine
 10
581.2933819188639
 20
859.6529262382004
 30
0.0
 11
581.2933819188639
 21
859.9529262381997
 31
0.0
  0
LINE
  5
9845
330
18
100
AcDbEntity
  8
0
100
AcDbLine
 10
585.3933819188633
 20
854.1529262382002
 30
0.0
 11
586.2933819188635
 21
854.1529262382004
 31
0.0
  0
ARC
  5
9846
330
18
100
AcDbEntity
  8
0
100
AcDbCircle
 10
586.2933819188635
 20
853.1529262382001
 30
0.0
 40
1.0
100
AcDbArc
 50
59.99999999999946
 51
90.0
  0
LINE
  5
9847
330
18
100
AcDbEntity
  8
0
100
AcDbLine
 10
583.7933819188639
 20
857.6529262382004
 30
0.0
 11
583.7933819188639
 21
859.6529262382004
 31
0.0
  0
LINE
  5
9848
330
18
100
AcDbEntity
  8
0
100
AcDbLine
 10
583.7933819188639
 20
855.1529262382004
 30
0.0
 11
583.7933819188639
 21
854.1529262382004
 31
0.0
  0
ARC
  5
9849
330
18
100
AcDbEntity
  8
0
100
AcDbCircle
 10
589.8933819188633
 20
886.1529262382005
 30
0.0
 40
2.666666666666666
100
AcDbArc
 50
165.5224878140697
 51
194.4775121859302
  0
ELLIPSE
  5
984A
330
18
100
AcDbEntity
  8
0
100
AcDbEllipse
 10
610.2433819188632
 20
854.4279262382005
 30
0.0
 11
0.0
 21
1.25
 31
0.0
210
0.0
220
0.0
230
1.0
 40
0.98
 41
1.708854999999999
 42
3.380894
  0
LINE
  5
984B
330
18
100
AcDbEntity
  8
0
100
AcDbLine
 10
610.5183819188638
 20
853.1779262382004
 30
0.0
 11
614.2183819188637
 21
854.1529262382004
 31
0.0
  0
LINE
  5
984C
330
18
100
AcDbEntity
  8
0
100
AcDbLine
 10
607.4683819188636
 20
874.1529262382004
 30
0.0
 11
607.4683819188636
 21
845.4779262382004
 31
0.0
  0
LINE
  5
984D
330
18
100
AcDbEntity
  8
0
100
AcDbLine
 10
616.6933819188635
 20
845.4779262382004
 30
0.0
 11
616.6933819188635
 21
874.1529262382004
 31
0.0
  0
LINE
  5
984E
330
18
100
AcDbEntity
  8
0
100
AcDbLine
 10
604.2933819188634
 20
845.6529262382003
 30
0.0
 11
604.2933819188634
 21
891.6529262382006
 31
0.0
  0
LINE
  5
984F
330
18
100
AcDbEntity
  8
0
100
AcDbLine
 10
602.9121491596912
 20
874.0585756955601
 30
0.0
 11
602.9121491596912
 21
848.0585756955601
 31
0.0
  0
LINE
  5
9850
330
18
100
AcDbEntity
  8
0
100
AcDbLine
 10
596.9121491596912
 20
848.0585756955601
 30
0.0
 11
596.9121491596912
 21
874.0585756955601
 31
0.0
  0
LINE
  5
9851
330
18
100
AcDbEntity
  8
0
100
AcDbLine
 10
610.3933819188638
 20
849.6779262382004
 30
0.0
 11
608.2683819188638
 21
849.6779262382004
 31
0.0
  0
LINE
  5
9852
330
18
100
AcDbEntity
  8
0
100
AcDbLine
 10
615.8933819188638
 20
851.7529262382003
 30
0.0
 11
608.2683819188638
 21
851.7529262382003
 31
0.0
  0
ELLIPSE
  5
9853
330
18
100
AcDbEntity
  8
0
100
AcDbEllipse
 10
610.2433819188632
 20
822.1779262382005
 30
0.0
 11
0.0
 21
1.25
 31
0.0
210
0.0
220
0.0
230
1.0
 40
0.98
 41
6.03468
 42
8.053399307179585
  0
LINE
  5
9854
330
18
100
AcDbEntity
  8
0
100
AcDbLine
 10
610.3933819188638
 20
827.0529262382005
 30
0.0
 11
608.2683819188638
 21
827.0529262382005
 31
0.0
  0
LINE
  5
9855
330
18
100
AcDbEntity
  8
0
100
AcDbLine
 10
607.4683819188636
 20
845.4779262382004
 30
0.0
 11
616.6933819188635
 21
845.4779262382004
 31
0.0
  0
LINE
  5
9856
330
18
100
AcDbEntity
  8
0
100
AcDbLine
 10
616.6933819188635
 20
830.6529262382003
 30
0.0
 11
607.4683819188636
 21
830.6529262382003
 31
0.0
  0
LINE
  5
9857
330
18
100
AcDbEntity
  8
0
100
AcDbLine
 10
615.8933819188638
 20
824.9779262382004
 30
0.0
 11
608.2683819188638
 21
824.9779262382004
 31
0.0
  0
LINE
  5
9858
330
18
100
AcDbEntity
  8
0
100
AcDbLine
 10
600.6933819188636
 20
844.1529262382003
 30
0.0
 11
615.6933819188635
 21
844.1529262382003
 31
0.0
  0
LINE
  5
9859
330
18
100
AcDbEntity
  8
0
100
AcDbLine
 10
615.6933819188635
 20
831.1529262382004
 30
0.0
 11
600.6933819188636
 21
831.1529262382004
 31
0.0
  0
LINE
  5
985A
330
18
100
AcDbEntity
  8
0
100
AcDbLine
 10
606.6933819188635
 20
844.1529262382003
 30
0.0
 11
606.6933819188635
 21
831.1529262382004
 31
0.0
  0
LINE
  5
985B
330
18
100
AcDbEntity
  8
0
100
AcDbLine
 10
600.2933819188634
 20
832.1529262382004
 30
0.0
 11
600.2933819188634
 21
836.1529262382003
 31
0.0
  0
LINE
  5
985C
330
18
100
AcDbEntity
  8
0
100
AcDbLine
 10
603.6933819188635
 20
843.1529262382003
 30
0.0
 11
603.6933819188635
 21
832.1529262382004
 31
0.0
  0
LINE
  5
985D
330
18
100
AcDbEntity
  8
0
100
AcDbLine
 10
600.6933819188636
 20
831.1529262382004
 30
0.0
 11
600.6933819188636
 21
844.1529262382003
 31
0.0
  0
LINE
  5
985E
330
18
100
AcDbEntity
  8
0
100
AcDbLine
 10
601.6933819188635
 20
832.1529262382004
 30
0.0
 11
601.6933819188635
 21
843.1529262382003
 31
0.0
  0
LINE
  5
985F
330
18
100
AcDbEntity
  8
0
100
AcDbLine
 10
599.2933819188634
 20
829.1529262382004
 30
0.0
 11
599.2933819188634
 21
845.6529262382003
 31
0.0
  0
LINE
  5
9860
330
18
100
AcDbEntity
  8
0
100
AcDbLine
 10
603.6933819188635
 20
833.1529262382003
 30
0.0
 11
603.6933819188635
 21
834.1529262382003
 31
0.0
  0
LINE
  5
9861
330
18
100
AcDbEntity
  8
0
100
AcDbLine
 10
604.2433819188633
 20
834.1529262382003
 30
0.0
 11
604.2433819188633
 21
833.1529262382003
 31
0.0
  0
LINE
  5
9862
330
18
100
AcDbEntity
  8
0
100
AcDbLine
 10
604.2433819188633
 20
833.1529262382003
 30
0.0
 11
603.6933819188635
 21
833.1529262382003
 31
0.0
  0
LINE
  5
9863
330
18
100
AcDbEntity
  8
0
100
AcDbLine
 10
601.6933819188635
 20
830.8029262382005
 30
0.0
 11
605.6933819188635
 21
830.8029262382005
 31
0.0
  0
LINE
  5
9864
330
18
100
AcDbEntity
  8
0
100
AcDbLine
 10
599.2933819188626
 20
829.1529262382004
 30
0.0
 11
604.2933819188625
 21
829.1529262382004
 31
0.0
  0
LINE
  5
9865
330
18
100
AcDbEntity
  8
0
100
AcDbLine
 10
603.6933819188635
 20
832.1529262382004
 30
0.0
 11
601.6933819188635
 21
832.1529262382004
 31
0.0
  0
LINE
  5
9866
330
18
100
AcDbEntity
  8
0
100
AcDbLine
 10
608.2683819188638
 20
827.0529262382005
 30
0.0
 11
608.2683819188638
 21
824.9779262382004
 31
0.0
  0
LINE
  5
9867
330
18
100
AcDbEntity
  8
0
100
AcDbLine
 10
602.9121491596912
 20
848.0585756955601
 30
0.0
 11
596.9121491596912
 21
848.0585756955601
 31
0.0
  0
TEXT
  5
9868
330
18
100
AcDbEntity
  8
0
100
AcDbText
 10
592.9692164203294
 20
836.4187601605706
 30
0.0
 40
2.0
  1
Ｊ２
  7
MSｺﾞｼｯｸ
100
AcDbText
  0
LINE
  5
9869
330
18
100
AcDbEntity
  8
0
100
AcDbLine
 10
603.6933819188635
 20
834.1529262382003
 30
0.0
 11
604.2433819188633
 21
834.1529262382003
 31
0.0
  0
LINE
  5
986A
330
18
100
AcDbEntity
  8
0
100
AcDbLine
 10
604.2433819188633
 20
841.1529262382003
 30
0.0
 11
603.6933819188635
 21
841.1529262382003
 31
0.0
  0
LINE
  5
986B
330
18
100
AcDbEntity
  8
0
100
AcDbLine
 10
603.6933819188635
 20
842.1529262382003
 30
0.0
 11
604.2433819188633
 21
842.1529262382003
 31
0.0
  0
LINE
  5
986C
330
18
100
AcDbEntity
  8
0
100
AcDbLine
 10
604.2433819188633
 20
838.7529262382004
 30
0.0
 11
603.6933819188635
 21
838.7529262382004
 31
0.0
  0
LINE
  5
986D
330
18
100
AcDbEntity
  8
0
100
AcDbLine
 10
603.6933819188635
 20
839.7529262382004
 30
0.0
 11
604.2433819188633
 21
839.7529262382004
 31
0.0
  0
LINE
  5
986E
330
18
100
AcDbEntity
  8
0
100
AcDbLine
 10
604.2433819188633
 20
835.5529262382004
 30
0.0
 11
603.6933819188635
 21
835.5529262382004
 31
0.0
  0
LINE
  5
986F
330
18
100
AcDbEntity
  8
0
100
AcDbLine
 10
603.6933819188635
 20
836.5529262382004
 30
0.0
 11
604.2433819188633
 21
836.5529262382004
 31
0.0
  0
LINE
  5
9870
330
18
100
AcDbEntity
  8
0
100
AcDbLine
 10
600.2933819188634
 20
843.1529262382003
 30
0.0
 11
600.2933819188634
 21
839.1529262382004
 31
0.0
  0
LINE
  5
9871
330
18
100
AcDbEntity
  8
0
100
AcDbLine
 10
603.6933819188635
 20
841.1529262382003
 30
0.0
 11
603.6933819188635
 21
842.1529262382003
 31
0.0
  0
LINE
  5
9872
330
18
100
AcDbEntity
  8
0
100
AcDbLine
 10
603.6933819188635
 20
838.7529262382004
 30
0.0
 11
603.6933819188635
 21
839.7529262382004
 31
0.0
  0
LINE
  5
9873
330
18
100
AcDbEntity
  8
0
100
AcDbLine
 10
601.6933819188635
 20
843.1529262382003
 30
0.0
 11
603.6933819188635
 21
843.1529262382003
 31
0.0
  0
LINE
  5
9874
330
18
100
AcDbEntity
  8
0
100
AcDbLine
 10
603.6933819188635
 20
835.5529262382004
 30
0.0
 11
603.6933819188635
 21
836.5529262382004
 31
0.0
  0
LINE
  5
9875
330
18
100
AcDbEntity
  8
0
100
AcDbLine
 10
604.2433819188633
 20
842.1529262382003
 30
0.0
 11
604.2433819188633
 21
841.1529262382003
 31
0.0
  0
LINE
  5
9876
330
18
100
AcDbEntity
  8
0
100
AcDbLine
 10
604.2433819188633
 20
839.7529262382004
 30
0.0
 11
604.2433819188633
 21
838.7529262382004
 31
0.0
  0
LINE
  5
9877
330
18
100
AcDbEntity
  8
0
100
AcDbLine
 10
604.2433819188633
 20
836.5529262382004
 30
0.0
 11
604.2433819188633
 21
835.5529262382004
 31
0.0
  0
LINE
  5
9878
330
18
100
AcDbEntity
  8
0
100
AcDbLine
 10
601.6933819188635
 20
844.5779262382004
 30
0.0
 11
605.6933819188635
 21
844.5779262382004
 31
0.0
  0
LINE
  5
9879
330
18
100
AcDbEntity
  8
0
100
AcDbLine
 10
599.2933819188634
 20
845.6529262382003
 30
0.0
 11
604.2933819188634
 21
845.6529262382003
 31
0.0
  0
LINE
  5
987A
330
18
100
AcDbEntity
  8
0
100
AcDbLine
 10
608.2683819188638
 20
849.6779262382004
 30
0.0
 11
608.2683819188638
 21
851.7529262382003
 31
0.0
  0
LINE
  5
987B
330
18
100
AcDbEntity
  8
0
100
AcDbLine
 10
616.0933819188636
 20
832.1529262382004
 30
0.0
 11
616.0933819188636
 21
836.1529262382003
 31
0.0
  0
LINE
  5
987C
330
18
100
AcDbEntity
  8
0
100
AcDbLine
 10
615.6933819188635
 20
844.1529262382003
 30
0.0
 11
615.6933819188635
 21
831.1529262382004
 31
0.0
  0
LINE
  5
987D
330
18
100
AcDbEntity
  8
0
100
AcDbLine
 10
612.6933819188636
 20
843.1529262382003
 30
0.0
 11
612.6933819188636
 21
832.1529262382004
 31
0.0
  0
LINE
  5
987E
330
18
100
AcDbEntity
  8
0
100
AcDbLine
 10
613.2433819188633
 20
834.1529262382003
 30
0.0
 11
613.2433819188633
 21
833.1529262382003
 31
0.0
  0
LINE
  5
987F
330
18
100
AcDbEntity
  8
0
100
AcDbLine
 10
612.6933819188636
 20
833.1529262382003
 30
0.0
 11
612.6933819188636
 21
834.1529262382003
 31
0.0
  0
LINE
  5
9880
330
18
100
AcDbEntity
  8
0
100
AcDbLine
 10
609.6933819188635
 20
844.1529262382003
 30
0.0
 11
609.6933819188635
 21
831.1529262382004
 31
0.0
  0
LINE
  5
9881
330
18
100
AcDbEntity
  8
0
100
AcDbLine
 10
610.6933819188635
 20
832.1529262382004
 30
0.0
 11
610.6933819188635
 21
843.1529262382003
 31
0.0
  0
ELLIPSE
  5
9882
330
18
100
AcDbEntity
  8
0
100
AcDbEllipse
 10
613.9183819188635
 20
821.2529262382002
 30
0.0
 11
0.0
 21
1.25
 31
0.0
210
0.0
220
0.0
230
1.0
 40
0.98
 41
4.509903999999999
 42
6.059223999999999
  0
LINE
  5
9883
330
18
100
AcDbEntity
  8
0
100
AcDbLine
 10
613.6183819188633
 20
820.3029262382004
 30
0.0
 11
613.2683819188638
 21
820.3029262382004
 31
0.0
  0
LINE
  5
9884
330
18
100
AcDbEntity
  8
0
100
AcDbLine
 10
613.2683819188638
 20
819.3029262382005
 30
0.0
 11
613.6183819188633
 21
819.3029262382005
 31
0.0
  0
LINE
  5
9885
330
18
100
AcDbEntity
  8
0
100
AcDbLine
 10
613.6183819188633
 20
819.0279262382004
 30
0.0
 11
613.2683819188638
 21
819.0279262382004
 31
0.0
  0
LINE
  5
9886
330
18
100
AcDbEntity
  8
0
100
AcDbLine
 10
613.2683819188638
 20
820.3029262382004
 30
0.0
 11
613.2683819188638
 21
819.3029262382005
 31
0.0
  0
LINE
  5
9887
330
18
100
AcDbEntity
  8
0
100
AcDbLine
 10
613.6183819188633
 20
819.3029262382005
 30
0.0
 11
613.6183819188633
 21
820.3029262382004
 31
0.0
  0
LINE
  5
9888
330
18
100
AcDbEntity
  8
0
100
AcDbLine
 10
613.2683819188638
 20
818.0529262382005
 30
0.0
 11
613.6183819188633
 21
818.0529262382005
 31
0.0
  0
LINE
  5
9889
330
18
100
AcDbEntity
  8
0
100
AcDbLine
 10
613.6183819188633
 20
817.8029262382004
 30
0.0
 11
613.2683819188638
 21
817.8029262382004
 31
0.0
  0
LINE
  5
988A
330
18
100
AcDbEntity
  8
0
100
AcDbLine
 10
613.2683819188638
 20
819.0279262382004
 30
0.0
 11
613.2683819188638
 21
818.0529262382005
 31
0.0
  0
LINE
  5
988B
330
18
100
AcDbEntity
  8
0
100
AcDbLine
 10
613.6183819188633
 20
818.0529262382005
 30
0.0
 11
613.6183819188633
 21
819.0279262382004
 31
0.0
  0
LINE
  5
988C
330
18
100
AcDbEntity
  8
0
100
AcDbLine
 10
613.2683819188638
 20
816.8279262382004
 30
0.0
 11
613.6183819188633
 21
816.8279262382004
 31
0.0
  0
LINE
  5
988D
330
18
100
AcDbEntity
  8
0
100
AcDbLine
 10
613.6183819188633
 20
816.5279262382004
 30
0.0
 11
613.2683819188638
 21
816.5279262382004
 31
0.0
  0
LINE
  5
988E
330
18
100
AcDbEntity
  8
0
100
AcDbLine
 10
613.2683819188638
 20
816.5279262382004
 30
0.0
 11
613.2683819188638
 21
815.5779262382003
 31
0.0
  0
LINE
  5
988F
330
18
100
AcDbEntity
  8
0
100
AcDbLine
 10
613.2683819188638
 20
815.5779262382003
 30
0.0
 11
613.6183819188633
 21
815.5779262382003
 31
0.0
  0
LINE
  5
9890
330
18
100
AcDbEntity
  8
0
100
AcDbLine
 10
613.6183819188633
 20
815.5779262382003
 30
0.0
 11
613.6183819188633
 21
816.5279262382004
 31
0.0
  0
LINE
  5
9891
330
18
100
AcDbEntity
  8
0
100
AcDbLine
 10
613.6183819188633
 20
815.2029262382002
 30
0.0
 11
613.2683819188638
 21
815.2029262382002
 31
0.0
  0
LINE
  5
9892
330
18
100
AcDbEntity
  8
0
100
AcDbLine
 10
613.2683819188638
 20
817.8029262382004
 30
0.0
 11
613.2683819188638
 21
816.8279262382004
 31
0.0
  0
LINE
  5
9893
330
18
100
AcDbEntity
  8
0
100
AcDbLine
 10
613.6183819188633
 20
816.8279262382004
 30
0.0
 11
613.6183819188633
 21
817.8029262382004
 31
0.0
  0
LINE
  5
9894
330
18
100
AcDbEntity
  8
0
100
AcDbLine
 10
610.8433819188636
 20
820.3029262382004
 30
0.0
 11
610.4933819188633
 21
820.3029262382004
 31
0.0
  0
LINE
  5
9895
330
18
100
AcDbEntity
  8
0
100
AcDbLine
 10
610.4933819188633
 20
819.3029262382005
 30
0.0
 11
610.8433819188636
 21
819.3029262382005
 31
0.0
  0
LINE
  5
9896
330
18
100
AcDbEntity
  8
0
100
AcDbLine
 10
610.8433819188636
 20
819.0279262382004
 30
0.0
 11
610.4933819188633
 21
819.0279262382004
 31
0.0
  0
LINE
  5
9897
330
18
100
AcDbEntity
  8
0
100
AcDbLine
 10
610.4933819188633
 20
820.3029262382004
 30
0.0
 11
610.4933819188633
 21
819.3029262382005
 31
0.0
  0
LINE
  5
9898
330
18
100
AcDbEntity
  8
0
100
AcDbLine
 10
610.8433819188636
 20
819.3029262382005
 30
0.0
 11
610.8433819188636
 21
820.3029262382004
 31
0.0
  0
LINE
  5
9899
330
18
100
AcDbEntity
  8
0
100
AcDbLine
 10
610.4933819188633
 20
818.0529262382005
 30
0.0
 11
610.8433819188636
 21
818.0529262382005
 31
0.0
  0
LINE
  5
989A
330
18
100
AcDbEntity
  8
0
100
AcDbLine
 10
610.8433819188636
 20
817.8029262382004
 30
0.0
 11
610.4933819188633
 21
817.8029262382004
 31
0.0
  0
LINE
  5
989B
330
18
100
AcDbEntity
  8
0
100
AcDbLine
 10
610.4933819188633
 20
819.0279262382004
 30
0.0
 11
610.4933819188633
 21
818.0529262382005
 31
0.0
  0
LINE
  5
989C
330
18
100
AcDbEntity
  8
0
100
AcDbLine
 10
610.8433819188636
 20
818.0529262382005
 30
0.0
 11
610.8433819188636
 21
819.0279262382004
 31
0.0
  0
LINE
  5
989D
330
18
100
AcDbEntity
  8
0
100
AcDbLine
 10
610.4933819188633
 20
816.8279262382004
 30
0.0
 11
610.8433819188636
 21
816.8279262382004
 31
0.0
  0
LINE
  5
989E
330
18
100
AcDbEntity
  8
0
100
AcDbLine
 10
610.8433819188636
 20
816.5279262382004
 30
0.0
 11
610.4933819188633
 21
816.5279262382004
 31
0.0
  0
LINE
  5
989F
330
18
100
AcDbEntity
  8
0
100
AcDbLine
 10
610.4933819188633
 20
816.5279262382004
 30
0.0
 11
610.4933819188633
 21
815.5779262382003
 31
0.0
  0
LINE
  5
98A0
330
18
100
AcDbEntity
  8
0
100
AcDbLine
 10
610.4933819188633
 20
815.5779262382003
 30
0.0
 11
610.8433819188636
 21
815.5779262382003
 31
0.0
  0
LINE
  5
98A1
330
18
100
AcDbEntity
  8
0
100
AcDbLine
 10
610.8433819188636
 20
815.5779262382003
 30
0.0
 11
610.8433819188636
 21
816.5279262382004
 31
0.0
  0
LINE
  5
98A2
330
18
100
AcDbEntity
  8
0
100
AcDbLine
 10
610.8433819188636
 20
815.2029262382002
 30
0.0
 11
610.4933819188633
 21
815.2029262382002
 31
0.0
  0
LINE
  5
98A3
330
18
100
AcDbEntity
  8
0
100
AcDbLine
 10
610.4933819188633
 20
817.8029262382004
 30
0.0
 11
610.4933819188633
 21
816.8279262382004
 31
0.0
  0
LINE
  5
98A4
330
18
100
AcDbEntity
  8
0
100
AcDbLine
 10
610.8433819188636
 20
816.8279262382004
 30
0.0
 11
610.8433819188636
 21
817.8029262382004
 31
0.0
  0
LINE
  5
98A5
330
18
100
AcDbEntity
  8
0
100
AcDbLine
 10
614.2183819188637
 20
822.4279262382005
 30
0.0
 11
610.5183819188638
 21
823.3529262382004
 31
0.0
  0
LINE
  5
98A6
330
18
100
AcDbEntity
  8
0
100
AcDbLine
 10
615.8933819188638
 20
827.0529262382005
 30
0.0
 11
613.9683819188636
 21
827.0529262382005
 31
0.0
  0
LINE
  5
98A7
330
18
100
AcDbEntity
  8
0
100
AcDbLine
 10
614.6933819188635
 20
830.8029262382005
 30
0.0
 11
610.6933819188635
 21
830.8029262382005
 31
0.0
  0
LINE
  5
98A8
330
18
100
AcDbEntity
  8
0
100
AcDbLine
 10
613.2433819188633
 20
833.1529262382003
 30
0.0
 11
612.6933819188636
 21
833.1529262382003
 31
0.0
  0
LINE
  5
98A9
330
18
100
AcDbEntity
  8
0
100
AcDbLine
 10
613.9683819188636
 20
827.0779262382003
 30
0.0
 11
613.9683819188636
 21
826.1029262382004
 31
0.0
  0
LINE
  5
98AA
330
18
100
AcDbEntity
  8
0
100
AcDbLine
 10
610.3933819188638
 20
827.0529262382005
 30
0.0
 11
610.3933819188638
 21
826.0779262382003
 31
0.0
  0
ELLIPSE
  5
98AB
330
18
100
AcDbEntity
  8
0
100
AcDbEllipse
 10
612.0933819188636
 20
828.2779262382003
 30
0.0
 11
0.0
 21
0.775
 31
0.0
210
0.0
220
0.0
230
1.0
 40
0.9677419999999999
 41
0.0
 42
6.283184999999999
  0
LINE
  5
98AC
330
18
100
AcDbEntity
  8
0
100
AcDbLine
 10
612.6933819188636
 20
832.1529262382004
 30
0.0
 11
610.6933819188635
 21
832.1529262382004
 31
0.0
  0
LINE
  5
98AD
330
18
100
AcDbEntity
  8
0
100
AcDbLine
 10
613.9683819188636
 20
826.0779262382003
 30
0.0
 11
610.3933819188638
 21
826.0779262382003
 31
0.0
  0
LINE
  5
98AE
330
18
100
AcDbEntity
  8
0
100
AcDbLine
 10
615.8933819188638
 20
827.0529262382005
 30
0.0
 11
615.8933819188638
 21
824.9779262382004
 31
0.0
  0
LINE
  5
98AF
330
18
100
AcDbEntity
  8
0
100
AcDbLine
 10
612.6933819188636
 20
834.1529262382003
 30
0.0
 11
613.2433819188633
 21
834.1529262382003
 31
0.0
  0
LINE
  5
98B0
330
18
100
AcDbEntity
  8
0
100
AcDbLine
 10
613.2433819188633
 20
842.1529262382003
 30
0.0
 11
613.2433819188633
 21
841.1529262382003
 31
0.0
  0
LINE
  5
98B1
330
18
100
AcDbEntity
  8
0
100
AcDbLine
 10
613.2433819188633
 20
841.1529262382003
 30
0.0
 11
612.6933819188636
 21
841.1529262382003
 31
0.0
  0
LINE
  5
98B2
330
18
100
AcDbEntity
  8
0
100
AcDbLine
 10
612.6933819188636
 20
841.1529262382003
 30
0.0
 11
612.6933819188636
 21
842.1529262382003
 31
0.0
  0
LINE
  5
98B3
330
18
100
AcDbEntity
  8
0
100
AcDbLine
 10
612.6933819188636
 20
842.1529262382003
 30
0.0
 11
613.2433819188633
 21
842.1529262382003
 31
0.0
  0
LINE
  5
98B4
330
18
100
AcDbEntity
  8
0
100
AcDbLine
 10
613.2433819188633
 20
839.7529262382004
 30
0.0
 11
613.2433819188633
 21
838.7529262382004
 31
0.0
  0
LINE
  5
98B5
330
18
100
AcDbEntity
  8
0
100
AcDbLine
 10
613.2433819188633
 20
838.7529262382004
 30
0.0
 11
612.6933819188636
 21
838.7529262382004
 31
0.0
  0
LINE
  5
98B6
330
18
100
AcDbEntity
  8
0
100
AcDbLine
 10
612.6933819188636
 20
838.7529262382004
 30
0.0
 11
612.6933819188636
 21
839.7529262382004
 31
0.0
  0
LINE
  5
98B7
330
18
100
AcDbEntity
  8
0
100
AcDbLine
 10
612.6933819188636
 20
839.7529262382004
 30
0.0
 11
613.2433819188633
 21
839.7529262382004
 31
0.0
  0
LINE
  5
98B8
330
18
100
AcDbEntity
  8
0
100
AcDbLine
 10
613.2433819188633
 20
836.5529262382004
 30
0.0
 11
613.2433819188633
 21
835.5529262382004
 31
0.0
  0
LINE
  5
98B9
330
18
100
AcDbEntity
  8
0
100
AcDbLine
 10
613.2433819188633
 20
835.5529262382004
 30
0.0
 11
612.6933819188636
 21
835.5529262382004
 31
0.0
  0
LINE
  5
98BA
330
18
100
AcDbEntity
  8
0
100
AcDbLine
 10
612.6933819188636
 20
835.5529262382004
 30
0.0
 11
612.6933819188636
 21
836.5529262382004
 31
0.0
  0
LINE
  5
98BB
330
18
100
AcDbEntity
  8
0
100
AcDbLine
 10
612.6933819188636
 20
836.5529262382004
 30
0.0
 11
613.2433819188633
 21
836.5529262382004
 31
0.0
  0
LINE
  5
98BC
330
18
100
AcDbEntity
  8
0
100
AcDbLine
 10
610.6933819188635
 20
843.1529262382003
 30
0.0
 11
612.6933819188636
 21
843.1529262382003
 31
0.0
  0
LINE
  5
98BD
330
18
100
AcDbEntity
  8
0
100
AcDbLine
 10
616.0933819188636
 20
843.1529262382003
 30
0.0
 11
616.0933819188636
 21
839.1529262382004
 31
0.0
  0
LINE
  5
98BE
330
18
100
AcDbEntity
  8
0
100
AcDbLine
 10
615.8933819188638
 20
849.6779262382004
 30
0.0
 11
613.9683819188636
 21
849.6779262382004
 31
0.0
  0
LINE
  5
98BF
330
18
100
AcDbEntity
  8
0
100
AcDbLine
 10
614.6933819188635
 20
844.5779262382004
 30
0.0
 11
610.6933819188635
 21
844.5779262382004
 31
0.0
  0
LINE
  5
98C0
330
18
100
AcDbEntity
  8
0
100
AcDbLine
 10
613.9683819188636
 20
849.6529262382004
 30
0.0
 11
613.9683819188636
 21
850.6279262382003
 31
0.0
  0
LINE
  5
98C1
330
18
100
AcDbEntity
  8
0
100
AcDbLine
 10
610.3933819188638
 20
849.6779262382004
 30
0.0
 11
610.3933819188638
 21
850.6529262382004
 31
0.0
  0
ELLIPSE
  5
98C2
330
18
100
AcDbEntity
  8
0
100
AcDbEllipse
 10
612.0933819188636
 20
848.7779262382003
 30
0.0
 11
0.0
 21
0.775
 31
0.0
210
0.0
220
0.0
230
1.0
 40
0.9677419999999999
 41
0.0
 42
6.283184999999999
  0
LINE
  5
98C3
330
18
100
AcDbEntity
  8
0
100
AcDbLine
 10
613.9683819188636
 20
850.6529262382004
 30
0.0
 11
610.3933819188638
 21
850.6529262382004
 31
0.0
  0
LINE
  5
98C4
330
18
100
AcDbEntity
  8
0
100
AcDbLine
 10
615.8933819188638
 20
849.6779262382004
 30
0.0
 11
615.8933819188638
 21
851.7529262382003
 31
0.0
  0
LINE
  5
98C5
330
18
100
AcDbEntity
  8
0
100
AcDbLine
 10
604.2933819188634
 20
891.6529262382006
 30
0.0
 11
619.2933819188635
 21
891.6529262382006
 31
0.0
  0
ELLIPSE
  5
98C6
330
18
100
AcDbEntity
  8
0
100
AcDbEllipse
 10
610.2433819188632
 20
865.6779262382004
 30
0.0
 11
0.0
 21
1.25
 31
0.0
210
0.0
220
0.0
230
1.0
 40
0.98
 41
6.03468
 42
8.053399307179585
  0
LINE
  5
98C7
330
18
100
AcDbEntity
  8
0
100
AcDbLine
 10
610.3933819188638
 20
870.5529262382004
 30
0.0
 11
608.2683819188638
 21
870.5529262382004
 31
0.0
  0
LINE
  5
98C8
330
18
100
AcDbEntity
  8
0
100
AcDbLine
 10
616.6933819188635
 20
874.1529262382004
 30
0.0
 11
607.4683819188636
 21
874.1529262382004
 31
0.0
  0
LINE
  5
98C9
330
18
100
AcDbEntity
  8
0
100
AcDbLine
 10
615.8933819188638
 20
868.4779262382004
 30
0.0
 11
608.2683819188638
 21
868.4779262382004
 31
0.0
  0
TEXT
  5
98CA
330
18
100
AcDbEntity
  8
0
 48
5.0
100
AcDbText
 10
597.962910581011
 20
859.5585756955602
 30
0.0
 40
3.0
  1
J1
  7
MSｺﾞｼｯｸ
 72
     1
 11
599.9121491596912
 21
861.0585756955602
 31
0.0
100
AcDbText
 73
     2
  0
LINE
  5
98CB
330
18
100
AcDbEntity
  8
0
100
AcDbLine
 10
609.0183819188638
 20
865.6779262382004
 30
0.0
 11
609.0183819188638
 21
854.3279262382004
 31
0.0
  0
LINE
  5
98CC
330
18
100
AcDbEntity
  8
0
100
AcDbLine
 10
608.2683819188638
 20
870.5529262382004
 30
0.0
 11
608.2683819188638
 21
868.4779262382004
 31
0.0
  0
LINE
  5
98CD
330
18
100
AcDbEntity
  8
0
100
AcDbLine
 10
596.9121491596912
 20
874.0585756955601
 30
0.0
 11
602.9121491596912
 21
874.0585756955601
 31
0.0
  0
ARC
  5
98CE
330
18
100
AcDbEntity
  8
0
100
AcDbCircle
 10
589.8933819188633
 20
886.1529262382005
 30
0.0
 40
2.666666666666666
100
AcDbArc
 50
75.52248781407055
 51
104.4775121859294
  0
ARC
  5
98CF
330
18
100
AcDbEntity
  8
0
100
AcDbCircle
 10
589.8933819188633
 20
886.1529262382005
 30
0.0
 40
2.666666666666666
100
AcDbArc
 50
255.5224878140705
 51
284.4775121859294
  0
LINE
  5
98D0
330
18
100
AcDbEntity
  8
0
100
AcDbLine
 10
589.2267152521968
 20
886.819592904867
 30
0.0
 11
589.2267152521968
 21
888.7349151356721
 31
0.0
  0
LINE
  5
98D1
330
18
100
AcDbEntity
  8
0
100
AcDbLine
 10
589.2267152521968
 20
883.5709373407286
 30
0.0
 11
589.2267152521968
 21
885.4862595715337
 31
0.0
  0
LINE
  5
98D2
330
18
100
AcDbEntity
  8
0
100
AcDbLine
 10
590.5600485855298
 20
886.819592904867
 30
0.0
 11
592.4753708163349
 21
886.819592904867
 31
0.0
  0
LINE
  5
98D3
330
18
100
AcDbEntity
  8
0
100
AcDbLine
 10
590.5600485855298
 20
886.819592904867
 30
0.0
 11
590.5600485855298
 21
888.7349151356721
 31
0.0
  0
LINE
  5
98D4
330
18
100
AcDbEntity
  8
0
100
AcDbLine
 10
590.5600485855298
 20
885.4862595715337
 30
0.0
 11
592.4753708163349
 21
885.4862595715337
 31
0.0
  0
LINE
  5
98D5
330
18
100
AcDbEntity
  8
0
100
AcDbLine
 10
590.5600485855298
 20
883.5709373407286
 30
0.0
 11
590.5600485855298
 21
885.4862595715337
 31
0.0
  0
ARC
  5
98D6
330
18
100
AcDbEntity
  8
0
100
AcDbCircle
 10
589.8933819188633
 20
886.1529262382005
 30
0.0
 40
2.666666666666666
100
AcDbArc
 50
345.5224878140697
 51
14.47751218593027
  0
LINE
  5
98D7
330
18
100
AcDbEntity
  8
0
100
AcDbLine
 10
615.1433819188638
 20
855.4029262382004
 30
0.0
 11
615.1433819188638
 21
864.7529262382002
 31
0.0
  0
LINE
  5
98D8
330
18
100
AcDbEntity
  8
0
100
AcDbLine
 10
613.2683819188638
 20
864.2279262382004
 30
0.0
 11
613.2683819188638
 21
863.2279262382004
 31
0.0
  0
LINE
  5
98D9
330
18
100
AcDbEntity
  8
0
100
AcDbLine
 10
613.6183819188633
 20
863.2279262382004
 30
0.0
 11
613.6183819188633
 21
864.2279262382004
 31
0.0
  0
LINE
  5
98DA
330
18
100
AcDbEntity
  8
0
100
AcDbLine
 10
610.4933819188633
 20
864.2279262382004
 30
0.0
 11
610.4933819188633
 21
863.2279262382004
 31
0.0
  0
LINE
  5
98DB
330
18
100
AcDbEntity
  8
0
100
AcDbLine
 10
610.8433819188636
 20
863.2279262382004
 30
0.0
 11
610.8433819188636
 21
864.2279262382004
 31
0.0
  0
LWPOLYLINE
  5
98DC
330
18
100
AcDbEntity
  8
0
100
AcDbPolyline
 90
        4
 70
     1
 43
0.0
 10
613.9683819188636
 20
865.0779262382004
 10
610.2683819188638
 20
865.0779262382004
 10
610.2683819188638
 20
854.8529262382004
 10
613.9683819188636
 20
854.8529262382004
  0
ELLIPSE
  5
98DD
330
18
100
AcDbEntity
  8
0
100
AcDbEllipse
 10
613.9183819188635
 20
855.4029262382004
 30
0.0
 11
0.0
 21
1.25
 31
0.0
210
0.0
220
0.0
230
1.0
 40
0.98
 41
3.380894
 42
4.528311
  0
LINE
  5
98DE
330
18
100
AcDbEntity
  8
0
100
AcDbLine
 10
613.2683819188638
 20
859.1279262382002
 30
0.0
 11
613.2683819188638
 21
858.1529262382003
 31
0.0
  0
LINE
  5
98DF
330
18
100
AcDbEntity
  8
0
100
AcDbLine
 10
613.6183819188633
 20
858.1529262382003
 30
0.0
 11
613.6183819188633
 21
859.1279262382002
 31
0.0
  0
LINE
  5
98E0
330
18
100
AcDbEntity
  8
0
100
AcDbLine
 10
613.6183819188633
 20
857.8529262382003
 30
0.0
 11
613.2683819188638
 21
857.8529262382003
 31
0.0
  0
LINE
  5
98E1
330
18
100
AcDbEntity
  8
0
100
AcDbLine
 10
613.2683819188638
 20
858.1529262382003
 30
0.0
 11
613.6183819188633
 21
858.1529262382003
 31
0.0
  0
LINE
  5
98E2
330
18
100
AcDbEntity
  8
0
100
AcDbLine
 10
613.2683819188638
 20
856.8779262382003
 30
0.0
 11
613.6183819188633
 21
856.8779262382003
 31
0.0
  0
LINE
  5
98E3
330
18
100
AcDbEntity
  8
0
100
AcDbLine
 10
613.2683819188638
 20
857.8529262382003
 30
0.0
 11
613.2683819188638
 21
856.8779262382003
 31
0.0
  0
LINE
  5
98E4
330
18
100
AcDbEntity
  8
0
100
AcDbLine
 10
613.6183819188633
 20
856.8779262382003
 30
0.0
 11
613.6183819188633
 21
857.8529262382003
 31
0.0
  0
LINE
  5
98E5
330
18
100
AcDbEntity
  8
0
100
AcDbLine
 10
613.6183819188633
 20
856.6779262382004
 30
0.0
 11
613.2683819188638
 21
856.6779262382004
 31
0.0
  0
LINE
  5
98E6
330
18
100
AcDbEntity
  8
0
100
AcDbLine
 10
613.2683819188638
 20
855.7029262382004
 30
0.0
 11
613.6183819188633
 21
855.7029262382004
 31
0.0
  0
LINE
  5
98E7
330
18
100
AcDbEntity
  8
0
100
AcDbLine
 10
613.2683819188638
 20
856.6779262382004
 30
0.0
 11
613.2683819188638
 21
855.7029262382004
 31
0.0
  0
LINE
  5
98E8
330
18
100
AcDbEntity
  8
0
100
AcDbLine
 10
613.6183819188633
 20
855.7029262382004
 30
0.0
 11
613.6183819188633
 21
856.6779262382004
 31
0.0
  0
LINE
  5
98E9
330
18
100
AcDbEntity
  8
0
100
AcDbLine
 10
613.2683819188638
 20
862.9529262382003
 30
0.0
 11
613.2683819188638
 21
861.9779262382005
 31
0.0
  0
LINE
  5
98EA
330
18
100
AcDbEntity
  8
0
100
AcDbLine
 10
613.6183819188633
 20
861.9779262382005
 30
0.0
 11
613.6183819188633
 21
862.9529262382003
 31
0.0
  0
LINE
  5
98EB
330
18
100
AcDbEntity
  8
0
100
AcDbLine
 10
613.2683819188638
 20
861.9779262382005
 30
0.0
 11
613.6183819188633
 21
861.9779262382005
 31
0.0
  0
LINE
  5
98EC
330
18
100
AcDbEntity
  8
0
100
AcDbLine
 10
613.6183819188633
 20
861.7279262382004
 30
0.0
 11
613.2683819188638
 21
861.7279262382004
 31
0.0
  0
LINE
  5
98ED
330
18
100
AcDbEntity
  8
0
100
AcDbLine
 10
613.2683819188638
 20
861.7279262382004
 30
0.0
 11
613.2683819188638
 21
860.7529262382003
 31
0.0
  0
LINE
  5
98EE
330
18
100
AcDbEntity
  8
0
100
AcDbLine
 10
613.2683819188638
 20
860.7529262382003
 30
0.0
 11
613.6183819188633
 21
860.7529262382003
 31
0.0
  0
LINE
  5
98EF
330
18
100
AcDbEntity
  8
0
100
AcDbLine
 10
613.6183819188633
 20
860.7529262382003
 30
0.0
 11
613.6183819188633
 21
861.7279262382004
 31
0.0
  0
LINE
  5
98F0
330
18
100
AcDbEntity
  8
0
100
AcDbLine
 10
613.6183819188633
 20
860.4529262382003
 30
0.0
 11
613.2683819188638
 21
860.4529262382003
 31
0.0
  0
LINE
  5
98F1
330
18
100
AcDbEntity
  8
0
100
AcDbLine
 10
613.2683819188638
 20
860.4529262382003
 30
0.0
 11
613.2683819188638
 21
859.5029262382002
 31
0.0
  0
LINE
  5
98F2
330
18
100
AcDbEntity
  8
0
100
AcDbLine
 10
613.2683819188638
 20
859.5029262382002
 30
0.0
 11
613.6183819188633
 21
859.5029262382002
 31
0.0
  0
LINE
  5
98F3
330
18
100
AcDbEntity
  8
0
100
AcDbLine
 10
613.6183819188633
 20
859.5029262382002
 30
0.0
 11
613.6183819188633
 21
860.4529262382003
 31
0.0
  0
LINE
  5
98F4
330
18
100
AcDbEntity
  8
0
100
AcDbLine
 10
613.6183819188633
 20
859.1279262382002
 30
0.0
 11
613.2683819188638
 21
859.1279262382002
 31
0.0
  0
LINE
  5
98F5
330
18
100
AcDbEntity
  8
0
100
AcDbLine
 10
613.2683819188638
 20
863.2279262382004
 30
0.0
 11
613.6183819188633
 21
863.2279262382004
 31
0.0
  0
LINE
  5
98F6
330
18
100
AcDbEntity
  8
0
100
AcDbLine
 10
613.6183819188633
 20
862.9529262382003
 30
0.0
 11
613.2683819188638
 21
862.9529262382003
 31
0.0
  0
LINE
  5
98F7
330
18
100
AcDbEntity
  8
0
100
AcDbLine
 10
610.4933819188633
 20
859.1279262382002
 30
0.0
 11
610.4933819188633
 21
858.1529262382003
 31
0.0
  0
LINE
  5
98F8
330
18
100
AcDbEntity
  8
0
100
AcDbLine
 10
610.8433819188636
 20
858.1529262382003
 30
0.0
 11
610.8433819188636
 21
859.1279262382002
 31
0.0
  0
LINE
  5
98F9
330
18
100
AcDbEntity
  8
0
100
AcDbLine
 10
610.8433819188636
 20
857.8529262382003
 30
0.0
 11
610.4933819188633
 21
857.8529262382003
 31
0.0
  0
LINE
  5
98FA
330
18
100
AcDbEntity
  8
0
100
AcDbLine
 10
610.4933819188633
 20
858.1529262382003
 30
0.0
 11
610.8433819188636
 21
858.1529262382003
 31
0.0
  0
LINE
  5
98FB
330
18
100
AcDbEntity
  8
0
100
AcDbLine
 10
610.4933819188633
 20
856.8779262382003
 30
0.0
 11
610.8433819188636
 21
856.8779262382003
 31
0.0
  0
LINE
  5
98FC
330
18
100
AcDbEntity
  8
0
100
AcDbLine
 10
610.4933819188633
 20
857.8529262382003
 30
0.0
 11
610.4933819188633
 21
856.8779262382003
 31
0.0
  0
LINE
  5
98FD
330
18
100
AcDbEntity
  8
0
100
AcDbLine
 10
610.8433819188636
 20
856.8779262382003
 30
0.0
 11
610.8433819188636
 21
857.8529262382003
 31
0.0
  0
LINE
  5
98FE
330
18
100
AcDbEntity
  8
0
100
AcDbLine
 10
610.8433819188636
 20
856.6779262382004
 30
0.0
 11
610.4933819188633
 21
856.6779262382004
 31
0.0
  0
LINE
  5
98FF
330
18
100
AcDbEntity
  8
0
100
AcDbLine
 10
610.4933819188633
 20
855.7029262382004
 30
0.0
 11
610.8433819188636
 21
855.7029262382004
 31
0.0
  0
LINE
  5
9900
330
18
100
AcDbEntity
  8
0
100
AcDbLine
 10
610.4933819188633
 20
856.6779262382004
 30
0.0
 11
610.4933819188633
 21
855.7029262382004
 31
0.0
  0
LINE
  5
9901
330
18
100
AcDbEntity
  8
0
100
AcDbLine
 10
610.8433819188636
 20
855.7029262382004
 30
0.0
 11
610.8433819188636
 21
856.6779262382004
 31
0.0
  0
LINE
  5
9902
330
18
100
AcDbEntity
  8
0
100
AcDbLine
 10
610.4933819188633
 20
862.9529262382003
 30
0.0
 11
610.4933819188633
 21
861.9779262382005
 31
0.0
  0
LINE
  5
9903
330
18
100
AcDbEntity
  8
0
100
AcDbLine
 10
610.8433819188636
 20
861.9779262382005
 30
0.0
 11
610.8433819188636
 21
862.9529262382003
 31
0.0
  0
LINE
  5
9904
330
18
100
AcDbEntity
  8
0
100
AcDbLine
 10
610.4933819188633
 20
861.9779262382005
 30
0.0
 11
610.8433819188636
 21
861.9779262382005
 31
0.0
  0
LINE
  5
9905
330
18
100
AcDbEntity
  8
0
100
AcDbLine
 10
610.8433819188636
 20
861.7279262382004
 30
0.0
 11
610.4933819188633
 21
861.7279262382004
 31
0.0
  0
LINE
  5
9906
330
18
100
AcDbEntity
  8
0
100
AcDbLine
 10
610.4933819188633
 20
861.7279262382004
 30
0.0
 11
610.4933819188633
 21
860.7529262382003
 31
0.0
  0
LINE
  5
9907
330
18
100
AcDbEntity
  8
0
100
AcDbLine
 10
610.4933819188633
 20
860.7529262382003
 30
0.0
 11
610.8433819188636
 21
860.7529262382003
 31
0.0
  0
LINE
  5
9908
330
18
100
AcDbEntity
  8
0
100
AcDbLine
 10
610.8433819188636
 20
860.7529262382003
 30
0.0
 11
610.8433819188636
 21
861.7279262382004
 31
0.0
  0
LINE
  5
9909
330
18
100
AcDbEntity
  8
0
100
AcDbLine
 10
610.8433819188636
 20
860.4529262382003
 30
0.0
 11
610.4933819188633
 21
860.4529262382003
 31
0.0
  0
LINE
  5
990A
330
18
100
AcDbEntity
  8
0
100
AcDbLine
 10
610.4933819188633
 20
860.4529262382003
 30
0.0
 11
610.4933819188633
 21
859.5029262382002
 31
0.0
  0
LINE
  5
990B
330
18
100
AcDbEntity
  8
0
100
AcDbLine
 10
610.4933819188633
 20
859.5029262382002
 30
0.0
 11
610.8433819188636
 21
859.5029262382002
 31
0.0
  0
LINE
  5
990C
330
18
100
AcDbEntity
  8
0
100
AcDbLine
 10
610.8433819188636
 20
859.5029262382002
 30
0.0
 11
610.8433819188636
 21
860.4529262382003
 31
0.0
  0
LINE
  5
990D
330
18
100
AcDbEntity
  8
0
100
AcDbLine
 10
610.8433819188636
 20
859.1279262382002
 30
0.0
 11
610.4933819188633
 21
859.1279262382002
 31
0.0
  0
LINE
  5
990E
330
18
100
AcDbEntity
  8
0
100
AcDbLine
 10
610.4933819188633
 20
863.2279262382004
 30
0.0
 11
610.8433819188636
 21
863.2279262382004
 31
0.0
  0
LINE
  5
990F
330
18
100
AcDbEntity
  8
0
100
AcDbLine
 10
610.8433819188636
 20
862.9529262382003
 30
0.0
 11
610.4933819188633
 21
862.9529262382003
 31
0.0
  0
ELLIPSE
  5
9910
330
18
100
AcDbEntity
  8
0
100
AcDbEllipse
 10
613.9183819188635
 20
864.7529262382002
 30
0.0
 11
0.0
 21
1.25
 31
0.0
210
0.0
220
0.0
230
1.0
 40
0.98
 41
4.509903999999999
 42
6.059223999999999
  0
LINE
  5
9911
330
18
100
AcDbEntity
  8
0
100
AcDbLine
 10
615.8933819188638
 20
870.5529262382004
 30
0.0
 11
613.9683819188636
 21
870.5529262382004
 31
0.0
  0
LINE
  5
9912
330
18
100
AcDbEntity
  8
0
100
AcDbLine
 10
613.9683819188636
 20
870.5779262382003
 30
0.0
 11
613.9683819188636
 21
869.6029262382005
 31
0.0
  0
LINE
  5
9913
330
18
100
AcDbEntity
  8
0
100
AcDbLine
 10
613.6183819188633
 20
864.2279262382004
 30
0.0
 11
613.2683819188638
 21
864.2279262382004
 31
0.0
  0
LINE
  5
9914
330
18
100
AcDbEntity
  8
0
100
AcDbLine
 10
610.3933819188638
 20
870.5529262382004
 30
0.0
 11
610.3933819188638
 21
869.5779262382004
 31
0.0
  0
LINE
  5
9915
330
18
100
AcDbEntity
  8
0
100
AcDbLine
 10
610.8433819188636
 20
864.2279262382004
 30
0.0
 11
610.4933819188633
 21
864.2279262382004
 31
0.0
  0
LINE
  5
9916
330
18
100
AcDbEntity
  8
0
100
AcDbLine
 10
613.9683819188636
 20
869.5779262382004
 30
0.0
 11
610.3933819188638
 21
869.5779262382004
 31
0.0
  0
LINE
  5
9917
330
18
100
AcDbEntity
  8
0
100
AcDbLine
 10
614.2183819188637
 20
865.9279262382005
 30
0.0
 11
610.5183819188638
 21
866.8529262382005
 31
0.0
  0
ELLIPSE
  5
9918
330
18
100
AcDbEntity
  8
0
100
AcDbEllipse
 10
612.0933819188636
 20
871.7779262382004
 30
0.0
 11
0.0
 21
0.775
 31
0.0
210
0.0
220
0.0
230
1.0
 40
0.9677419999999999
 41
0.0
 42
6.283184999999999
  0
LINE
  5
9919
330
18
100
AcDbEntity
  8
0
100
AcDbLine
 10
615.8933819188638
 20
870.5529262382004
 30
0.0
 11
615.8933819188638
 21
868.4779262382004
 31
0.0
  0
LINE
  5
991A
330
18
100
AcDbEntity
  8
0
100
AcDbLine
 10
614.1933819188635
 20
883.8279262382004
 30
0.0
 11
613.7683819188638
 21
881.0529262382006
 31
0.0
  0
LINE
  5
991B
330
18
100
AcDbEntity
  8
0
100
AcDbLine
 10
614.5933819188636
 20
881.0529262382006
 30
0.0
 11
615.0433819188634
 21
883.8279262382004
 31
0.0
  0
LINE
  5
991C
330
18
100
AcDbEntity
  8
0
100
AcDbLine
 10
616.6933819188635
 20
890.6529262382006
 30
0.0
 11
616.6933819188635
 21
877.6529262382005
 31
0.0
  0
LINE
  5
991D
330
18
100
AcDbEntity
  8
0
100
AcDbLine
 10
609.1683819188634
 20
877.6529262382005
 30
0.0
 11
609.1683819188634
 21
890.6529262382006
 31
0.0
  0
LINE
  5
991E
330
18
100
AcDbEntity
  8
0
100
AcDbLine
 10
610.5183819188638
 20
883.8279262382004
 30
0.0
 11
610.1183819188633
 21
881.0529262382006
 31
0.0
  0
LINE
  5
991F
330
18
100
AcDbEntity
  8
0
100
AcDbLine
 10
610.9433819188636
 20
881.0529262382006
 30
0.0
 11
611.3683819188633
 21
883.8279262382004
 31
0.0
  0
LINE
  5
9920
330
18
100
AcDbEntity
  8
0
100
AcDbLine
 10
614.1933819188635
 20
880.6529262382007
 30
0.0
 11
614.5933819188636
 21
881.0529262382006
 31
0.0
  0
LINE
  5
9921
330
18
100
AcDbEntity
  8
0
100
AcDbLine
 10
616.6933819188635
 20
877.6529262382005
 30
0.0
 11
609.1683819188634
 21
877.6529262382005
 31
0.0
  0
LINE
  5
9922
330
18
100
AcDbEntity
  8
0
100
AcDbLine
 10
613.3433819188637
 20
880.2529262382005
 30
0.0
 11
613.7683819188638
 21
880.6529262382007
 31
0.0
  0
LINE
  5
9923
330
18
100
AcDbEntity
  8
0
100
AcDbLine
 10
613.7683819188638
 20
880.6529262382007
 30
0.0
 11
613.3433819188637
 21
881.0779262382004
 31
0.0
  0
LINE
  5
9924
330
18
100
AcDbEntity
  8
0
100
AcDbLine
 10
613.7683819188638
 20
881.0529262382006
 30
0.0
 11
614.1933819188635
 21
880.6529262382007
 31
0.0
  0
LINE
  5
9925
330
18
100
AcDbEntity
  8
0
100
AcDbLine
 10
610.1183819188633
 20
881.0529262382006
 30
0.0
 11
610.5183819188638
 21
880.6529262382007
 31
0.0
  0
LINE
  5
9926
330
18
100
AcDbEntity
  8
0
100
AcDbLine
 10
610.5183819188638
 20
880.6529262382007
 30
0.0
 11
610.9433819188636
 21
881.0529262382006
 31
0.0
  0
LINE
  5
9927
330
18
100
AcDbEntity
  8
0
100
AcDbLine
 10
611.2433819188632
 20
881.0779262382004
 30
0.0
 11
610.7933819188635
 21
880.6529262382007
 31
0.0
  0
LINE
  5
9928
330
18
100
AcDbEntity
  8
0
100
AcDbLine
 10
610.7933819188635
 20
880.6529262382007
 30
0.0
 11
611.2433819188632
 21
880.2529262382005
 31
0.0
  0
LINE
  5
9929
330
18
100
AcDbEntity
  8
0
100
AcDbLine
 10
611.2433819188632
 20
880.2529262382005
 30
0.0
 11
613.3433819188637
 21
880.2529262382005
 31
0.0
  0
LINE
  5
992A
330
18
100
AcDbEntity
  8
0
100
AcDbLine
 10
613.3433819188637
 20
881.0779262382004
 30
0.0
 11
611.2433819188632
 21
881.0779262382004
 31
0.0
  0
ELLIPSE
  5
992B
330
18
100
AcDbEntity
  8
0
100
AcDbEllipse
 10
615.1933819188635
 20
880.6279262382005
 30
0.0
 11
0.5
 21
0.0
 31
0.0
210
0.0
220
0.0
230
1.0
 40
0.95
 41
0.0
 42
6.283184999999999
  0
LINE
  5
992C
330
18
100
AcDbEntity
  8
0
100
AcDbLine
 10
613.8933819188638
 20
883.9779262382004
 30
0.0
 11
614.2933819188634
 21
884.3779262382005
 31
0.0
  0
LINE
  5
992D
330
18
100
AcDbEntity
  8
0
100
AcDbLine
 10
614.2933819188634
 20
884.3779262382005
 30
0.0
 11
613.8933819188638
 21
884.7779262382006
 31
0.0
  0
LINE
  5
992E
330
18
100
AcDbEntity
  8
0
100
AcDbLine
 10
612.3183819188636
 20
887.5529262382007
 30
0.0
 11
614.4433819188635
 21
887.5529262382007
 31
0.0
  0
LINE
  5
992F
330
18
100
AcDbEntity
  8
0
100
AcDbLine
 10
614.4433819188635
 20
888.3529262382005
 30
0.0
 11
612.3183819188636
 21
888.3529262382005
 31
0.0
  0
LINE
  5
9930
330
18
100
AcDbEntity
  8
0
100
AcDbLine
 10
614.5933819188636
 20
884.2529262382004
 30
0.0
 11
614.1933819188635
 21
883.8279262382004
 31
0.0
  0
LINE
  5
9931
330
18
100
AcDbEntity
  8
0
100
AcDbLine
 10
609.1683819188634
 20
890.6529262382006
 30
0.0
 11
616.6933819188635
 21
890.6529262382006
 31
0.0
  0
LINE
  5
9932
330
18
100
AcDbEntity
  8
0
100
AcDbLine
 10
611.7933819188634
 20
883.9779262382004
 30
0.0
 11
613.8933819188638
 21
883.9779262382004
 31
0.0
  0
LINE
  5
9933
330
18
100
AcDbEntity
  8
0
100
AcDbLine
 10
613.8933819188638
 20
884.7779262382006
 30
0.0
 11
611.7933819188634
 21
884.7779262382006
 31
0.0
  0
LINE
  5
9934
330
18
100
AcDbEntity
  8
0
100
AcDbLine
 10
612.3183819188636
 20
888.3529262382005
 30
0.0
 11
611.8933819188638
 21
887.9779262382005
 31
0.0
  0
LINE
  5
9935
330
18
100
AcDbEntity
  8
0
100
AcDbLine
 10
611.8933819188638
 20
887.9779262382005
 30
0.0
 11
612.3183819188636
 21
887.5529262382007
 31
0.0
  0
LINE
  5
9936
330
18
100
AcDbEntity
  8
0
100
AcDbLine
 10
611.4933819188633
 20
887.9779262382005
 30
0.0
 11
611.0933819188637
 21
887.5779262382003
 31
0.0
  0
LINE
  5
9937
330
18
100
AcDbEntity
  8
0
100
AcDbLine
 10
611.0933819188637
 20
884.3779262382005
 30
0.0
 11
611.4933819188633
 21
884.7779262382006
 31
0.0
  0
LINE
  5
9938
330
18
100
AcDbEntity
  8
0
100
AcDbLine
 10
610.9433819188636
 20
884.2529262382004
 30
0.0
 11
610.5183819188638
 21
883.8279262382004
 31
0.0
  0
LINE
  5
9939
330
18
100
AcDbEntity
  8
0
100
AcDbLine
 10
611.3683819188633
 20
883.8279262382004
 30
0.0
 11
610.9433819188636
 21
884.2529262382004
 31
0.0
  0
LINE
  5
993A
330
18
100
AcDbEntity
  8
0
100
AcDbLine
 10
611.0933819188637
 20
887.5779262382003
 30
0.0
 11
610.6683819188634
 21
884.7779262382006
 31
0.0
  0
LINE
  5
993B
330
18
100
AcDbEntity
  8
0
100
AcDbLine
 10
610.6683819188634
 20
884.7779262382006
 30
0.0
 11
611.0933819188637
 21
884.3779262382005
 31
0.0
  0
LINE
  5
993C
330
18
100
AcDbEntity
  8
0
100
AcDbLine
 10
611.7933819188634
 20
884.7779262382006
 30
0.0
 11
611.3433819188636
 21
884.3779262382005
 31
0.0
  0
LINE
  5
993D
330
18
100
AcDbEntity
  8
0
100
AcDbLine
 10
611.3433819188636
 20
884.3779262382005
 30
0.0
 11
611.7933819188634
 21
883.9779262382004
 31
0.0
  0
LINE
  5
993E
330
18
100
AcDbEntity
  8
0
100
AcDbLine
 10
611.4933819188633
 20
884.7779262382006
 30
0.0
 11
611.9433819188635
 21
887.5779262382003
 31
0.0
  0
LINE
  5
993F
330
18
100
AcDbEntity
  8
0
100
AcDbLine
 10
611.9433819188635
 20
887.5779262382003
 30
0.0
 11
611.4933819188633
 21
887.9779262382005
 31
0.0
  0
LINE
  5
9940
330
18
100
AcDbEntity
  8
0
100
AcDbLine
 10
614.4433819188635
 20
887.5529262382007
 30
0.0
 11
614.8433819188636
 21
887.9779262382005
 31
0.0
  0
LINE
  5
9941
330
18
100
AcDbEntity
  8
0
100
AcDbLine
 10
614.8433819188636
 20
887.9779262382005
 30
0.0
 11
614.4433819188635
 21
888.3529262382005
 31
0.0
  0
LINE
  5
9942
330
18
100
AcDbEntity
  8
0
100
AcDbLine
 10
615.0433819188634
 20
883.8279262382004
 30
0.0
 11
614.5933819188636
 21
884.2529262382004
 31
0.0
  0
LINE
  5
9943
330
18
100
AcDbEntity
  8
0
100
AcDbLine
 10
615.1683819188634
 20
887.9779262382005
 30
0.0
 11
614.7433819188632
 21
887.5779262382003
 31
0.0
  0
LINE
  5
9944
330
18
100
AcDbEntity
  8
0
100
AcDbLine
 10
614.7433819188632
 20
887.5779262382003
 30
0.0
 11
614.3433819188636
 21
884.7779262382006
 31
0.0
  0
LINE
  5
9945
330
18
100
AcDbEntity
  8
0
100
AcDbLine
 10
614.3433819188636
 20
884.7779262382006
 30
0.0
 11
614.7433819188632
 21
884.3779262382005
 31
0.0
  0
LINE
  5
9946
330
18
100
AcDbEntity
  8
0
100
AcDbLine
 10
614.7433819188632
 20
884.3779262382005
 30
0.0
 11
615.1683819188634
 21
884.7779262382006
 31
0.0
  0
LINE
  5
9947
330
18
100
AcDbEntity
  8
0
100
AcDbLine
 10
615.1683819188634
 20
884.7779262382006
 30
0.0
 11
615.5933819188637
 21
887.5779262382003
 31
0.0
  0
LINE
  5
9948
330
18
100
AcDbEntity
  8
0
100
AcDbLine
 10
615.5933819188637
 20
887.5779262382003
 30
0.0
 11
615.1683819188634
 21
887.9779262382005
 31
0.0
  0
LINE
  5
9949
330
18
100
AcDbEntity
  8
0
100
AcDbLine
 10
638.2933819188639
 20
835.7639029288815
 30
0.0
 11
638.2933819188639
 21
813.3639029288813
 31
0.0
  0
LINE
  5
994A
330
18
100
AcDbEntity
  8
0
100
AcDbLine
 10
631.8933819188643
 20
813.3639029288813
 30
0.0
 11
631.8933819188643
 21
835.7639029288815
 31
0.0
  0
LINE
  5
994B
330
18
100
AcDbEntity
  8
0
100
AcDbLine
 10
644.7933819188639
 20
848.1529262381995
 30
0.0
 11
644.7933819188635
 21
804.2639029288816
 31
0.0
  0
LINE
  5
994C
330
18
100
AcDbEntity
  8
0
100
AcDbLine
 10
630.8933819188642
 20
757.1529262382008
 30
0.0
 11
630.8933819188642
 21
848.1529262381998
 31
0.0
  0
LINE
  5
994D
330
18
100
AcDbEntity
  8
0
100
AcDbLine
 10
638.8933819188642
 20
773.7839029288815
 30
0.0
 11
638.8933819188634
 21
778.8639029288814
 31
0.0
  0
LINE
  5
994E
330
18
100
AcDbEntity
  8
0
100
AcDbLine
 10
637.3933819188643
 20
778.8639029288814
 30
0.0
 11
637.3933819188643
 21
773.7839029288815
 31
0.0
  0
ARC
  5
994F
330
18
100
AcDbEntity
  8
0
100
AcDbCircle
 10
633.4817819188644
 20
776.3239029288814
 30
0.0
 40
4.411600000000065
100
AcDbArc
 50
332.4568005658538
 51
27.54319943414607
  0
CIRCLE
  5
9950
330
18
100
AcDbEntity
  8
0
100
AcDbCircle
 10
634.8933819188647
 20
776.3239029288814
 30
0.0
 40
2.0
  0
LINE
  5
9951
330
18
100
AcDbEntity
  8
0
100
AcDbLine
 10
636.0922057919589
 20
774.7230215087578
 30
0.0
 11
633.2736744073391
 21
777.4971665723604
 31
0.0
  0
LINE
  5
9952
330
18
100
AcDbEntity
  8
0
100
AcDbLine
 10
636.5130894303884
 20
775.150639285402
 30
0.0
 11
633.6945580457687
 21
777.924784349005
 31
0.0
  0
LINE
  5
9953
330
18
100
AcDbEntity
  8
0
100
AcDbLine
 10
632.3933819188643
 20
773.7839029288815
 30
0.0
 11
632.3933819188643
 21
778.8639029288814
 31
0.0
  0
ARC
  5
9954
330
18
100
AcDbEntity
  8
0
100
AcDbCircle
 10
636.3049819188642
 20
776.3239029288814
 30
0.0
 40
4.411600000000065
100
AcDbArc
 50
152.4568005658539
 51
207.543199434146
  0
LINE
  5
9955
330
18
100
AcDbEntity
  8
0
100
AcDbLine
 10
644.7933819188639
 20
778.8639029288812
 30
0.0
 11
644.7933819188639
 21
757.1529262382006
 31
0.0
  0
LINE
  5
9956
330
18
100
AcDbEntity
  8
0
100
AcDbLine
 10
630.8933819188642
 20
773.7839029288815
 30
0.0
 11
630.8933819188642
 21
809.3439029288814
 31
0.0
  0
TEXT
  5
9957
330
18
100
AcDbEntity
  8
0
100
AcDbText
 10
633.9014179115548
 20
753.5381266792033
 30
0.0
 40
2.5
  1
TB8
  7
MSｺﾞｼｯｸ
100
AcDbText
  0
LINE
  5
9958
330
18
100
AcDbEntity
  8
0
 48
0.5
370
    15
100
AcDbLine
 10
646.6171142511362
 20
744.9575117372291
 30
0.0
 11
645.7933819188634
 21
745.1529262382016
 31
0.0
  0
LINE
  5
9959
330
18
100
AcDbEntity
  8
0
 48
0.5
370
    15
100
AcDbLine
 10
647.5901097046731
 20
738.5791650173444
 30
0.0
 11
646.6171142511345
 21
737.3483407391743
 31
0.0
  0
LINE
  5
995A
330
18
100
AcDbEntity
  8
0
 48
0.5
370
    15
100
AcDbLine
 10
646.6171142511345
 20
737.3483407391743
 30
0.0
 11
645.7933819188634
 21
737.1529262382016
 31
0.0
  0
LINE
  5
995B
330
18
100
AcDbEntity
  8
0
 48
0.5
370
    15
100
AcDbLine
 10
647.590109704675
 20
743.7266874590591
 30
0.0
 11
647.5901097046731
 21
738.5791650173444
 31
0.0
  0
LINE
  5
995C
330
18
100
AcDbEntity
  8
0
 48
0.5
370
    15
100
AcDbLine
 10
647.590109704675
 20
743.7266874590591
 30
0.0
 11
646.6171142511362
 21
744.9575117372291
 31
0.0
  0
LINE
  5
995D
330
18
100
AcDbEntity
  8
0
100
AcDbLine
 10
638.8933819188642
 20
773.7839029288815
 30
0.0
 11
630.8933819188642
 21
773.7839029288815
 31
0.0
  0
LINE
  5
995E
330
18
100
AcDbEntity
  8
0
100
AcDbLine
 10
639.8933819188642
 20
798.6839029288811
 30
0.0
 11
639.8933819188642
 21
794.6039029288812
 31
0.0
  0
LINE
  5
995F
330
18
100
AcDbEntity
  8
0
100
AcDbLine
 10
639.8933819188642
 20
798.6839029288811
 30
0.0
 11
639.8933819188642
 21
794.6039029288812
 31
0.0
  0
LINE
  5
9960
330
18
100
AcDbEntity
  8
0
100
AcDbLine
 10
632.8933819188643
 20
798.6839029288811
 30
0.0
 11
632.8933819188643
 21
794.6039029288807
 31
0.0
  0
LINE
  5
9961
330
18
100
AcDbEntity
  8
0
100
AcDbLine
 10
632.8933819188643
 20
798.6839029288811
 30
0.0
 11
632.8933819188643
 21
794.6039029288807
 31
0.0
  0
LINE
  5
9962
330
18
100
AcDbEntity
  8
0
100
AcDbLine
 10
633.3933819188643
 20
795.3439029288809
 30
0.0
 11
632.8933819188643
 21
794.6039029288807
 31
0.0
  0
LINE
  5
9963
330
18
100
AcDbEntity
  8
0
100
AcDbLine
 10
633.3933819188643
 20
795.3439029288809
 30
0.0
 11
632.8933819188643
 21
794.6039029288807
 31
0.0
  0
LINE
  5
9964
330
18
100
AcDbEntity
  8
0
100
AcDbLine
 10
637.2933819188639
 20
795.3439029288809
 30
0.0
 11
639.8933819188642
 21
794.6039029288812
 31
0.0
  0
LINE
  5
9965
330
18
100
AcDbEntity
  8
0
100
AcDbLine
 10
637.2933819188639
 20
795.3439029288809
 30
0.0
 11
639.8933819188642
 21
794.6039029288812
 31
0.0
  0
LINE
  5
9966
330
18
100
AcDbEntity
  8
0
100
AcDbLine
 10
645.3933819188643
 20
804.2639029288816
 30
0.0
 11
645.3933819188634
 21
778.8639029288814
 31
0.0
  0
LINE
  5
9967
330
18
100
AcDbEntity
  8
0
100
AcDbLine
 10
645.8933819188643
 20
804.2639029288816
 30
0.0
 11
645.8933819188634
 21
778.8639029288814
 31
0.0
  0
LINE
  5
9968
330
18
100
AcDbEntity
  8
0
100
AcDbLine
 10
640.3933819188643
 20
804.263902928881
 30
0.0
 11
640.3933819188643
 21
778.8639029288814
 31
0.0
  0
LINE
  5
9969
330
18
100
AcDbEntity
  8
0
100
AcDbLine
 10
630.8933819188642
 20
804.263902928881
 30
0.0
 11
630.8933819188642
 21
778.8639029288814
 31
0.0
  0
LINE
  5
996A
330
18
100
AcDbEntity
  8
0
100
AcDbLine
 10
630.8933819188642
 20
778.8639029288814
 30
0.0
 11
645.8933819188634
 21
778.8639029288814
 31
0.0
  0
LINE
  5
996B
330
18
100
AcDbEntity
  8
0
100
AcDbLine
 10
639.8933819188642
 20
788.5239029288808
 30
0.0
 11
639.8933819188642
 21
784.4439029288809
 31
0.0
  0
LINE
  5
996C
330
18
100
AcDbEntity
  8
0
100
AcDbLine
 10
639.8933819188642
 20
788.5239029288808
 30
0.0
 11
639.8933819188642
 21
784.4439029288809
 31
0.0
  0
LINE
  5
996D
330
18
100
AcDbEntity
  8
0
100
AcDbLine
 10
637.2933819188639
 20
787.783902928881
 30
0.0
 11
637.2933819188639
 21
785.1839029288806
 31
0.0
  0
LINE
  5
996E
330
18
100
AcDbEntity
  8
0
100
AcDbLine
 10
637.2933819188639
 20
787.783902928881
 30
0.0
 11
637.2933819188639
 21
785.1839029288806
 31
0.0
  0
LINE
  5
996F
330
18
100
AcDbEntity
  8
0
100
AcDbLine
 10
632.8933819188643
 20
788.5239029288808
 30
0.0
 11
632.8933819188643
 21
784.4439029288809
 31
0.0
  0
LINE
  5
9970
330
18
100
AcDbEntity
  8
0
100
AcDbLine
 10
632.8933819188643
 20
788.5239029288808
 30
0.0
 11
632.8933819188643
 21
784.4439029288809
 31
0.0
  0
LINE
  5
9971
330
18
100
AcDbEntity
  8
0
100
AcDbLine
 10
633.3933819188634
 20
787.7839029288805
 30
0.0
 11
633.3933819188643
 21
785.1839029288806
 31
0.0
  0
LINE
  5
9972
330
18
100
AcDbEntity
  8
0
100
AcDbLine
 10
633.3933819188634
 20
787.7839029288805
 30
0.0
 11
633.3933819188643
 21
785.1839029288806
 31
0.0
  0
LINE
  5
9973
330
18
100
AcDbEntity
  8
0
100
AcDbLine
 10
633.3933819188643
 20
785.1839029288806
 30
0.0
 11
637.2933819188639
 21
785.1839029288806
 31
0.0
  0
LINE
  5
9974
330
18
100
AcDbEntity
  8
0
100
AcDbLine
 10
633.3933819188643
 20
785.1839029288806
 30
0.0
 11
637.2933819188639
 21
785.1839029288806
 31
0.0
  0
LINE
  5
9975
330
18
100
AcDbEntity
  8
0
100
AcDbLine
 10
632.8933819188643
 20
784.4439029288809
 30
0.0
 11
639.8933819188642
 21
784.4439029288809
 31
0.0
  0
LINE
  5
9976
330
18
100
AcDbEntity
  8
0
100
AcDbLine
 10
632.8933819188643
 20
784.4439029288809
 30
0.0
 11
639.8933819188642
 21
784.4439029288809
 31
0.0
  0
LINE
  5
9977
330
18
100
AcDbEntity
  8
0
100
AcDbLine
 10
632.8933819188643
 20
783.4439029288809
 30
0.0
 11
639.8933819188642
 21
783.4439029288809
 31
0.0
  0
LINE
  5
9978
330
18
100
AcDbEntity
  8
0
100
AcDbLine
 10
632.8933819188643
 20
783.4439029288809
 30
0.0
 11
639.8933819188642
 21
783.4439029288809
 31
0.0
  0
LINE
  5
9979
330
18
100
AcDbEntity
  8
0
100
AcDbLine
 10
633.3933819188643
 20
780.1039029288808
 30
0.0
 11
637.2933819188639
 21
780.1039029288808
 31
0.0
  0
LINE
  5
997A
330
18
100
AcDbEntity
  8
0
100
AcDbLine
 10
633.3933819188634
 20
782.7039029288807
 30
0.0
 11
637.2933819188639
 21
782.7039029288811
 31
0.0
  0
LINE
  5
997B
330
18
100
AcDbEntity
  8
0
100
AcDbLine
 10
633.3933819188634
 20
782.7039029288807
 30
0.0
 11
637.2933819188639
 21
782.7039029288811
 31
0.0
  0
LINE
  5
997C
330
18
100
AcDbEntity
  8
0
100
AcDbLine
 10
633.3933819188643
 20
780.1039029288808
 30
0.0
 11
637.2933819188639
 21
780.1039029288808
 31
0.0
  0
LINE
  5
997D
330
18
100
AcDbEntity
  8
0
100
AcDbLine
 10
632.8933819188643
 20
779.363902928881
 30
0.0
 11
639.8933819188642
 21
779.363902928881
 31
0.0
  0
LINE
  5
997E
330
18
100
AcDbEntity
  8
0
100
AcDbLine
 10
632.8933819188643
 20
779.363902928881
 30
0.0
 11
639.8933819188642
 21
779.363902928881
 31
0.0
  0
LINE
  5
997F
330
18
100
AcDbEntity
  8
0
100
AcDbLine
 10
630.8933819188642
 20
778.8639029288814
 30
0.0
 11
638.8933819188642
 21
778.8639029288814
 31
0.0
  0
LINE
  5
9980
330
18
100
AcDbEntity
  8
0
100
AcDbLine
 10
633.3933819188643
 20
785.1839029288806
 30
0.0
 11
632.8933819188643
 21
784.4439029288809
 31
0.0
  0
LINE
  5
9981
330
18
100
AcDbEntity
  8
0
100
AcDbLine
 10
633.3933819188643
 20
785.1839029288806
 30
0.0
 11
632.8933819188643
 21
784.4439029288809
 31
0.0
  0
LINE
  5
9982
330
18
100
AcDbEntity
  8
0
100
AcDbLine
 10
633.3933819188634
 20
782.7039029288807
 30
0.0
 11
633.3933819188643
 21
780.1039029288808
 31
0.0
  0
LINE
  5
9983
330
18
100
AcDbEntity
  8
0
100
AcDbLine
 10
633.3933819188634
 20
782.7039029288807
 30
0.0
 11
633.3933819188643
 21
780.1039029288808
 31
0.0
  0
LINE
  5
9984
330
18
100
AcDbEntity
  8
0
100
AcDbLine
 10
633.3933819188643
 20
780.1039029288808
 30
0.0
 11
632.8933819188643
 21
779.363902928881
 31
0.0
  0
LINE
  5
9985
330
18
100
AcDbEntity
  8
0
100
AcDbLine
 10
633.3933819188643
 20
780.1039029288808
 30
0.0
 11
632.8933819188643
 21
779.363902928881
 31
0.0
  0
LINE
  5
9986
330
18
100
AcDbEntity
  8
0
100
AcDbLine
 10
632.8933819188643
 20
783.4439029288809
 30
0.0
 11
633.3933819188634
 21
782.7039029288807
 31
0.0
  0
LINE
  5
9987
330
18
100
AcDbEntity
  8
0
100
AcDbLine
 10
632.8933819188643
 20
783.4439029288809
 30
0.0
 11
633.3933819188634
 21
782.7039029288807
 31
0.0
  0
LINE
  5
9988
330
18
100
AcDbEntity
  8
0
100
AcDbLine
 10
632.8933819188643
 20
783.4439029288809
 30
0.0
 11
632.8933819188643
 21
779.363902928881
 31
0.0
  0
LINE
  5
9989
330
18
100
AcDbEntity
  8
0
100
AcDbLine
 10
632.8933819188643
 20
783.4439029288809
 30
0.0
 11
632.8933819188643
 21
779.363902928881
 31
0.0
  0
LINE
  5
998A
330
18
100
AcDbEntity
  8
0
100
AcDbLine
 10
637.2933819188639
 20
785.1839029288806
 30
0.0
 11
639.8933819188642
 21
784.4439029288809
 31
0.0
  0
LINE
  5
998B
330
18
100
AcDbEntity
  8
0
100
AcDbLine
 10
637.2933819188639
 20
785.1839029288806
 30
0.0
 11
639.8933819188642
 21
784.4439029288809
 31
0.0
  0
LINE
  5
998C
330
18
100
AcDbEntity
  8
0
100
AcDbLine
 10
637.2933819188639
 20
782.7039029288811
 30
0.0
 11
637.2933819188639
 21
780.1039029288808
 31
0.0
  0
LINE
  5
998D
330
18
100
AcDbEntity
  8
0
100
AcDbLine
 10
637.2933819188639
 20
782.7039029288811
 30
0.0
 11
637.2933819188639
 21
780.1039029288808
 31
0.0
  0
LINE
  5
998E
330
18
100
AcDbEntity
  8
0
100
AcDbLine
 10
637.2933819188639
 20
780.1039029288808
 30
0.0
 11
639.8933819188642
 21
779.363902928881
 31
0.0
  0
LINE
  5
998F
330
18
100
AcDbEntity
  8
0
100
AcDbLine
 10
637.2933819188639
 20
780.1039029288808
 30
0.0
 11
639.8933819188642
 21
779.363902928881
 31
0.0
  0
LINE
  5
9990
330
18
100
AcDbEntity
  8
0
100
AcDbLine
 10
637.2933819188639
 20
782.7039029288811
 30
0.0
 11
639.8933819188642
 21
783.4439029288809
 31
0.0
  0
LINE
  5
9991
330
18
100
AcDbEntity
  8
0
100
AcDbLine
 10
637.2933819188639
 20
782.7039029288811
 30
0.0
 11
639.8933819188642
 21
783.4439029288809
 31
0.0
  0
LINE
  5
9992
330
18
100
AcDbEntity
  8
0
100
AcDbLine
 10
639.8933819188642
 20
783.4439029288809
 30
0.0
 11
639.8933819188642
 21
779.363902928881
 31
0.0
  0
LINE
  5
9993
330
18
100
AcDbEntity
  8
0
100
AcDbLine
 10
639.8933819188642
 20
783.4439029288809
 30
0.0
 11
639.8933819188642
 21
779.363902928881
 31
0.0
  0
LINE
  5
9994
330
18
100
AcDbEntity
  8
0
100
AcDbLine
 10
633.3933819188634
 20
792.863902928881
 30
0.0
 11
637.2933819188639
 21
792.863902928881
 31
0.0
  0
LINE
  5
9995
330
18
100
AcDbEntity
  8
0
100
AcDbLine
 10
633.3933819188634
 20
792.863902928881
 30
0.0
 11
637.2933819188639
 21
792.863902928881
 31
0.0
  0
LINE
  5
9996
330
18
100
AcDbEntity
  8
0
100
AcDbLine
 10
632.8933819188643
 20
794.6039029288807
 30
0.0
 11
639.8933819188642
 21
794.6039029288812
 31
0.0
  0
LINE
  5
9997
330
18
100
AcDbEntity
  8
0
100
AcDbLine
 10
632.8933819188643
 20
794.6039029288807
 30
0.0
 11
639.8933819188642
 21
794.6039029288812
 31
0.0
  0
LINE
  5
9998
330
18
100
AcDbEntity
  8
0
100
AcDbLine
 10
632.8933819188643
 20
793.6039029288812
 30
0.0
 11
639.8933819188642
 21
793.6039029288812
 31
0.0
  0
LINE
  5
9999
330
18
100
AcDbEntity
  8
0
100
AcDbLine
 10
632.8933819188643
 20
793.6039029288812
 30
0.0
 11
639.8933819188642
 21
793.6039029288812
 31
0.0
  0
LINE
  5
999A
330
18
100
AcDbEntity
  8
0
100
AcDbLine
 10
633.3933819188634
 20
787.7839029288805
 30
0.0
 11
637.2933819188639
 21
787.783902928881
 31
0.0
  0
LINE
  5
999B
330
18
100
AcDbEntity
  8
0
100
AcDbLine
 10
633.3933819188643
 20
790.2639029288811
 30
0.0
 11
637.2933819188639
 21
790.2639029288806
 31
0.0
  0
LINE
  5
999C
330
18
100
AcDbEntity
  8
0
100
AcDbLine
 10
633.3933819188634
 20
787.7839029288805
 30
0.0
 11
637.2933819188639
 21
787.783902928881
 31
0.0
  0
LINE
  5
999D
330
18
100
AcDbEntity
  8
0
100
AcDbLine
 10
633.3933819188643
 20
790.2639029288811
 30
0.0
 11
637.2933819188639
 21
790.2639029288806
 31
0.0
  0
LINE
  5
999E
330
18
100
AcDbEntity
  8
0
100
AcDbLine
 10
632.8933819188643
 20
788.5239029288808
 30
0.0
 11
639.8933819188642
 21
788.5239029288808
 31
0.0
  0
LINE
  5
999F
330
18
100
AcDbEntity
  8
0
100
AcDbLine
 10
632.8933819188643
 20
789.5239029288808
 30
0.0
 11
639.8933819188642
 21
789.5239029288808
 31
0.0
  0
LINE
  5
99A0
330
18
100
AcDbEntity
  8
0
100
AcDbLine
 10
632.8933819188643
 20
788.5239029288808
 30
0.0
 11
639.8933819188642
 21
788.5239029288808
 31
0.0
  0
LINE
  5
99A1
330
18
100
AcDbEntity
  8
0
100
AcDbLine
 10
632.8933819188643
 20
789.5239029288808
 30
0.0
 11
639.8933819188642
 21
789.5239029288808
 31
0.0
  0
LINE
  5
99A2
330
18
100
AcDbEntity
  8
0
100
AcDbLine
 10
632.8933819188643
 20
793.6039029288807
 30
0.0
 11
633.3933819188634
 21
792.863902928881
 31
0.0
  0
LINE
  5
99A3
330
18
100
AcDbEntity
  8
0
100
AcDbLine
 10
632.8933819188643
 20
793.6039029288807
 30
0.0
 11
633.3933819188634
 21
792.863902928881
 31
0.0
  0
LINE
  5
99A4
330
18
100
AcDbEntity
  8
0
100
AcDbLine
 10
632.8933819188643
 20
788.5239029288808
 30
0.0
 11
633.3933819188634
 21
787.7839029288805
 31
0.0
  0
LINE
  5
99A5
330
18
100
AcDbEntity
  8
0
100
AcDbLine
 10
633.3933819188643
 20
790.2639029288811
 30
0.0
 11
632.8933819188643
 21
789.5239029288808
 31
0.0
  0
LINE
  5
99A6
330
18
100
AcDbEntity
  8
0
100
AcDbLine
 10
632.8933819188643
 20
788.5239029288808
 30
0.0
 11
633.3933819188634
 21
787.7839029288805
 31
0.0
  0
LINE
  5
99A7
330
18
100
AcDbEntity
  8
0
100
AcDbLine
 10
633.3933819188643
 20
790.2639029288811
 30
0.0
 11
632.8933819188643
 21
789.5239029288808
 31
0.0
  0
LINE
  5
99A8
330
18
100
AcDbEntity
  8
0
100
AcDbLine
 10
633.3933819188634
 20
792.863902928881
 30
0.0
 11
633.3933819188643
 21
790.2639029288811
 31
0.0
  0
LINE
  5
99A9
330
18
100
AcDbEntity
  8
0
100
AcDbLine
 10
633.3933819188634
 20
792.863902928881
 30
0.0
 11
633.3933819188643
 21
790.2639029288811
 31
0.0
  0
LINE
  5
99AA
330
18
100
AcDbEntity
  8
0
100
AcDbLine
 10
632.8933819188643
 20
793.6039029288812
 30
0.0
 11
632.8933819188643
 21
789.5239029288808
 31
0.0
  0
LINE
  5
99AB
330
18
100
AcDbEntity
  8
0
100
AcDbLine
 10
632.8933819188643
 20
793.6039029288812
 30
0.0
 11
632.8933819188643
 21
789.5239029288808
 31
0.0
  0
LINE
  5
99AC
330
18
100
AcDbEntity
  8
0
100
AcDbLine
 10
637.2933819188639
 20
792.863902928881
 30
0.0
 11
639.8933819188642
 21
793.6039029288812
 31
0.0
  0
LINE
  5
99AD
330
18
100
AcDbEntity
  8
0
100
AcDbLine
 10
637.2933819188639
 20
792.863902928881
 30
0.0
 11
639.8933819188642
 21
793.6039029288812
 31
0.0
  0
LINE
  5
99AE
330
18
100
AcDbEntity
  8
0
100
AcDbLine
 10
637.2933819188639
 20
787.783902928881
 30
0.0
 11
639.8933819188642
 21
788.5239029288808
 31
0.0
  0
LINE
  5
99AF
330
18
100
AcDbEntity
  8
0
100
AcDbLine
 10
637.2933819188639
 20
790.2639029288806
 30
0.0
 11
639.8933819188642
 21
789.5239029288808
 31
0.0
  0
LINE
  5
99B0
330
18
100
AcDbEntity
  8
0
100
AcDbLine
 10
637.2933819188639
 20
787.783902928881
 30
0.0
 11
639.8933819188642
 21
788.5239029288808
 31
0.0
  0
LINE
  5
99B1
330
18
100
AcDbEntity
  8
0
100
AcDbLine
 10
637.2933819188639
 20
790.2639029288806
 30
0.0
 11
639.8933819188642
 21
789.5239029288808
 31
0.0
  0
LINE
  5
99B2
330
18
100
AcDbEntity
  8
0
100
AcDbLine
 10
637.2933819188639
 20
792.863902928881
 30
0.0
 11
637.2933819188639
 21
790.2639029288811
 31
0.0
  0
LINE
  5
99B3
330
18
100
AcDbEntity
  8
0
100
AcDbLine
 10
637.2933819188639
 20
792.863902928881
 30
0.0
 11
637.2933819188639
 21
790.2639029288811
 31
0.0
  0
LINE
  5
99B4
330
18
100
AcDbEntity
  8
0
100
AcDbLine
 10
639.8933819188642
 20
793.6039029288812
 30
0.0
 11
639.8933819188642
 21
789.5239029288808
 31
0.0
  0
LINE
  5
99B5
330
18
100
AcDbEntity
  8
0
100
AcDbLine
 10
639.8933819188642
 20
793.6039029288812
 30
0.0
 11
639.8933819188642
 21
789.5239029288808
 31
0.0
  0
LINE
  5
99B6
330
18
100
AcDbEntity
  8
0
100
AcDbLine
 10
630.8933819188642
 20
804.263902928881
 30
0.0
 11
645.8933819188643
 21
804.2639029288816
 31
0.0
  0
LINE
  5
99B7
330
18
100
AcDbEntity
  8
0
100
AcDbLine
 10
638.8933819188642
 20
809.3439029288814
 30
0.0
 11
638.8933819188642
 21
804.2639029288816
 31
0.0
  0
CIRCLE
  5
99B8
330
18
100
AcDbEntity
  8
0
100
AcDbCircle
 10
634.8933819188647
 20
806.8039029288815
 30
0.0
 40
2.0
  0
ARC
  5
99B9
330
18
100
AcDbEntity
  8
0
100
AcDbCircle
 10
633.4817819188644
 20
806.8039029288815
 30
0.0
 40
4.411600000000065
100
AcDbArc
 50
332.4568005658538
 51
27.54319943414607
  0
LINE
  5
99BA
330
18
100
AcDbEntity
  8
0
100
AcDbLine
 10
637.3933819188643
 20
804.2639029288816
 30
0.0
 11
637.3933819188643
 21
809.3439029288814
 31
0.0
  0
ARC
  5
99BB
330
18
100
AcDbEntity
  8
0
100
AcDbCircle
 10
636.3049819188642
 20
806.8039029288815
 30
0.0
 40
4.411600000000065
100
AcDbArc
 50
152.4568005658539
 51
207.543199434146
  0
LINE
  5
99BC
330
18
100
AcDbEntity
  8
0
100
AcDbLine
 10
632.3933819188643
 20
804.2639029288816
 30
0.0
 11
632.3933819188643
 21
809.3439029288814
 31
0.0
  0
LINE
  5
99BD
330
18
100
AcDbEntity
  8
0
100
AcDbLine
 10
633.3933819188634
 20
803.0239029288807
 30
0.0
 11
637.2933819188639
 21
803.0239029288807
 31
0.0
  0
LINE
  5
99BE
330
18
100
AcDbEntity
  8
0
100
AcDbLine
 10
633.3933819188634
 20
803.0239029288807
 30
0.0
 11
637.2933819188639
 21
803.0239029288807
 31
0.0
  0
LINE
  5
99BF
330
18
100
AcDbEntity
  8
0
100
AcDbLine
 10
632.8933819188643
 20
803.7639029288815
 30
0.0
 11
639.8933819188642
 21
803.7639029288815
 31
0.0
  0
LINE
  5
99C0
330
18
100
AcDbEntity
  8
0
100
AcDbLine
 10
632.8933819188643
 20
803.7639029288815
 30
0.0
 11
639.8933819188642
 21
803.7639029288815
 31
0.0
  0
LINE
  5
99C1
330
18
100
AcDbEntity
  8
0
100
AcDbLine
 10
630.8933819188642
 20
804.2639029288816
 30
0.0
 11
638.8933819188642
 21
804.2639029288816
 31
0.0
  0
LINE
  5
99C2
330
18
100
AcDbEntity
  8
0
100
AcDbLine
 10
633.3933819188643
 20
795.3439029288809
 30
0.0
 11
637.2933819188639
 21
795.3439029288809
 31
0.0
  0
LINE
  5
99C3
330
18
100
AcDbEntity
  8
0
100
AcDbLine
 10
633.3933819188643
 20
795.3439029288809
 30
0.0
 11
637.2933819188639
 21
795.3439029288809
 31
0.0
  0
LINE
  5
99C4
330
18
100
AcDbEntity
  8
0
100
AcDbLine
 10
633.3933819188643
 20
800.4239029288813
 30
0.0
 11
637.2933819188639
 21
800.4239029288809
 31
0.0
  0
LINE
  5
99C5
330
18
100
AcDbEntity
  8
0
100
AcDbLine
 10
633.3933819188634
 20
797.9439029288808
 30
0.0
 11
637.2933819188639
 21
797.9439029288808
 31
0.0
  0
LINE
  5
99C6
330
18
100
AcDbEntity
  8
0
100
AcDbLine
 10
633.3933819188634
 20
797.9439029288808
 30
0.0
 11
637.2933819188639
 21
797.9439029288808
 31
0.0
  0
LINE
  5
99C7
330
18
100
AcDbEntity
  8
0
100
AcDbLine
 10
633.3933819188643
 20
800.4239029288813
 30
0.0
 11
637.2933819188639
 21
800.4239029288809
 31
0.0
  0
LINE
  5
99C8
330
18
100
AcDbEntity
  8
0
100
AcDbLine
 10
632.8933819188643
 20
799.6839029288811
 30
0.0
 11
639.8933819188642
 21
799.6839029288811
 31
0.0
  0
LINE
  5
99C9
330
18
100
AcDbEntity
  8
0
100
AcDbLine
 10
632.8933819188643
 20
798.6839029288811
 30
0.0
 11
639.8933819188642
 21
798.6839029288811
 31
0.0
  0
LINE
  5
99CA
330
18
100
AcDbEntity
  8
0
100
AcDbLine
 10
632.8933819188643
 20
799.6839029288811
 30
0.0
 11
639.8933819188642
 21
799.6839029288811
 31
0.0
  0
LINE
  5
99CB
330
18
100
AcDbEntity
  8
0
100
AcDbLine
 10
632.8933819188643
 20
798.6839029288811
 30
0.0
 11
639.8933819188642
 21
798.6839029288811
 31
0.0
  0
LINE
  5
99CC
330
18
100
AcDbEntity
  8
0
100
AcDbLine
 10
632.8933819188643
 20
803.763902928881
 30
0.0
 11
633.3933819188634
 21
803.0239029288807
 31
0.0
  0
LINE
  5
99CD
330
18
100
AcDbEntity
  8
0
100
AcDbLine
 10
632.8933819188643
 20
803.763902928881
 30
0.0
 11
633.3933819188634
 21
803.0239029288807
 31
0.0
  0
LINE
  5
99CE
330
18
100
AcDbEntity
  8
0
100
AcDbLine
 10
633.3933819188634
 20
797.9439029288808
 30
0.0
 11
633.3933819188643
 21
795.3439029288809
 31
0.0
  0
LINE
  5
99CF
330
18
100
AcDbEntity
  8
0
100
AcDbLine
 10
633.3933819188634
 20
797.9439029288808
 30
0.0
 11
633.3933819188643
 21
795.3439029288809
 31
0.0
  0
LINE
  5
99D0
330
18
100
AcDbEntity
  8
0
100
AcDbLine
 10
632.8933819188643
 20
798.6839029288811
 30
0.0
 11
633.3933819188634
 21
797.9439029288808
 31
0.0
  0
LINE
  5
99D1
330
18
100
AcDbEntity
  8
0
100
AcDbLine
 10
633.3933819188643
 20
800.4239029288813
 30
0.0
 11
632.8933819188643
 21
799.6839029288811
 31
0.0
  0
LINE
  5
99D2
330
18
100
AcDbEntity
  8
0
100
AcDbLine
 10
632.8933819188643
 20
798.6839029288811
 30
0.0
 11
633.3933819188634
 21
797.9439029288808
 31
0.0
  0
LINE
  5
99D3
330
18
100
AcDbEntity
  8
0
100
AcDbLine
 10
633.3933819188643
 20
800.4239029288813
 30
0.0
 11
632.8933819188643
 21
799.6839029288811
 31
0.0
  0
LINE
  5
99D4
330
18
100
AcDbEntity
  8
0
100
AcDbLine
 10
633.3933819188634
 20
803.0239029288807
 30
0.0
 11
633.3933819188643
 21
800.4239029288813
 31
0.0
  0
LINE
  5
99D5
330
18
100
AcDbEntity
  8
0
100
AcDbLine
 10
633.3933819188634
 20
803.0239029288807
 30
0.0
 11
633.3933819188643
 21
800.4239029288813
 31
0.0
  0
LINE
  5
99D6
330
18
100
AcDbEntity
  8
0
100
AcDbLine
 10
632.8933819188643
 20
803.7639029288815
 30
0.0
 11
632.8933819188643
 21
799.6839029288811
 31
0.0
  0
LINE
  5
99D7
330
18
100
AcDbEntity
  8
0
100
AcDbLine
 10
632.8933819188643
 20
803.7639029288815
 30
0.0
 11
632.8933819188643
 21
799.6839029288811
 31
0.0
  0
LINE
  5
99D8
330
18
100
AcDbEntity
  8
0
100
AcDbLine
 10
637.2933819188639
 20
803.0239029288807
 30
0.0
 11
639.8933819188642
 21
803.7639029288815
 31
0.0
  0
LINE
  5
99D9
330
18
100
AcDbEntity
  8
0
100
AcDbLine
 10
637.2933819188639
 20
803.0239029288807
 30
0.0
 11
639.8933819188642
 21
803.7639029288815
 31
0.0
  0
LINE
  5
99DA
330
18
100
AcDbEntity
  8
0
100
AcDbLine
 10
637.2933819188639
 20
797.9439029288808
 30
0.0
 11
637.2933819188639
 21
795.3439029288809
 31
0.0
  0
LINE
  5
99DB
330
18
100
AcDbEntity
  8
0
100
AcDbLine
 10
637.2933819188639
 20
797.9439029288808
 30
0.0
 11
637.2933819188639
 21
795.3439029288809
 31
0.0
  0
LINE
  5
99DC
330
18
100
AcDbEntity
  8
0
100
AcDbLine
 10
637.2933819188639
 20
797.9439029288808
 30
0.0
 11
639.8933819188642
 21
798.6839029288811
 31
0.0
  0
LINE
  5
99DD
330
18
100
AcDbEntity
  8
0
100
AcDbLine
 10
637.2933819188639
 20
800.4239029288809
 30
0.0
 11
639.8933819188642
 21
799.6839029288811
 31
0.0
  0
LINE
  5
99DE
330
18
100
AcDbEntity
  8
0
100
AcDbLine
 10
637.2933819188639
 20
797.9439029288808
 30
0.0
 11
639.8933819188642
 21
798.6839029288811
 31
0.0
  0
LINE
  5
99DF
330
18
100
AcDbEntity
  8
0
100
AcDbLine
 10
637.2933819188639
 20
800.4239029288809
 30
0.0
 11
639.8933819188642
 21
799.6839029288811
 31
0.0
  0
LINE
  5
99E0
330
18
100
AcDbEntity
  8
0
100
AcDbLine
 10
639.8933819188642
 20
803.7639029288815
 30
0.0
 11
639.8933819188642
 21
799.6839029288811
 31
0.0
  0
LINE
  5
99E1
330
18
100
AcDbEntity
  8
0
100
AcDbLine
 10
639.8933819188642
 20
803.7639029288815
 30
0.0
 11
639.8933819188642
 21
799.6839029288811
 31
0.0
  0
LINE
  5
99E2
330
18
100
AcDbEntity
  8
0
100
AcDbLine
 10
637.2933819188639
 20
803.0239029288807
 30
0.0
 11
637.2933819188639
 21
800.4239029288813
 31
0.0
  0
LINE
  5
99E3
330
18
100
AcDbEntity
  8
0
100
AcDbLine
 10
637.2933819188639
 20
803.0239029288807
 30
0.0
 11
637.2933819188639
 21
800.4239029288813
 31
0.0
  0
LINE
  5
99E4
330
18
100
AcDbEntity
  8
0
100
AcDbLine
 10
636.0922057919589
 20
805.2030215087578
 30
0.0
 11
633.2736744073391
 21
807.9771665723605
 31
0.0
  0
LINE
  5
99E5
330
18
100
AcDbEntity
  8
0
100
AcDbLine
 10
636.5130894303884
 20
805.6306392854024
 30
0.0
 11
633.6945580457687
 21
808.4047843490047
 31
0.0
  0
LINE
  5
99E6
330
18
100
AcDbEntity
  8
0
100
AcDbLine
 10
630.8933819188642
 20
809.3439029288814
 30
0.0
 11
638.8933819188642
 21
809.3439029288814
 31
0.0
  0
LINE
  5
99E7
330
18
100
AcDbEntity
  8
0
100
AcDbLine
 10
638.2933819188639
 20
813.3639029288813
 30
0.0
 11
631.8933819188643
 21
813.3639029288813
 31
0.0
  0
LINE
  5
99E8
330
18
100
AcDbEntity
  8
0
100
AcDbLine
 10
637.2933819188639
 20
834.1039029288817
 30
0.0
 11
637.2933819188639
 21
832.8039029288815
 31
0.0
  0
LINE
  5
99E9
330
18
100
AcDbEntity
  8
0
100
AcDbLine
 10
636.7933819188639
 20
834.1039029288817
 30
0.0
 11
636.7933819188639
 21
832.8039029288815
 31
0.0
  0
LINE
  5
99EA
330
18
100
AcDbEntity
  8
0
100
AcDbLine
 10
635.093381918864
 20
834.1039029288817
 30
0.0
 11
635.093381918864
 21
832.8039029288815
 31
0.0
  0
LINE
  5
99EB
330
18
100
AcDbEntity
  8
0
100
AcDbLine
 10
630.8933819188642
 20
823.8939029288816
 30
0.0
 11
631.8933819188643
 21
823.8939029288816
 31
0.0
  0
LINE
  5
99EC
330
18
100
AcDbEntity
  8
0
100
AcDbLine
 10
630.8933819188642
 20
822.6939029288812
 30
0.0
 11
631.8933819188643
 21
822.6939029288812
 31
0.0
  0
TEXT
  5
99ED
330
18
100
AcDbEntity
  8
0
100
AcDbText
 10
632.1600485855314
 20
824.0353242851185
 30
0.0
 40
2.0
  1
5
 50
270.0
 72
     1
 11
631.8933819188647
 21
823.2939029288813
 31
0.0
100
AcDbText
 73
     1
  0
LINE
  5
99EE
330
18
100
AcDbEntity
  8
0
100
AcDbLine
 10
630.8933819188642
 20
815.0739029288814
 30
0.0
 11
631.8933819188643
 21
815.0739029288814
 31
0.0
  0
LINE
  5
99EF
330
18
100
AcDbEntity
  8
0
100
AcDbLine
 10
630.8933819188642
 20
816.2739029288816
 30
0.0
 11
631.8933819188643
 21
816.2739029288816
 31
0.0
  0
LINE
  5
99F0
330
18
100
AcDbEntity
  8
0
100
AcDbLine
 10
630.8933819188642
 20
821.3539029288817
 30
0.0
 11
631.8933819188643
 21
821.3539029288817
 31
0.0
  0
LINE
  5
99F1
330
18
100
AcDbEntity
  8
0
100
AcDbLine
 10
630.8933819188642
 20
820.1539029288813
 30
0.0
 11
631.8933819188643
 21
820.1539029288813
 31
0.0
  0
LINE
  5
99F2
330
18
100
AcDbEntity
  8
0
100
AcDbLine
 10
630.8933819188642
 20
818.8139029288816
 30
0.0
 11
631.8933819188643
 21
818.8139029288816
 31
0.0
  0
LINE
  5
99F3
330
18
100
AcDbEntity
  8
0
100
AcDbLine
 10
630.8933819188642
 20
817.6139029288814
 30
0.0
 11
631.8933819188643
 21
817.6139029288814
 31
0.0
  0
TEXT
  5
99F4
330
18
100
AcDbEntity
  8
0
100
AcDbText
 10
632.1600485855314
 20
816.3739029288814
 30
0.0
 40
2.0
  1
8
 50
270.0
 72
     1
 11
631.8933819188647
 21
815.6739029288813
 31
0.0
100
AcDbText
 73
     1
  0
TEXT
  5
99F5
330
18
100
AcDbEntity
  8
0
100
AcDbText
 10
632.1600485855314
 20
821.4436667084088
 30
0.0
 40
2.0
  1
6
 50
270.0
 72
     1
 11
631.8933819188647
 21
820.7539029288813
 31
0.0
100
AcDbText
 73
     1
  0
TEXT
  5
99F6
330
18
100
AcDbEntity
  8
0
100
AcDbText
 10
632.1600485855314
 20
818.9139029288813
 30
0.0
 40
2.0
  1
7
 50
270.0
 72
     1
 11
631.8933819188647
 21
818.2139029288814
 31
0.0
100
AcDbText
 73
     1
  0
LINE
  5
99F7
330
18
100
AcDbEntity
  8
0
100
AcDbLine
 10
637.2933819188639
 20
823.9439029288813
 30
0.0
 11
637.2933819188639
 21
822.6439029288815
 31
0.0
  0
LINE
  5
99F8
330
18
100
AcDbEntity
  8
0
100
AcDbLine
 10
636.7933819188639
 20
823.9439029288813
 30
0.0
 11
636.7933819188639
 21
822.6439029288815
 31
0.0
  0
LINE
  5
99F9
330
18
100
AcDbEntity
  8
0
100
AcDbLine
 10
636.2433819188638
 20
823.7939029288812
 30
0.0
 11
636.2433819188638
 21
822.7939029288812
 31
0.0
  0
LINE
  5
99FA
330
18
100
AcDbEntity
  8
0
100
AcDbLine
 10
635.093381918864
 20
823.9439029288813
 30
0.0
 11
635.093381918864
 21
822.6439029288815
 31
0.0
  0
LINE
  5
99FB
330
18
100
AcDbEntity
  8
0
100
AcDbLine
 10
635.2433819188637
 20
822.7939029288812
 30
0.0
 11
635.2433819188637
 21
823.7939029288812
 31
0.0
  0
LINE
  5
99FC
330
18
100
AcDbEntity
  8
0
100
AcDbLine
 10
635.2433819188637
 20
823.7939029288812
 30
0.0
 11
636.2433819188638
 21
823.7939029288812
 31
0.0
  0
LINE
  5
99FD
330
18
100
AcDbEntity
  8
0
100
AcDbLine
 10
636.2433819188638
 20
822.7939029288812
 30
0.0
 11
635.2433819188637
 21
822.7939029288812
 31
0.0
  0
LINE
  5
99FE
330
18
100
AcDbEntity
  8
0
100
AcDbLine
 10
638.2933819188639
 20
823.9439029288813
 30
0.0
 11
635.093381918864
 21
823.9439029288813
 31
0.0
  0
LINE
  5
99FF
330
18
100
AcDbEntity
  8
0
100
AcDbLine
 10
635.093381918864
 20
822.6439029288815
 30
0.0
 11
638.2933819188639
 21
822.6439029288815
 31
0.0
  0
LINE
  5
9A00
330
18
100
AcDbEntity
  8
0
100
AcDbLine
 10
637.2933819188639
 20
816.3239029288813
 30
0.0
 11
637.2933819188639
 21
815.0239029288817
 31
0.0
  0
LINE
  5
9A01
330
18
100
AcDbEntity
  8
0
100
AcDbLine
 10
636.7933819188639
 20
816.3239029288813
 30
0.0
 11
636.7933819188639
 21
815.0239029288817
 31
0.0
  0
LINE
  5
9A02
330
18
100
AcDbEntity
  8
0
100
AcDbLine
 10
636.2433819188638
 20
816.1739029288813
 30
0.0
 11
636.2433819188638
 21
815.1739029288814
 31
0.0
  0
LINE
  5
9A03
330
18
100
AcDbEntity
  8
0
100
AcDbLine
 10
635.093381918864
 20
816.3239029288813
 30
0.0
 11
635.093381918864
 21
815.0239029288817
 31
0.0
  0
LINE
  5
9A04
330
18
100
AcDbEntity
  8
0
100
AcDbLine
 10
635.2433819188637
 20
815.1739029288814
 30
0.0
 11
635.2433819188637
 21
816.1739029288813
 31
0.0
  0
LINE
  5
9A05
330
18
100
AcDbEntity
  8
0
100
AcDbLine
 10
636.2433819188638
 20
815.1739029288814
 30
0.0
 11
635.2433819188637
 21
815.1739029288814
 31
0.0
  0
LINE
  5
9A06
330
18
100
AcDbEntity
  8
0
100
AcDbLine
 10
635.2433819188637
 20
816.1739029288813
 30
0.0
 11
636.2433819188638
 21
816.1739029288813
 31
0.0
  0
LINE
  5
9A07
330
18
100
AcDbEntity
  8
0
100
AcDbLine
 10
637.2933819188639
 20
821.4039029288814
 30
0.0
 11
637.2933819188639
 21
820.1039029288816
 31
0.0
  0
LINE
  5
9A08
330
18
100
AcDbEntity
  8
0
100
AcDbLine
 10
636.7933819188639
 20
821.4039029288814
 30
0.0
 11
636.7933819188639
 21
820.1039029288816
 31
0.0
  0
LINE
  5
9A09
330
18
100
AcDbEntity
  8
0
100
AcDbLine
 10
636.2433819188638
 20
821.2539029288812
 30
0.0
 11
636.2433819188638
 21
820.2539029288812
 31
0.0
  0
LINE
  5
9A0A
330
18
100
AcDbEntity
  8
0
100
AcDbLine
 10
637.2933819188639
 20
818.8639029288815
 30
0.0
 11
637.2933819188639
 21
817.5639029288817
 31
0.0
  0
LINE
  5
9A0B
330
18
100
AcDbEntity
  8
0
100
AcDbLine
 10
636.7933819188639
 20
818.8639029288815
 30
0.0
 11
636.7933819188639
 21
817.5639029288817
 31
0.0
  0
LINE
  5
9A0C
330
18
100
AcDbEntity
  8
0
100
AcDbLine
 10
636.2433819188638
 20
818.7139029288813
 30
0.0
 11
636.2433819188638
 21
817.7139029288813
 31
0.0
  0
LINE
  5
9A0D
330
18
100
AcDbEntity
  8
0
100
AcDbLine
 10
635.093381918864
 20
821.4039029288814
 30
0.0
 11
635.093381918864
 21
820.1039029288816
 31
0.0
  0
LINE
  5
9A0E
330
18
100
AcDbEntity
  8
0
100
AcDbLine
 10
635.2433819188637
 20
820.2539029288812
 30
0.0
 11
635.2433819188637
 21
821.2539029288812
 31
0.0
  0
LINE
  5
9A0F
330
18
100
AcDbEntity
  8
0
100
AcDbLine
 10
635.093381918864
 20
818.8639029288815
 30
0.0
 11
635.093381918864
 21
817.5639029288817
 31
0.0
  0
LINE
  5
9A10
330
18
100
AcDbEntity
  8
0
100
AcDbLine
 10
635.2433819188637
 20
817.7139029288813
 30
0.0
 11
635.2433819188637
 21
818.7139029288813
 31
0.0
  0
LINE
  5
9A11
330
18
100
AcDbEntity
  8
0
100
AcDbLine
 10
636.2433819188638
 20
820.2539029288812
 30
0.0
 11
635.2433819188637
 21
820.2539029288812
 31
0.0
  0
LINE
  5
9A12
330
18
100
AcDbEntity
  8
0
100
AcDbLine
 10
635.2433819188637
 20
821.2539029288812
 30
0.0
 11
636.2433819188638
 21
821.2539029288812
 31
0.0
  0
LINE
  5
9A13
330
18
100
AcDbEntity
  8
0
100
AcDbLine
 10
635.2433819188637
 20
818.7139029288813
 30
0.0
 11
636.2433819188638
 21
818.7139029288813
 31
0.0
  0
LINE
  5
9A14
330
18
100
AcDbEntity
  8
0
100
AcDbLine
 10
636.2433819188638
 20
817.7139029288813
 30
0.0
 11
635.2433819188637
 21
817.7139029288813
 31
0.0
  0
LINE
  5
9A15
330
18
100
AcDbEntity
  8
0
100
AcDbLine
 10
635.093381918864
 20
815.0239029288817
 30
0.0
 11
638.2933819188639
 21
815.0239029288817
 31
0.0
  0
LINE
  5
9A16
330
18
100
AcDbEntity
  8
0
100
AcDbLine
 10
638.2933819188639
 20
816.3239029288813
 30
0.0
 11
635.093381918864
 21
816.3239029288813
 31
0.0
  0
LINE
  5
9A17
330
18
100
AcDbEntity
  8
0
100
AcDbLine
 10
635.093381918864
 20
820.1039029288816
 30
0.0
 11
638.2933819188639
 21
820.1039029288816
 31
0.0
  0
LINE
  5
9A18
330
18
100
AcDbEntity
  8
0
100
AcDbLine
 10
638.2933819188639
 20
821.4039029288814
 30
0.0
 11
635.093381918864
 21
821.4039029288814
 31
0.0
  0
LINE
  5
9A19
330
18
100
AcDbEntity
  8
0
100
AcDbLine
 10
638.2933819188639
 20
818.8639029288815
 30
0.0
 11
635.093381918864
 21
818.8639029288815
 31
0.0
  0
LINE
  5
9A1A
330
18
100
AcDbEntity
  8
0
100
AcDbLine
 10
635.093381918864
 20
817.5639029288817
 30
0.0
 11
638.2933819188639
 21
817.5639029288817
 31
0.0
  0
LINE
  5
9A1B
330
18
100
AcDbEntity
  8
0
100
AcDbLine
 10
630.8933819188642
 20
834.0539029288814
 30
0.0
 11
631.8933819188643
 21
834.0539029288814
 31
0.0
  0
LINE
  5
9A1C
330
18
100
AcDbEntity
  8
0
100
AcDbLine
 10
630.8933819188642
 20
832.8539029288815
 30
0.0
 11
631.8933819188643
 21
832.8539029288815
 31
0.0
  0
LINE
  5
9A1D
330
18
100
AcDbEntity
  8
0
100
AcDbLine
 10
630.8933819188642
 20
825.2339029288817
 30
0.0
 11
631.8933819188643
 21
825.2339029288817
 31
0.0
  0
LINE
  5
9A1E
330
18
100
AcDbEntity
  8
0
100
AcDbLine
 10
630.8933819188642
 20
826.4339029288816
 30
0.0
 11
631.8933819188643
 21
826.4339029288816
 31
0.0
  0
LINE
  5
9A1F
330
18
100
AcDbEntity
  8
0
100
AcDbLine
 10
630.8933819188642
 20
830.3139029288816
 30
0.0
 11
631.8933819188643
 21
830.3139029288816
 31
0.0
  0
LINE
  5
9A20
330
18
100
AcDbEntity
  8
0
100
AcDbLine
 10
630.8933819188642
 20
828.9739029288815
 30
0.0
 11
631.8933819188643
 21
828.9739029288815
 31
0.0
  0
LINE
  5
9A21
330
18
100
AcDbEntity
  8
0
100
AcDbLine
 10
630.8933819188633
 20
827.7739029288817
 30
0.0
 11
631.8933819188643
 21
827.7739029288817
 31
0.0
  0
LINE
  5
9A22
330
18
100
AcDbEntity
  8
0
100
AcDbLine
 10
630.8933819188642
 20
831.5139029288815
 30
0.0
 11
631.8933819188643
 21
831.5139029288815
 31
0.0
  0
TEXT
  5
9A23
330
18
100
AcDbEntity
  8
0
100
AcDbText
 10
632.1600485855314
 20
826.6339029288811
 30
0.0
 40
2.0
  1
4
 50
270.0
 72
     1
 11
631.8933819188647
 21
825.8339029288812
 31
0.0
100
AcDbText
 73
     1
  0
TEXT
  5
9A24
330
18
100
AcDbEntity
  8
0
100
AcDbText
 10
632.1600485855314
 20
831.6485682832118
 30
0.0
 40
2.0
  1
2
 50
270.0
 72
     1
 11
631.8933819188647
 21
830.9139029288811
 31
0.0
100
AcDbText
 73
     1
  0
TEXT
  5
9A25
330
18
100
AcDbEntity
  8
0
100
AcDbText
 10
632.1600485855314
 20
829.1153242851185
 30
0.0
 40
2.0
  1
3
 50
270.0
 72
     1
 11
631.8933819188647
 21
828.3739029288812
 31
0.0
100
AcDbText
 73
     1
  0
TEXT
  5
9A26
330
18
100
AcDbEntity
  8
0
100
AcDbText
 10
632.1600485855314
 20
833.9539029288811
 30
0.0
 40
2.0
  1
1
 50
270.0
 72
     1
 11
631.8933819188647
 21
833.453902928881
 31
0.0
100
AcDbText
 73
     1
  0
LINE
  5
9A27
330
18
100
AcDbEntity
  8
0
100
AcDbLine
 10
636.2433819188638
 20
833.9539029288811
 30
0.0
 11
636.2433819188638
 21
832.9539029288811
 31
0.0
  0
LINE
  5
9A28
330
18
100
AcDbEntity
  8
0
100
AcDbLine
 10
635.2433819188637
 20
832.9539029288811
 30
0.0
 11
635.2433819188637
 21
833.9539029288811
 31
0.0
  0
LINE
  5
9A29
330
18
100
AcDbEntity
  8
0
100
AcDbLine
 10
635.2433819188637
 20
833.9539029288811
 30
0.0
 11
636.2433819188638
 21
833.9539029288811
 31
0.0
  0
LINE
  5
9A2A
330
18
100
AcDbEntity
  8
0
100
AcDbLine
 10
636.2433819188638
 20
832.9539029288811
 30
0.0
 11
635.2433819188637
 21
832.9539029288811
 31
0.0
  0
LINE
  5
9A2B
330
18
100
AcDbEntity
  8
0
100
AcDbLine
 10
635.093381918864
 20
832.8039029288815
 30
0.0
 11
638.2933819188639
 21
832.8039029288815
 31
0.0
  0
LINE
  5
9A2C
330
18
100
AcDbEntity
  8
0
100
AcDbLine
 10
637.2933819188639
 20
826.4839029288818
 30
0.0
 11
637.2933819188639
 21
825.1839029288815
 31
0.0
  0
LINE
  5
9A2D
330
18
100
AcDbEntity
  8
0
100
AcDbLine
 10
636.7933819188639
 20
826.4839029288818
 30
0.0
 11
636.7933819188639
 21
825.1839029288815
 31
0.0
  0
LINE
  5
9A2E
330
18
100
AcDbEntity
  8
0
100
AcDbLine
 10
636.2433819188638
 20
826.3339029288811
 30
0.0
 11
636.2433819188638
 21
825.3339029288811
 31
0.0
  0
LINE
  5
9A2F
330
18
100
AcDbEntity
  8
0
100
AcDbLine
 10
635.093381918864
 20
826.4839029288818
 30
0.0
 11
635.093381918864
 21
825.1839029288815
 31
0.0
  0
LINE
  5
9A30
330
18
100
AcDbEntity
  8
0
100
AcDbLine
 10
635.2433819188637
 20
825.3339029288811
 30
0.0
 11
635.2433819188637
 21
826.3339029288811
 31
0.0
  0
LINE
  5
9A31
330
18
100
AcDbEntity
  8
0
100
AcDbLine
 10
636.2433819188638
 20
825.3339029288811
 30
0.0
 11
635.2433819188637
 21
825.3339029288811
 31
0.0
  0
LINE
  5
9A32
330
18
100
AcDbEntity
  8
0
100
AcDbLine
 10
635.2433819188637
 20
826.3339029288811
 30
0.0
 11
636.2433819188638
 21
826.3339029288811
 31
0.0
  0
LINE
  5
9A33
330
18
100
AcDbEntity
  8
0
100
AcDbLine
 10
637.2933819188639
 20
831.5639029288817
 30
0.0
 11
637.2933819188639
 21
830.2639029288815
 31
0.0
  0
LINE
  5
9A34
330
18
100
AcDbEntity
  8
0
100
AcDbLine
 10
636.7933819188639
 20
831.5639029288817
 30
0.0
 11
636.7933819188639
 21
830.2639029288815
 31
0.0
  0
LINE
  5
9A35
330
18
100
AcDbEntity
  8
0
100
AcDbLine
 10
636.2433819188638
 20
831.4139029288812
 30
0.0
 11
636.2433819188638
 21
830.4139029288812
 31
0.0
  0
LINE
  5
9A36
330
18
100
AcDbEntity
  8
0
100
AcDbLine
 10
637.2933819188639
 20
829.0239029288818
 30
0.0
 11
637.2933819188639
 21
827.7239029288816
 31
0.0
  0
LINE
  5
9A37
330
18
100
AcDbEntity
  8
0
100
AcDbLine
 10
636.7933819188639
 20
829.0239029288818
 30
0.0
 11
636.7933819188639
 21
827.7239029288816
 31
0.0
  0
LINE
  5
9A38
330
18
100
AcDbEntity
  8
0
100
AcDbLine
 10
636.2433819188638
 20
828.8739029288812
 30
0.0
 11
636.2433819188638
 21
827.8739029288811
 31
0.0
  0
LINE
  5
9A39
330
18
100
AcDbEntity
  8
0
100
AcDbLine
 10
635.093381918864
 20
831.5639029288817
 30
0.0
 11
635.093381918864
 21
830.2639029288815
 31
0.0
  0
LINE
  5
9A3A
330
18
100
AcDbEntity
  8
0
100
AcDbLine
 10
635.2433819188637
 20
830.4139029288812
 30
0.0
 11
635.2433819188637
 21
831.4139029288812
 31
0.0
  0
LINE
  5
9A3B
330
18
100
AcDbEntity
  8
0
100
AcDbLine
 10
635.093381918864
 20
829.0239029288818
 30
0.0
 11
635.093381918864
 21
827.7239029288816
 31
0.0
  0
LINE
  5
9A3C
330
18
100
AcDbEntity
  8
0
100
AcDbLine
 10
635.2433819188637
 20
827.8739029288811
 30
0.0
 11
635.2433819188637
 21
828.8739029288812
 31
0.0
  0
LINE
  5
9A3D
330
18
100
AcDbEntity
  8
0
100
AcDbLine
 10
635.2433819188637
 20
828.8739029288812
 30
0.0
 11
636.2433819188638
 21
828.8739029288812
 31
0.0
  0
LINE
  5
9A3E
330
18
100
AcDbEntity
  8
0
100
AcDbLine
 10
636.2433819188638
 20
827.8739029288811
 30
0.0
 11
635.2433819188637
 21
827.8739029288811
 31
0.0
  0
LINE
  5
9A3F
330
18
100
AcDbEntity
  8
0
100
AcDbLine
 10
635.2433819188637
 20
831.4139029288812
 30
0.0
 11
636.2433819188638
 21
831.4139029288812
 31
0.0
  0
LINE
  5
9A40
330
18
100
AcDbEntity
  8
0
100
AcDbLine
 10
636.2433819188638
 20
830.4139029288812
 30
0.0
 11
635.2433819188637
 21
830.4139029288812
 31
0.0
  0
LINE
  5
9A41
330
18
100
AcDbEntity
  8
0
100
AcDbLine
 10
635.093381918864
 20
825.1839029288815
 30
0.0
 11
638.2933819188639
 21
825.1839029288815
 31
0.0
  0
LINE
  5
9A42
330
18
100
AcDbEntity
  8
0
100
AcDbLine
 10
638.2933819188639
 20
826.4839029288818
 30
0.0
 11
635.093381918864
 21
826.4839029288818
 31
0.0
  0
LINE
  5
9A43
330
18
100
AcDbEntity
  8
0
100
AcDbLine
 10
638.2933819188639
 20
831.5639029288817
 30
0.0
 11
635.093381918864
 21
831.5639029288817
 31
0.0
  0
LINE
  5
9A44
330
18
100
AcDbEntity
  8
0
100
AcDbLine
 10
635.093381918864
 20
830.2639029288815
 30
0.0
 11
638.2933819188639
 21
830.2639029288815
 31
0.0
  0
LINE
  5
9A45
330
18
100
AcDbEntity
  8
0
100
AcDbLine
 10
638.2933819188639
 20
829.0239029288818
 30
0.0
 11
635.093381918864
 21
829.0239029288818
 31
0.0
  0
LINE
  5
9A46
330
18
100
AcDbEntity
  8
0
100
AcDbLine
 10
635.093381918864
 20
827.7239029288816
 30
0.0
 11
638.2933819188639
 21
827.7239029288816
 31
0.0
  0
LINE
  5
9A47
330
18
100
AcDbEntity
  8
0
100
AcDbLine
 10
631.8933819188643
 20
835.7639029288815
 30
0.0
 11
638.2933819188639
 21
835.7639029288815
 31
0.0
  0
LINE
  5
9A48
330
18
100
AcDbEntity
  8
0
100
AcDbLine
 10
630.8933819188642
 20
842.2639029288815
 30
0.0
 11
632.1162315261481
 21
842.2639029288815
 31
0.0
  0
LINE
  5
9A49
330
18
100
AcDbEntity
  8
0
100
AcDbLine
 10
632.1162315261481
 20
840.2639029288815
 30
0.0
 11
630.8933819188642
 21
840.2639029288815
 31
0.0
  0
LINE
  5
9A4A
330
18
100
AcDbEntity
  8
0
100
AcDbLine
 10
630.8933819188642
 20
839.2639029288815
 30
0.0
 11
632.1162315261481
 21
839.2639029288815
 31
0.0
  0
LINE
  5
9A4B
330
18
100
AcDbEntity
  8
0
100
AcDbLine
 10
632.1162315261481
 20
837.2639029288816
 30
0.0
 11
630.8933819188642
 21
837.2639029288816
 31
0.0
  0
LINE
  5
9A4C
330
18
100
AcDbEntity
  8
0
100
AcDbLine
 10
630.8933819188642
 20
837.2639029288816
 30
0.0
 11
630.8933819188642
 21
839.2639029288815
 31
0.0
  0
LINE
  5
9A4D
330
18
100
AcDbEntity
  8
0
100
AcDbLine
 10
632.1162315261481
 20
839.2639029288815
 30
0.0
 11
632.1162315261481
 21
837.2639029288816
 31
0.0
  0
TEXT
  5
9A4E
330
18
100
AcDbEntity
  8
0
100
AcDbText
 10
632.5811269144574
 20
834.4398269866964
 30
0.0
 40
1.0
  1
ＯＮ
100
AcDbText
  0
LINE
  5
9A4F
330
18
100
AcDbEntity
  8
0
100
AcDbLine
 10
630.8933819188642
 20
840.2639029288815
 30
0.0
 11
630.8933819188642
 21
842.2639029288815
 31
0.0
  0
LINE
  5
9A50
330
18
100
AcDbEntity
  8
0
100
AcDbLine
 10
632.1162315261481
 20
842.2639029288815
 30
0.0
 11
632.1162315261481
 21
840.2639029288815
 31
0.0
  0
SOLID
  5
9A51
330
18
100
AcDbEntity
  8
0
100
AcDbTrace
 10
635.6329669743915
 20
834.8852159651526
 30
0.0
 11
635.1329669743915
 21
834.9685492984862
 31
0.0
 12
635.6329669743915
 22
835.0518826318197
 32
0.0
 13
635.6329669743915
 23
835.0518826318197
 33
0.0
1001
ACAD
1000
DSTYLE
1002
{
1070
    41
1040
1.0
1070
    40
1040
0.5
1002
}
  0
LINE
  5
9A52
330
18
100
AcDbEntity
  8
0
100
AcDbLine
 10
635.632966974391
 20
834.9685492984862
 30
0.0
 11
636.7539985216946
 21
834.9685492984862
 31
0.0
1001
ACAD
1000
DSTYLE
1002
{
1070
    41
1040
1.0
1070
    40
1040
0.5
1002
}
  0
LINE
  5
9A53
330
18
100
AcDbEntity
  8
0
100
AcDbLine
 10
638.2933819188639
 20
834.1039029288817
 30
0.0
 11
635.093381918864
 21
834.1039029288817
 31
0.0
  0
TEXT
  5
9A54
330
18
100
AcDbEntity
  8
0
100
AcDbText
 10
630.2505627860419
 20
871.6180595611936
 30
0.0
 40
2.5
  1
NODE No.
  7
MSｺﾞｼｯｸ
100
AcDbText
  0
TEXT
  5
9A55
330
18
100
AcDbEntity
  8
0
100
AcDbText
 10
632.249293750509
 20
867.4513928945268
 30
0.0
 40
2.5
  1
SW1-6
  7
MSｺﾞｼｯｸ
100
AcDbText
  0
TEXT
  5
9A56
330
18
100
AcDbEntity
  8
0
100
AcDbText
 10
632.4374556844528
 20
858.1541038062658
 30
0.0
 40
2.5
  1
RATE
  7
MSｺﾞｼｯｸ
100
AcDbText
  0
TEXT
  5
9A57
330
18
100
AcDbEntity
  8
0
100
AcDbText
 10
631.6506536539961
 20
853.987437139599
 30
0.0
 40
2.5
  1
SW7.8
  7
MSｺﾞｼｯｸ
100
AcDbText
  0
TEXT
  5
9A58
330
18
100
AcDbEntity
  8
0
100
AcDbText
 10
631.4943044887813
 20
886.4215715858748
 30
0.0
 40
2.5
  1
NS LED
  7
MSｺﾞｼｯｸ
100
AcDbText
  0
TEXT
  5
9A59
330
18
100
AcDbEntity
  8
0
100
AcDbText
 10
631.5594240798827
 20
880.208420889032
 30
0.0
 40
2.5
  1
MS LED
  7
MSｺﾞｼｯｸ
100
AcDbText
  0
LINE
  5
9A5A
330
18
100
AcDbEntity
  8
0
100
AcDbLine
 10
511.7933819188634
 20
932.4029262382003
 30
0.0
 11
563.7933819188634
 21
932.4029262382003
 31
0.0
  0
TEXT
  5
9A5B
330
18
100
AcDbEntity
  8
0
100
AcDbText
 10
516.2388368086127
 20
919.8756622076063
 30
0.0
 40
6.5
  1
ACTUS POWER
 41
0.9300774284514773
  7
MSｺﾞｼｯｸ
 72
     5
 11
559.4473069872316
 21
919.8756622076063
 31
0.0
100
AcDbText
  0
LINE
  5
9A5C
330
18
100
AcDbEntity
  8
0
100
AcDbLine
 10
610.0433819188634
 20
956.1529262382002
 30
0.0
 11
525.5433819188635
 21
956.1529262382002
 31
0.0
  0
LINE
  5
9A5D
330
18
100
AcDbEntity
  8
0
100
AcDbLine
 10
501.7933819188634
 20
941.1529262382003
 30
0.0
 11
622.7933819188635
 21
941.1529262382003
 31
0.0
  0
LINE
  5
9A5E
330
18
100
AcDbEntity
  8
0
100
AcDbLine
 10
610.0433819188634
 20
956.1529262382002
 30
0.0
 11
525.5433819188635
 21
956.1529262382002
 31
0.0
  0
ARC
  5
9A64
330
18
100
AcDbEntity
  8
0
100
AcDbCircle
 10
511.7933819188634
 20
930.4029262382004
 30
0.0
 40
2.0
100
AcDbArc
 50
90.0
 51
180.0
  0
TEXT
  5
9A65
330
18
100
AcDbEntity
  8
0
100
AcDbText
 10
516.3170933806737
 20
927.4405968916004
 30
0.0
 40
2.0
  1
AC   SERVO  DRIVER
  7
MSｺﾞｼｯｸ
100
AcDbText
  0
LINE
  5
9A66
330
18
100
AcDbEntity
  8
0
100
AcDbLine
 10
525.8568902457601
 20
935.6529262382004
 30
0.0
 11
527.2933819188635
 21
935.6529262382004
 31
0.0
  0
LINE
  5
9A67
330
18
100
AcDbEntity
  8
0
100
AcDbLine
 10
525.8568902457601
 20
934.6529262382004
 30
0.0
 11
527.2933819188635
 21
934.6529262382004
 31
0.0
  0
CIRCLE
  5
9A68
330
18
100
AcDbEntity
  8
0
100
AcDbCircle
 10
527.7933819188635
 20
935.1529262382003
 30
0.0
 40
3.0
  0
CIRCLE
  5
9A69
330
18
100
AcDbEntity
  8
0
100
AcDbCircle
 10
527.7933819188635
 20
935.1529262382003
 30
0.0
 40
2.5
  0
LINE
  5
9A6A
330
18
100
AcDbEntity
  8
0
100
AcDbLine
 10
512.7933819188634
 20
941.1529262382003
 30
0.0
 11
512.7933819188634
 21
956.1529262382004
 31
0.0
  0
ARC
  5
9A6B
330
18
100
AcDbEntity
  8
0
100
AcDbCircle
 10
522.7933819188634
 20
951.1529262382001
 30
0.0
 40
2.75
100
AcDbArc
 50
180.0
 51
0.0
  0
LINE
  5
9A6C
330
18
100
AcDbEntity
  8
0
100
AcDbLine
 10
512.7933819188634
 20
941.1529262382003
 30
0.0
 11
512.7933819188634
 21
956.1529262382004
 31
0.0
  0
ARC
  5
9A6D
330
18
100
AcDbEntity
  8
0
100
AcDbCircle
 10
527.7933819188635
 20
935.1529262382003
 30
0.0
 40
2.0
100
AcDbArc
 50
165.5224878140697
 51
194.4775121859302
  0
LINE
  5
9A6E
330
18
100
AcDbEntity
  8
0
100
AcDbLine
 10
520.0433819188634
 20
956.1529262381998
 30
0.0
 11
512.7933819188634
 21
956.1529262382002
 31
0.0
  0
LINE
  5
9A6F
330
18
100
AcDbEntity
  8
0
100
AcDbLine
 10
520.0433819188634
 20
956.1529262381998
 30
0.0
 11
512.7933819188634
 21
956.1529262382002
 31
0.0
  0
LINE
  5
9A70
330
18
100
AcDbEntity
  8
0
100
AcDbLine
 10
520.0433819188634
 20
951.1529262382001
 30
0.0
 11
520.0433819188634
 21
956.1529262382002
 31
0.0
  0
LINE
  5
9A71
330
18
100
AcDbEntity
  8
0
100
AcDbLine
 10
520.0433819188634
 20
951.1529262382001
 30
0.0
 11
520.0433819188634
 21
956.1529262382002
 31
0.0
  0
LINE
  5
9A72
330
18
100
AcDbEntity
  8
0
100
AcDbLine
 10
525.5433819188635
 20
951.1529262382001
 30
0.0
 11
525.5433819188635
 21
956.1529262382002
 31
0.0
  0
LINE
  5
9A73
330
18
100
AcDbEntity
  8
0
100
AcDbLine
 10
525.5433819188635
 20
951.1529262382001
 30
0.0
 11
525.5433819188635
 21
956.1529262382002
 31
0.0
  0
ARC
  5
9A74
330
18
100
AcDbEntity
  8
0
100
AcDbCircle
 10
527.7933819188635
 20
935.1529262382003
 30
0.0
 40
2.0
100
AcDbArc
 50
345.5224878140697
 51
14.47751218593027
  0
LINE
  5
9A75
330
18
100
AcDbEntity
  8
0
100
AcDbLine
 10
528.2933819188635
 20
935.6529262382004
 30
0.0
 11
528.2933819188635
 21
937.0894179113042
 31
0.0
  0
LINE
  5
9A76
330
18
100
AcDbEntity
  8
0
100
AcDbLine
 10
527.2933819188635
 20
935.6529262382004
 30
0.0
 11
527.2933819188635
 21
937.0894179113042
 31
0.0
  0
ARC
  5
9A77
330
18
100
AcDbEntity
  8
0
100
AcDbCircle
 10
527.7933819188635
 20
935.1529262382003
 30
0.0
 40
2.0
100
AcDbArc
 50
75.52248781407055
 51
104.4775121859294
  0
ARC
  5
9A78
330
18
100
AcDbEntity
  8
0
100
AcDbCircle
 10
527.7933819188635
 20
935.1529262382003
 30
0.0
 40
2.0
100
AcDbArc
 50
255.5224878140705
 51
284.4775121859294
  0
LINE
  5
9A79
330
18
100
AcDbEntity
  8
0
100
AcDbLine
 10
527.2933819188635
 20
933.2164345650966
 30
0.0
 11
527.2933819188635
 21
934.6529262382004
 31
0.0
  0
LINE
  5
9A7A
330
18
100
AcDbEntity
  8
0
100
AcDbLine
 10
528.2933819188635
 20
933.2164345650966
 30
0.0
 11
528.2933819188635
 21
934.6529262382004
 31
0.0
  0
LINE
  5
9A7B
330
18
100
AcDbEntity
  8
0
100
AcDbLine
 10
528.2933819188635
 20
935.6529262382004
 30
0.0
 11
529.7298735919672
 21
935.6529262382004
 31
0.0
  0
LINE
  5
9A7C
330
18
100
AcDbEntity
  8
0
100
AcDbLine
 10
528.2933819188635
 20
934.6529262382004
 30
0.0
 11
529.7298735919672
 21
934.6529262382004
 31
0.0
  0
LINE
  5
9A7E
330
18
100
AcDbEntity
  8
0
100
AcDbLine
 10
645.7933819188639
 20
941.1529262382003
 30
0.0
 11
622.7933819188635
 21
941.1529262382003
 31
0.0
  0
LINE
  5
9A81
330
18
100
AcDbEntity
  8
0
100
AcDbLine
 10
585.3933819188633
 20
909.2729262382006
 30
0.0
 11
600.3933819188634
 21
909.2729262382007
 31
0.0
  0
LINE
  5
9A82
330
18
100
AcDbEntity
  8
0
100
AcDbLine
 10
599.3933819188633
 20
910.6529262382004
 30
0.0
 11
584.3933819188634
 21
910.6529262382004
 31
0.0
  0
LINE
  5
9A83
330
18
100
AcDbEntity
  8
0
100
AcDbLine
 10
587.3933819188634
 20
908.7729262382007
 30
0.0
 11
594.3933819188633
 21
908.7729262382007
 31
0.0
  0
LINE
  5
9A84
330
18
100
AcDbEntity
  8
0
100
AcDbLine
 10
593.6933819188635
 20
910.1529262382006
 30
0.0
 11
585.3933819188633
 21
910.1529262382003
 31
0.0
  0
LINE
  5
9A85
330
18
100
AcDbEntity
  8
0
100
AcDbLine
 10
587.3933819188634
 20
904.6929262382006
 30
0.0
 11
594.3933819188633
 21
904.6929262382006
 31
0.0
  0
LINE
  5
9A86
330
18
100
AcDbEntity
  8
0
100
AcDbLine
 10
587.3933819188634
 20
903.6929262382006
 30
0.0
 11
594.3933819188633
 21
903.6929262382006
 31
0.0
  0
LINE
  5
9A87
330
18
100
AcDbEntity
  8
0
100
AcDbLine
 10
587.8933819188634
 20
905.4329262382006
 30
0.0
 11
591.7933819188634
 21
905.4329262382003
 31
0.0
  0
LINE
  5
9A88
330
18
100
AcDbEntity
  8
0
100
AcDbLine
 10
587.8933819188634
 20
908.0329262382003
 30
0.0
 11
591.7933819188634
 21
908.0329262382004
 31
0.0
  0
LINE
  5
9A89
330
18
100
AcDbEntity
  8
0
100
AcDbLine
 10
587.8933819188634
 20
902.9529262382
 30
0.0
 11
591.7933819188634
 21
902.9529262382006
 31
0.0
  0
LINE
  5
9A8A
330
18
100
AcDbEntity
  8
0
100
AcDbLine
 10
587.8933819188634
 20
900.3529262382004
 30
0.0
 11
591.7933819188634
 21
900.3529262382004
 31
0.0
  0
LINE
  5
9A8B
330
18
100
AcDbEntity
  8
0
100
AcDbLine
 10
585.3933819188638
 20
894.0329262382006
 30
0.0
 11
600.3933819188638
 21
894.0329262382006
 31
0.0
  0
LINE
  5
9A8C
330
18
100
AcDbEntity
  8
0
100
AcDbLine
 10
599.3933819188633
 20
892.6529262382022
 30
0.0
 11
584.3933819188634
 21
892.6529262382004
 31
0.0
  0
LINE
  5
9A8D
330
18
100
AcDbEntity
  8
0
100
AcDbLine
 10
587.3933819188634
 20
894.5329262382005
 30
0.0
 11
594.3933819188633
 21
894.5329262382005
 31
0.0
  0
LINE
  5
9A8E
330
18
100
AcDbEntity
  8
0
100
AcDbLine
 10
587.8933819188634
 20
895.2729262382005
 30
0.0
 11
591.7933819188634
 21
895.2729262382003
 31
0.0
  0
LINE
  5
9A8F
330
18
100
AcDbEntity
  8
0
100
AcDbLine
 10
593.6933819188635
 20
893.1529262382003
 30
0.0
 11
585.3933819188633
 21
893.1529262382003
 31
0.0
  0
LINE
  5
9A90
330
18
100
AcDbEntity
  8
0
100
AcDbLine
 10
587.3933819188634
 20
898.6129262382005
 30
0.0
 11
594.3933819188633
 21
898.6129262382005
 31
0.0
  0
LINE
  5
9A91
330
18
100
AcDbEntity
  8
0
100
AcDbLine
 10
587.8933819188634
 20
897.8729262382001
 30
0.0
 11
591.7933819188634
 21
897.8729262382003
 31
0.0
  0
LINE
  5
9A92
330
18
100
AcDbEntity
  8
0
100
AcDbLine
 10
587.3933819188634
 20
899.6129262382003
 30
0.0
 11
594.3933819188633
 21
899.6129262382007
 31
0.0
  0
ARC
  5
9A93
330
18
100
AcDbEntity
  8
0
100
AcDbCircle
 10
563.7933819188634
 20
930.4029262382004
 30
0.0
 40
2.0
100
AcDbArc
 50
0.0
 51
90.0
  0
LINE
  5
9A94
330
18
100
AcDbEntity
  8
0
100
AcDbLine
 10
587.8933819188634
 20
902.9529262382
 30
0.0
 11
587.8933819188634
 21
900.3529262382004
 31
0.0
  0
LINE
  5
9A95
330
18
100
AcDbEntity
  8
0
100
AcDbLine
 10
587.3933819188634
 20
903.6929262382006
 30
0.0
 11
587.3933819188634
 21
899.6129262382003
 31
0.0
  0
LINE
  5
9A96
330
18
100
AcDbEntity
  8
0
100
AcDbLine
 10
584.3933819188634
 20
892.6529262382004
 30
0.0
 11
584.3933819188634
 21
910.6529262382004
 31
0.0
  0
LINE
  5
9A97
330
18
100
AcDbEntity
  8
0
100
AcDbLine
 10
585.3933819188633
 20
909.2729262382006
 30
0.0
 11
585.3933819188633
 21
894.0329262382006
 31
0.0
  0
LINE
  5
9A98
330
18
100
AcDbEntity
  8
0
100
AcDbLine
 10
585.3933819188633
 20
910.1529262382003
 30
0.0
 11
585.3933819188633
 21
893.1529262382003
 31
0.0
  0
TEXT
  5
9A99
330
18
100
AcDbEntity
  8
0
100
AcDbText
 10
579.6895005161019
 20
900.1702899858956
 30
0.0
 40
4.0
  1
s
  7
MSｺﾞｼｯｸ
100
AcDbText
  0
LINE
  5
9A9A
330
18
100
AcDbEntity
  8
0
100
AcDbLine
 10
587.3933819188634
 20
898.6129262382005
 30
0.0
 11
587.3933819188634
 21
894.5329262382005
 31
0.0
  0
LINE
  5
9A9B
330
18
100
AcDbEntity
  8
0
100
AcDbLine
 10
587.8933819188634
 20
897.8729262382001
 30
0.0
 11
587.8933819188634
 21
895.2729262382005
 31
0.0
  0
LINE
  5
9A9C
330
18
100
AcDbEntity
  8
0
100
AcDbLine
 10
587.8933819188634
 20
895.2729262382005
 30
0.0
 11
587.3933819188634
 21
894.5329262382005
 31
0.0
  0
LINE
  5
9A9D
330
18
100
AcDbEntity
  8
0
100
AcDbLine
 10
587.3933819188634
 20
898.6129262382004
 30
0.0
 11
587.8933819188634
 21
897.8729262382001
 31
0.0
  0
LINE
  5
9A9E
330
18
100
AcDbEntity
  8
0
100
AcDbLine
 10
587.8933819188634
 20
900.3529262382004
 30
0.0
 11
587.3933819188634
 21
899.6129262382003
 31
0.0
  0
TEXT
  5
9A9F
330
18
100
AcDbEntity
  8
0
100
AcDbText
 10
579.7502071301311
 20
905.5045871556496
 30
0.0
 40
4.0
  1
r
  7
MSｺﾞｼｯｸ
100
AcDbText
  0
LINE
  5
9AA0
330
18
100
AcDbEntity
  8
0
100
AcDbLine
 10
587.3933819188634
 20
903.6929262382006
 30
0.0
 11
587.8933819188634
 21
902.9529262382
 31
0.0
  0
LINE
  5
9AA1
330
18
100
AcDbEntity
  8
0
100
AcDbLine
 10
587.8933819188634
 20
908.0329262382003
 30
0.0
 11
587.8933819188634
 21
905.4329262382006
 31
0.0
  0
LINE
  5
9AA2
330
18
100
AcDbEntity
  8
0
100
AcDbLine
 10
587.8933819188634
 20
905.4329262382006
 30
0.0
 11
587.3933819188634
 21
904.6929262382006
 31
0.0
  0
LINE
  5
9AA3
330
18
100
AcDbEntity
  8
0
100
AcDbLine
 10
587.3933819188634
 20
908.7729262382007
 30
0.0
 11
587.3933819188634
 21
904.6929262382006
 31
0.0
  0
LINE
  5
9AA4
330
18
100
AcDbEntity
  8
0
100
AcDbLine
 10
587.3933819188634
 20
908.7729262382005
 30
0.0
 11
587.8933819188634
 21
908.0329262382003
 31
0.0
  0
TEXT
  5
9AA5
330
18
100
AcDbEntity
  8
0
 48
5.0
100
AcDbText
 10
577.8486720172952
 20
914.1794692513157
 30
0.0
 40
3.0
  1
TB1
  7
MSｺﾞｼｯｸ
 72
     2
 11
583.6963877533358
 21
915.6794692513157
 31
0.0
100
AcDbText
 73
     2
  0
TEXT
  5
9AA6
330
18
100
AcDbEntity
  8
0
100
AcDbText
 10
605.6782471225389
 20
894.2401619422827
 30
0.0
 40
2.0
  1
ＳＴＡＴＵＳ
  7
MSｺﾞｼｯｸ
100
AcDbText
  0
LINE
  5
9AA7
330
18
100
AcDbEntity
  8
0
100
AcDbLine
 10
591.7933819188634
 20
902.9529262382004
 30
0.0
 11
591.7933819188634
 21
900.3529262382004
 31
0.0
  0
LINE
  5
9AA8
330
18
100
AcDbEntity
  8
0
100
AcDbLine
 10
594.3933819188633
 20
903.6929262382006
 30
0.0
 11
594.3933819188633
 21
899.6129262382007
 31
0.0
  0
LINE
  5
9AA9
330
18
100
AcDbEntity
  8
0
100
AcDbLine
 10
594.8933819188633
 20
909.2729262382006
 30
0.0
 11
594.8933819188633
 21
894.0329262382007
 31
0.0
  0
LINE
  5
9AAA
330
18
100
AcDbEntity
  8
0
100
AcDbLine
 10
591.7933819188634
 20
895.2729262382003
 30
0.0
 11
594.3933819188633
 21
894.5329262382005
 31
0.0
  0
LINE
  5
9AAB
330
18
100
AcDbEntity
  8
0
100
AcDbLine
 10
591.7933819188634
 20
897.8729262382003
 30
0.0
 11
594.3933819188633
 21
898.6129262382005
 31
0.0
  0
LINE
  5
9AAC
330
18
100
AcDbEntity
  8
0
100
AcDbLine
 10
591.7933819188634
 20
900.3529262382004
 30
0.0
 11
594.3933819188633
 21
899.6129262382007
 31
0.0
  0
LINE
  5
9AAD
330
18
100
AcDbEntity
  8
0
100
AcDbLine
 10
591.7933819188634
 20
897.8729262382003
 30
0.0
 11
591.7933819188634
 21
895.2729262382005
 31
0.0
  0
LINE
  5
9AAE
330
18
100
AcDbEntity
  8
0
100
AcDbLine
 10
594.3933819188633
 20
898.6129262382005
 30
0.0
 11
594.3933819188633
 21
894.5329262382005
 31
0.0
  0
LINE
  5
9AAF
330
18
100
AcDbEntity
  8
0
100
AcDbLine
 10
593.6933819188635
 20
894.0329262382002
 30
0.0
 11
593.6933819188635
 21
893.1529262382003
 31
0.0
  0
LINE
  5
9AB0
330
18
100
AcDbEntity
  8
0
100
AcDbLine
 10
591.7933819188634
 20
902.9529262382004
 30
0.0
 11
594.3933819188633
 21
903.6929262382006
 31
0.0
  0
LINE
  5
9AB1
330
18
100
AcDbEntity
  8
0
100
AcDbLine
 10
591.7933819188634
 20
905.4329262382003
 30
0.0
 11
594.3933819188633
 21
904.6929262382006
 31
0.0
  0
LINE
  5
9AB2
330
18
100
AcDbEntity
  8
0
100
AcDbLine
 10
591.7933819188634
 20
908.0329262382004
 30
0.0
 11
594.3933819188633
 21
908.7729262382007
 31
0.0
  0
LINE
  5
9AB3
330
18
100
AcDbEntity
  8
0
100
AcDbLine
 10
591.7933819188634
 20
908.0329262382004
 30
0.0
 11
591.7933819188634
 21
905.4329262382006
 31
0.0
  0
LINE
  5
9AB4
330
18
100
AcDbEntity
  8
0
100
AcDbLine
 10
593.6933819188635
 20
910.1529262382003
 30
0.0
 11
593.6933819188635
 21
909.2729262382006
 31
0.0
  0
LINE
  5
9AB5
330
18
100
AcDbEntity
  8
0
100
AcDbLine
 10
594.3933819188633
 20
908.7729262382007
 30
0.0
 11
594.3933819188633
 21
904.6929262382006
 31
0.0
  0
LINE
  5
9AB6
330
18
100
AcDbEntity
  8
0
100
AcDbLine
 10
599.8933819188634
 20
909.2729262382007
 30
0.0
 11
599.8933819188634
 21
894.0329262382007
 31
0.0
  0
LINE
  5
9AB7
330
18
100
AcDbEntity
  8
0
100
AcDbLine
 10
600.3933819188634
 20
909.2729262382007
 30
0.0
 11
600.3933819188634
 21
894.0329262382007
 31
0.0
  0
LINE
  5
9AB8
330
18
100
AcDbEntity
  8
0
100
AcDbLine
 10
599.3933819188633
 20
892.6529262382022
 30
0.0
 11
599.3933819188633
 21
894.0329262382002
 31
0.0
  0
LINE
  5
9AB9
330
18
100
AcDbEntity
  8
0
100
AcDbLine
 10
599.3933819188633
 20
909.2729262382009
 30
0.0
 11
599.3933819188633
 21
910.6529262382004
 31
0.0
  0
CIRCLE
  5
9ABA
330
18
100
AcDbEntity
  8
0
100
AcDbCircle
 10
597.7933819188635
 20
935.1529262382003
 30
0.0
 40
3.0
  0
CIRCLE
  5
9ABB
330
18
100
AcDbEntity
  8
0
100
AcDbCircle
 10
597.7933819188635
 20
935.1529262382003
 30
0.0
 40
2.5
  0
LINE
  5
9ABC
330
18
100
AcDbEntity
  8
0
100
AcDbLine
 10
598.2933819188635
 20
935.6529262382004
 30
0.0
 11
599.7298735919672
 21
935.6529262382004
 31
0.0
  0
LINE
  5
9ABD
330
18
100
AcDbEntity
  8
0
100
AcDbLine
 10
598.2933819188635
 20
934.6529262382004
 30
0.0
 11
599.7298735919672
 21
934.6529262382004
 31
0.0
  0
LINE
  5
9ABE
330
18
100
AcDbEntity
  8
0
100
AcDbLine
 10
595.8568902457601
 20
935.6529262382004
 30
0.0
 11
597.2933819188634
 21
935.6529262382004
 31
0.0
  0
LINE
  5
9ABF
330
18
100
AcDbEntity
  8
0
100
AcDbLine
 10
595.8568902457601
 20
934.6529262382004
 30
0.0
 11
597.2933819188634
 21
934.6529262382004
 31
0.0
  0
ARC
  5
9AC0
330
18
100
AcDbEntity
  8
0
100
AcDbCircle
 10
597.7933819188635
 20
935.1529262382003
 30
0.0
 40
2.0
100
AcDbArc
 50
165.5224878140697
 51
194.4775121859302
  0
LINE
  5
9AC1
330
18
100
AcDbEntity
  8
0
100
AcDbLine
 10
598.2933819188635
 20
935.6529262382004
 30
0.0
 11
598.2933819188635
 21
937.0894179113042
 31
0.0
  0
LINE
  5
9AC2
330
18
100
AcDbEntity
  8
0
100
AcDbLine
 10
597.2933819188634
 20
935.6529262382004
 30
0.0
 11
597.2933819188634
 21
937.0894179113042
 31
0.0
  0
ARC
  5
9AC3
330
18
100
AcDbEntity
  8
0
100
AcDbCircle
 10
597.7933819188635
 20
935.1529262382003
 30
0.0
 40
2.0
100
AcDbArc
 50
75.52248781407055
 51
104.4775121859294
  0
ARC
  5
9AC4
330
18
100
AcDbEntity
  8
0
100
AcDbCircle
 10
597.7933819188635
 20
935.1529262382003
 30
0.0
 40
2.0
100
AcDbArc
 50
255.5224878140705
 51
284.4775121859294
  0
LINE
  5
9AC5
330
18
100
AcDbEntity
  8
0
100
AcDbLine
 10
597.2933819188634
 20
933.2164345650966
 30
0.0
 11
597.2933819188634
 21
934.6529262382004
 31
0.0
  0
LINE
  5
9AC6
330
18
100
AcDbEntity
  8
0
100
AcDbLine
 10
598.2933819188635
 20
933.2164345650966
 30
0.0
 11
598.2933819188635
 21
934.6529262382004
 31
0.0
  0
ARC
  5
9AC7
330
18
100
AcDbEntity
  8
0
100
AcDbCircle
 10
597.7933819188635
 20
935.1529262382003
 30
0.0
 40
2.0
100
AcDbArc
 50
345.5224878140697
 51
14.47751218593027
  0
ARC
  5
9AC8
330
18
100
AcDbEntity
  8
0
100
AcDbCircle
 10
612.7933819188634
 20
951.1529262382001
 30
0.0
 40
2.75
100
AcDbArc
 50
180.0
 51
0.0
  0
LINE
  5
9AC9
330
18
100
AcDbEntity
  8
0
100
AcDbLine
 10
622.7933819188635
 20
956.1529262382002
 30
0.0
 11
615.5433819188634
 21
956.1529262382002
 31
0.0
  0
LINE
  5
9ACA
330
18
100
AcDbEntity
  8
0
100
AcDbLine
 10
622.7933819188635
 20
956.1529262382002
 30
0.0
 11
615.5433819188634
 21
956.1529262382002
 31
0.0
  0
LINE
  5
9ACB
330
18
100
AcDbEntity
  8
0
100
AcDbLine
 10
610.0433819188634
 20
951.1529262382001
 30
0.0
 11
610.0433819188634
 21
956.1529262382002
 31
0.0
  0
LINE
  5
9ACC
330
18
100
AcDbEntity
  8
0
100
AcDbLine
 10
610.0433819188634
 20
951.1529262382001
 30
0.0
 11
610.0433819188634
 21
956.1529262382002
 31
0.0
  0
LINE
  5
9ACD
330
18
100
AcDbEntity
  8
0
100
AcDbLine
 10
615.5433819188634
 20
951.1529262382001
 30
0.0
 11
615.5433819188634
 21
956.1529262382002
 31
0.0
  0
LINE
  5
9ACE
330
18
100
AcDbEntity
  8
0
100
AcDbLine
 10
615.5433819188634
 20
951.1529262382001
 30
0.0
 11
615.5433819188634
 21
956.1529262382002
 31
0.0
  0
TEXT
  5
9ACF
330
18
100
AcDbEntity
  8
0
100
AcDbText
 10
629.9251091486383
 20
930.0123346272654
 30
0.0
 40
3.5
  1
D-NET
  7
MSｺﾞｼｯｸ
100
AcDbText
  0
LINE
  5
9AD0
330
18
100
AcDbEntity
  8
0
100
AcDbLine
 10
966.8642270205777
 20
716.1529262382002
 30
0.0
 11
966.8642270205781
 21
956.1529262382002
 31
0.0
  0
LINE
  5
9AD1
330
18
100
AcDbEntity
  8
0
100
AcDbLine
 10
963.8642270205782
 20
716.1529262382002
 30
0.0
 11
963.8642270205782
 21
956.1529262382002
 31
0.0
  0
LINE
  5
9AD2
330
18
100
AcDbEntity
  8
0
100
AcDbLine
 10
779.8642270205781
 20
731.1529262382001
 30
0.0
 11
779.8642270205781
 21
941.1529262382002
 31
0.0
  0
LINE
  5
9AD3
330
18
100
AcDbEntity
  8
0
100
AcDbLine
 10
776.8642270205782
 20
731.1529262382001
 30
0.0
 11
776.8642270205782
 21
941.1529262382002
 31
0.0
  0
LINE
  5
9AD5
330
18
100
AcDbEntity
  8
0
100
AcDbLine
 10
963.8642270205782
 20
731.1529262381999
 30
0.0
 11
776.8642270205782
 21
731.1529262382001
 31
0.0
  0
LINE
  5
9AD6
330
18
100
AcDbEntity
  8
0
100
AcDbLine
 10
758.364227020579
 20
813.6529262382003
 30
0.0
 11
758.364227020579
 21
815.6529262382004
 31
0.0
  0
LINE
  5
9AD7
330
18
100
AcDbEntity
  8
0
 48
0.2
100
AcDbLine
 10
758.8642270205776
 20
806.3529262382004
 30
0.0
 11
758.8642270205776
 21
822.1529262382002
 31
0.0
  0
LINE
  5
9AD8
330
18
100
AcDbEntity
  8
0
 48
0.2
100
AcDbLine
 10
753.8642270205777
 20
806.3529262382004
 30
0.0
 11
753.8642270205777
 21
822.1529262382002
 31
0.0
  0
LINE
  5
9AD9
330
18
100
AcDbEntity
  8
0
 48
0.2
100
AcDbLine
 10
776.8642270205776
 20
797.6029262382004
 30
0.0
 11
776.8642270205776
 21
830.9029262382001
 31
0.0
  0
LINE
  5
9ADA
330
18
100
AcDbEntity
  8
0
 48
0.2
100
AcDbLine
 10
737.8642270205777
 20
806.3529262382004
 30
0.0
 11
737.8642270205777
 21
822.1529262382002
 31
0.0
  0
LINE
  5
9ADB
330
18
100
AcDbEntity
  8
0
 48
0.2
100
AcDbLine
 10
758.8642270205776
 20
806.3529262382004
 30
0.0
 11
737.8642270205777
 21
806.3529262382004
 31
0.0
  0
LINE
  5
9ADC
330
18
100
AcDbEntity
  8
0
 48
0.2
100
AcDbLine
 10
776.8642270205776
 20
797.6029262382004
 30
0.0
 11
753.0642270205775
 21
797.6029262382004
 31
0.0
  0
ARC
  5
9ADD
330
18
100
AcDbEntity
  8
0
 48
0.2
100
AcDbCircle
 10
740.964227020578
 20
806.3529262382006
 30
0.0
 40
3.100000000000022
100
AcDbArc
 50
180.0
 51
319.1213648534906
  0
LINE
  5
9ADE
330
18
100
AcDbEntity
  8
0
 48
0.2
100
AcDbLine
 10
749.0642270205779
 20
806.3529262382004
 30
0.0
 11
753.0642270205779
 21
803.2529262382006
 31
0.0
  0
LINE
  5
9ADF
330
18
100
AcDbEntity
  8
0
 48
0.2
100
AcDbLine
 10
745.0642270205779
 20
806.3529262382004
 30
0.0
 11
743.3081294596021
 21
804.3241035854444
 31
0.0
  0
LINE
  5
9AE0
330
18
100
AcDbEntity
  8
0
 48
0.2
100
AcDbLine
 10
753.0642270205775
 20
797.6029262382004
 30
0.0
 11
753.0642270205775
 21
803.2529262382006
 31
0.0
  0
ARC
  5
9AE1
330
18
100
AcDbEntity
  8
0
 48
0.2
100
AcDbCircle
 10
754.2342270205775
 20
800.2029262382006
 30
0.0
 40
2.669999999999886
100
AcDbArc
 50
115.9892335838272
 51
244.0107664161727
  0
LINE
  5
9AE2
330
18
100
AcDbEntity
  8
0
100
AcDbLine
 10
770.3642270205794
 20
771.6529262382004
 30
0.0
 11
770.364227020579
 21
780.6529262382004
 31
0.0
  0
LINE
  5
9AE3
330
18
100
AcDbEntity
  8
0
100
AcDbLine
 10
769.364227020579
 20
772.1529262381999
 30
0.0
 11
769.364227020579
 21
780.1529262381999
 31
0.0
  0
LINE
  5
9AE4
330
18
100
AcDbEntity
  8
0
100
AcDbLine
 10
766.364227020579
 20
774.1529262382004
 30
0.0
 11
766.364227020579
 21
778.1529262381999
 31
0.0
  0
LINE
  5
9AE5
330
18
100
AcDbEntity
  8
0
 48
0.2
100
AcDbLine
 10
776.8642270205782
 20
753.2529262382003
 30
0.0
 11
776.8642270205782
 21
796.7529262382005
 31
0.0
  0
LINE
  5
9AE6
330
18
100
AcDbEntity
  8
0
100
AcDbLine
 10
758.364227020579
 20
771.6529262382004
 30
0.0
 11
776.8642270205782
 21
771.6529262382004
 31
0.0
  0
LINE
  5
9AE7
330
18
100
AcDbEntity
  8
0
100
AcDbLine
 10
758.364227020579
 20
769.6529262382004
 30
0.0
 11
776.8642270205782
 21
769.6529262382
 31
0.0
  0
LINE
  5
9AE8
330
18
100
AcDbEntity
  8
0
100
AcDbLine
 10
770.3642270205794
 20
769.3529262382002
 30
0.0
 11
776.8642270205782
 21
769.3529262382002
 31
0.0
  0
LINE
  5
9AE9
330
18
100
AcDbEntity
  8
0
100
AcDbLine
 10
758.364227020579
 20
769.6529262381999
 30
0.0
 11
758.364227020579
 21
771.6529262382004
 31
0.0
  0
ARC
  5
9AEA
330
18
100
AcDbEntity
  8
0
100
AcDbCircle
 10
770.7299462377212
 20
777.4515050639121
 30
0.0
 40
5.471757172276427
100
AcDbArc
 50
217.0733692144697
 51
255.5464957335785
  0
LINE
  5
9AEB
330
18
100
AcDbEntity
  8
0
100
AcDbLine
 10
769.364227020579
 20
772.1529262382004
 30
0.0
 11
770.364227020579
 21
772.1529262382004
 31
0.0
  0
LINE
  5
9AEC
330
18
100
AcDbEntity
  8
0
100
AcDbLine
 10
770.3642270205794
 20
769.3529262382002
 30
0.0
 11
770.3642270205794
 21
769.6529262381999
 31
0.0
  0
LINE
  5
9AED
330
18
100
AcDbEntity
  8
0
100
AcDbLine
 10
758.364227020579
 20
813.6529262382003
 30
0.0
 11
776.8642270205782
 21
813.6529262382003
 31
0.0
  0
LINE
  5
9AEE
330
18
100
AcDbEntity
  8
0
100
AcDbLine
 10
758.364227020579
 20
802.6529262382004
 30
0.0
 11
776.8642270205782
 21
802.6529262382004
 31
0.0
  0
LINE
  5
9AEF
330
18
100
AcDbEntity
  8
0
100
AcDbLine
 10
758.364227020579
 20
804.6529262382003
 30
0.0
 11
776.8642270205782
 21
804.6529262382003
 31
0.0
  0
LINE
  5
9AF0
330
18
100
AcDbEntity
  8
0
100
AcDbLine
 10
758.364227020579
 20
791.6529262382003
 30
0.0
 11
776.8642270205782
 21
791.6529262382003
 31
0.0
  0
LINE
  5
9AF1
330
18
100
AcDbEntity
  8
0
100
AcDbLine
 10
758.364227020579
 20
793.6529262382004
 30
0.0
 11
776.8642270205782
 21
793.6529262382004
 31
0.0
  0
LINE
  5
9AF2
330
18
100
AcDbEntity
  8
0
100
AcDbLine
 10
758.364227020579
 20
782.6529262382003
 30
0.0
 11
776.8642270205782
 21
782.6529262382003
 31
0.0
  0
LINE
  5
9AF3
330
18
100
AcDbEntity
  8
0
100
AcDbLine
 10
758.364227020579
 20
780.6529262382004
 30
0.0
 11
776.8642270205782
 21
780.6529262382004
 31
0.0
  0
ARC
  5
9AF4
330
18
100
AcDbEntity
  8
0
100
AcDbCircle
 10
770.7299462377212
 20
799.4515050639121
 30
0.0
 40
5.471757172276427
100
AcDbArc
 50
217.0733692144697
 51
255.5464957335785
  0
LINE
  5
9AF5
330
18
100
AcDbEntity
  8
0
100
AcDbLine
 10
770.3642270205794
 20
793.6529262382004
 30
0.0
 11
770.3642270205794
 21
802.6529262382004
 31
0.0
  0
LINE
  5
9AF6
330
18
100
AcDbEntity
  8
0
100
AcDbLine
 10
769.364227020579
 20
794.1529262382004
 30
0.0
 11
769.364227020579
 21
802.1529262382003
 31
0.0
  0
LINE
  5
9AF7
330
18
100
AcDbEntity
  8
0
100
AcDbLine
 10
758.364227020579
 20
780.6529262382004
 30
0.0
 11
758.364227020579
 21
782.6529262382003
 31
0.0
  0
LINE
  5
9AF8
330
18
100
AcDbEntity
  8
0
100
AcDbLine
 10
758.364227020579
 20
791.6529262382003
 30
0.0
 11
758.364227020579
 21
793.6529262382004
 31
0.0
  0
LINE
  5
9AF9
330
18
100
AcDbEntity
  8
0
100
AcDbLine
 10
770.364227020579
 20
782.6529262382003
 30
0.0
 11
770.3642270205794
 21
791.6529262382003
 31
0.0
  0
LINE
  5
9AFA
330
18
100
AcDbEntity
  8
0
100
AcDbLine
 10
769.364227020579
 20
783.1529262382003
 30
0.0
 11
769.364227020579
 21
791.1529262382003
 31
0.0
  0
LINE
  5
9AFB
330
18
100
AcDbEntity
  8
0
100
AcDbLine
 10
766.364227020579
 20
785.1529262382004
 30
0.0
 11
766.364227020579
 21
789.1529262382004
 31
0.0
  0
ARC
  5
9AFC
330
18
100
AcDbEntity
  8
0
100
AcDbCircle
 10
770.7299462377212
 20
788.4515050639121
 30
0.0
 40
5.471757172276427
100
AcDbArc
 50
217.0733692144697
 51
255.5464957335785
  0
ARC
  5
9AFD
330
18
100
AcDbEntity
  8
0
100
AcDbCircle
 10
770.7299462377212
 20
774.8543474124873
 30
0.0
 40
5.471757172276427
100
AcDbArc
 50
104.4535042664213
 51
142.9266307855302
  0
LINE
  5
9AFE
330
18
100
AcDbEntity
  8
0
100
AcDbLine
 10
769.364227020579
 20
780.1529262381999
 30
0.0
 11
770.364227020579
 21
780.1529262381999
 31
0.0
  0
LINE
  5
9AFF
330
18
100
AcDbEntity
  8
0
100
AcDbLine
 10
769.364227020579
 20
783.1529262382003
 30
0.0
 11
770.364227020579
 21
783.1529262382003
 31
0.0
  0
ARC
  5
9B00
330
18
100
AcDbEntity
  8
0
100
AcDbCircle
 10
770.7299462377212
 20
785.8543474124872
 30
0.0
 40
5.471757172276427
100
AcDbArc
 50
104.4535042664213
 51
142.9266307855302
  0
LINE
  5
9B01
330
18
100
AcDbEntity
  8
0
100
AcDbLine
 10
769.364227020579
 20
791.1529262382003
 30
0.0
 11
770.364227020579
 21
791.1529262382003
 31
0.0
  0
LINE
  5
9B02
330
18
100
AcDbEntity
  8
0
100
AcDbLine
 10
769.364227020579
 20
794.1529262382004
 30
0.0
 11
770.364227020579
 21
794.1529262382004
 31
0.0
  0
CIRCLE
  5
9B03
330
18
100
AcDbEntity
  8
0
 48
0.2
100
AcDbCircle
 10
762.3642270205777
 20
804.3529262382007
 30
0.0
 40
1.5
  0
LINE
  5
9B04
330
18
100
AcDbEntity
  8
0
 48
0.2
100
AcDbLine
 10
763.7585645878751
 20
801.9378627287393
 30
0.0
 11
765.1529021551726
 21
804.3529262382005
 31
0.0
  0
LINE
  5
9B05
330
18
100
AcDbEntity
  8
0
 48
0.2
100
AcDbLine
 10
763.6142270205777
 20
802.1878627287392
 30
0.0
 11
764.8642270205776
 21
804.3529262382005
 31
0.0
  0
LINE
  5
9B06
330
18
100
AcDbEntity
  8
0
 48
0.2
100
AcDbLine
 10
765.1529021551726
 20
804.3529262382005
 30
0.0
 11
763.7585645878751
 21
806.7679897476615
 31
0.0
  0
LINE
  5
9B07
330
18
100
AcDbEntity
  8
0
 48
0.2
100
AcDbLine
 10
764.8642270205776
 20
804.3529262382005
 30
0.0
 11
763.6142270205777
 21
806.5179897476616
 31
0.0
  0
LINE
  5
9B08
330
18
100
AcDbEntity
  8
0
 48
0.2
100
AcDbLine
 10
759.5755518859832
 20
804.3529262382005
 30
0.0
 11
760.9698894532802
 21
806.7679897476615
 31
0.0
  0
LINE
  5
9B09
330
18
100
AcDbEntity
  8
0
 48
0.2
100
AcDbLine
 10
759.8642270205776
 20
804.3529262382005
 30
0.0
 11
761.1142270205776
 21
806.5179897476616
 31
0.0
  0
LINE
  5
9B0A
330
18
100
AcDbEntity
  8
0
100
AcDbLine
 10
758.364227020579
 20
802.6529262382004
 30
0.0
 11
758.364227020579
 21
804.6529262382003
 31
0.0
  0
LINE
  5
9B0B
330
18
100
AcDbEntity
  8
0
 48
0.2
100
AcDbLine
 10
759.5755518859832
 20
804.3529262382005
 30
0.0
 11
760.9698894532802
 21
801.9378627287393
 31
0.0
  0
LINE
  5
9B0C
330
18
100
AcDbEntity
  8
0
 48
0.2
100
AcDbLine
 10
759.8642270205776
 20
804.3529262382005
 30
0.0
 11
761.1142270205776
 21
802.1878627287392
 31
0.0
  0
LINE
  5
9B0D
330
18
100
AcDbEntity
  8
0
 48
0.2
100
AcDbLine
 10
760.9698894532802
 20
801.9378627287393
 30
0.0
 11
763.7585645878751
 21
801.9378627287393
 31
0.0
  0
LINE
  5
9B0E
330
18
100
AcDbEntity
  8
0
 48
0.2
100
AcDbLine
 10
761.1142270205776
 20
802.1878627287392
 30
0.0
 11
763.6142270205777
 21
802.1878627287392
 31
0.0
  0
LINE
  5
9B0F
330
18
100
AcDbEntity
  8
0
 48
0.2
100
AcDbLine
 10
760.9698894532802
 20
806.7679897476615
 30
0.0
 11
763.7585645878751
 21
806.7679897476615
 31
0.0
  0
LINE
  5
9B10
330
18
100
AcDbEntity
  8
0
 48
0.2
100
AcDbLine
 10
761.1142270205776
 20
806.5179897476616
 30
0.0
 11
763.6142270205777
 21
806.5179897476616
 31
0.0
  0
LINE
  5
9B11
330
18
100
AcDbEntity
  8
0
100
AcDbLine
 10
770.3642270205794
 20
804.6529262382003
 30
0.0
 11
770.3642270205794
 21
813.6529262382
 31
0.0
  0
ARC
  5
9B12
330
18
100
AcDbEntity
  8
0
100
AcDbCircle
 10
770.7299462377212
 20
796.8543474124873
 30
0.0
 40
5.471757172276427
100
AcDbArc
 50
104.4535042664213
 51
142.9266307855302
  0
LINE
  5
9B13
330
18
100
AcDbEntity
  8
0
100
AcDbLine
 10
766.364227020579
 20
796.1529262382003
 30
0.0
 11
766.364227020579
 21
800.1529262382003
 31
0.0
  0
LINE
  5
9B14
330
18
100
AcDbEntity
  8
0
100
AcDbLine
 10
769.364227020579
 20
802.1529262382003
 30
0.0
 11
770.364227020579
 21
802.1529262382003
 31
0.0
  0
ARC
  5
9B15
330
18
100
AcDbEntity
  8
0
100
AcDbCircle
 10
770.7299462377212
 20
810.451505063912
 30
0.0
 40
5.471757172276427
100
AcDbArc
 50
217.0733692144697
 51
255.5464957335785
  0
ARC
  5
9B16
330
18
100
AcDbEntity
  8
0
100
AcDbCircle
 10
770.7299462377212
 20
807.8543474124872
 30
0.0
 40
5.471757172276427
100
AcDbArc
 50
104.4535042664213
 51
142.9266307855302
  0
LINE
  5
9B17
330
18
100
AcDbEntity
  8
0
100
AcDbLine
 10
766.364227020579
 20
807.1529262382004
 30
0.0
 11
766.364227020579
 21
811.1529262382003
 31
0.0
  0
LINE
  5
9B18
330
18
100
AcDbEntity
  8
0
100
AcDbLine
 10
769.364227020579
 20
813.1529262382004
 30
0.0
 11
770.364227020579
 21
813.1529262382004
 31
0.0
  0
LINE
  5
9B19
330
18
100
AcDbEntity
  8
0
100
AcDbLine
 10
769.364227020579
 20
805.1529262382004
 30
0.0
 11
770.364227020579
 21
805.1529262382004
 31
0.0
  0
LINE
  5
9B1A
330
18
100
AcDbEntity
  8
0
100
AcDbLine
 10
769.364227020579
 20
805.1529262382004
 30
0.0
 11
769.364227020579
 21
813.1529262382004
 31
0.0
  0
LINE
  5
9B1B
330
18
100
AcDbEntity
  8
0
 48
0.2
100
AcDbLine
 10
758.8642270205776
 20
822.1529262382002
 30
0.0
 11
737.8642270205777
 21
822.1529262382002
 31
0.0
  0
LINE
  5
9B1C
330
18
100
AcDbEntity
  8
0
 48
0.2
100
AcDbLine
 10
776.8642270205776
 20
830.9029262382001
 30
0.0
 11
753.0642270205775
 21
830.9029262382001
 31
0.0
  0
ARC
  5
9B1D
330
18
100
AcDbEntity
  8
0
 48
0.2
100
AcDbCircle
 10
740.9642270205775
 20
822.1529262382004
 30
0.0
 40
3.100000000000022
100
AcDbArc
 50
40.87863514650933
 51
180.0
  0
LINE
  5
9B1E
330
18
100
AcDbEntity
  8
0
 48
0.2
100
AcDbLine
 10
749.0642270205775
 20
822.1529262382002
 30
0.0
 11
753.0642270205775
 21
825.2529262382001
 31
0.0
  0
LINE
  5
9B1F
330
18
100
AcDbEntity
  8
0
 48
0.2
100
AcDbLine
 10
745.0642270205775
 20
822.1529262382002
 30
0.0
 11
743.3081294596021
 21
824.1817488909561
 31
0.0
  0
ARC
  5
9B20
330
18
100
AcDbEntity
  8
0
 48
0.2
100
AcDbCircle
 10
754.2342270205775
 20
828.3029262382004
 30
0.0
 40
2.669999999999886
100
AcDbArc
 50
115.9892335838272
 51
244.0107664161727
  0
LINE
  5
9B21
330
18
100
AcDbEntity
  8
0
 48
0.2
100
AcDbLine
 10
753.0642270205775
 20
825.2529262382005
 30
0.0
 11
753.0642270205775
 21
830.9029262382001
 31
0.0
  0
LINE
  5
9B22
330
18
100
AcDbEntity
  8
0
100
AcDbLine
 10
766.364227020579
 20
851.1529262382003
 30
0.0
 11
766.364227020579
 21
855.1529262382004
 31
0.0
  0
LINE
  5
9B23
330
18
100
AcDbEntity
  8
0
100
AcDbLine
 10
770.364227020579
 20
848.6529262382003
 30
0.0
 11
770.364227020579
 21
857.6529262382004
 31
0.0
  0
LINE
  5
9B24
330
18
100
AcDbEntity
  8
0
100
AcDbLine
 10
769.364227020579
 20
849.1529262382004
 30
0.0
 11
769.364227020579
 21
857.1529262382004
 31
0.0
  0
LINE
  5
9B25
330
18
100
AcDbEntity
  8
0
100
AcDbLine
 10
758.364227020579
 20
846.6529262382003
 30
0.0
 11
776.8642270205782
 21
846.6529262382003
 31
0.0
  0
LINE
  5
9B26
330
18
100
AcDbEntity
  8
0
100
AcDbLine
 10
758.364227020579
 20
848.6529262382003
 30
0.0
 11
776.8642270205782
 21
848.6529262382003
 31
0.0
  0
LINE
  5
9B27
330
18
100
AcDbEntity
  8
0
100
AcDbLine
 10
758.364227020579
 20
824.6529262382004
 30
0.0
 11
776.8642270205782
 21
824.6529262382004
 31
0.0
  0
LINE
  5
9B28
330
18
100
AcDbEntity
  8
0
100
AcDbLine
 10
758.364227020579
 20
826.6529262382004
 30
0.0
 11
776.8642270205782
 21
826.6529262382004
 31
0.0
  0
LINE
  5
9B29
330
18
100
AcDbEntity
  8
0
100
AcDbLine
 10
758.364227020579
 20
815.6529262382004
 30
0.0
 11
776.8642270205782
 21
815.6529262382004
 31
0.0
  0
LINE
  5
9B2A
330
18
100
AcDbEntity
  8
0
100
AcDbLine
 10
758.364227020579
 20
826.6529262382004
 30
0.0
 11
776.8642270205782
 21
826.6529262382004
 31
0.0
  0
LINE
  5
9B2B
330
18
100
AcDbEntity
  8
0
100
AcDbLine
 10
758.364227020579
 20
824.6529262382004
 30
0.0
 11
776.8642270205782
 21
824.6529262382004
 31
0.0
  0
LINE
  5
9B2C
330
18
100
AcDbEntity
  8
0
100
AcDbLine
 10
758.364227020579
 20
835.6529262382004
 30
0.0
 11
776.8642270205782
 21
835.6529262382004
 31
0.0
  0
LINE
  5
9B2D
330
18
100
AcDbEntity
  8
0
100
AcDbLine
 10
758.364227020579
 20
837.6529262382003
 30
0.0
 11
776.8642270205782
 21
837.6529262382003
 31
0.0
  0
ARC
  5
9B2E
330
18
100
AcDbEntity
  8
0
100
AcDbCircle
 10
770.7299462377212
 20
829.8543474124873
 30
0.0
 40
5.471757172276427
100
AcDbArc
 50
104.4535042664213
 51
142.9266307855302
  0
LINE
  5
9B2F
330
18
100
AcDbEntity
  8
0
100
AcDbLine
 10
770.364227020579
 20
826.6529262382004
 30
0.0
 11
770.364227020579
 21
835.6529262382004
 31
0.0
  0
LINE
  5
9B30
330
18
100
AcDbEntity
  8
0
100
AcDbLine
 10
769.364227020579
 20
827.1529262382003
 30
0.0
 11
769.364227020579
 21
835.1529262382003
 31
0.0
  0
LINE
  5
9B31
330
18
100
AcDbEntity
  8
0
 48
0.2
100
AcDbLine
 10
764.8642270205776
 20
824.1529262382002
 30
0.0
 11
763.6142270205777
 21
821.9878627287391
 31
0.0
  0
LINE
  5
9B32
330
18
100
AcDbEntity
  8
0
 48
0.2
100
AcDbLine
 10
765.1529021551726
 20
824.1529262382002
 30
0.0
 11
763.7585645878751
 21
821.737862728739
 31
0.0
  0
CIRCLE
  5
9B33
330
18
100
AcDbEntity
  8
0
 48
0.2
100
AcDbCircle
 10
762.3642270205777
 20
824.1529262382004
 30
0.0
 40
1.5
  0
LINE
  5
9B34
330
18
100
AcDbEntity
  8
0
 48
0.2
100
AcDbLine
 10
763.6142270205777
 20
826.3179897476613
 30
0.0
 11
764.8642270205776
 21
824.1529262382002
 31
0.0
  0
LINE
  5
9B35
330
18
100
AcDbEntity
  8
0
 48
0.2
100
AcDbLine
 10
763.7585645878751
 20
826.5679897476612
 30
0.0
 11
765.1529021551726
 21
824.1529262382002
 31
0.0
  0
LINE
  5
9B36
330
18
100
AcDbEntity
  8
0
 48
0.2
100
AcDbLine
 10
759.8642270205776
 20
824.1529262382002
 30
0.0
 11
761.1142270205776
 21
826.3179897476613
 31
0.0
  0
LINE
  5
9B37
330
18
100
AcDbEntity
  8
0
 48
0.2
100
AcDbLine
 10
759.5755518859832
 20
824.1529262382002
 30
0.0
 11
760.9698894532802
 21
826.5679897476612
 31
0.0
  0
LINE
  5
9B38
330
18
100
AcDbEntity
  8
0
 48
0.2
100
AcDbLine
 10
759.8642270205776
 20
824.1529262382002
 30
0.0
 11
761.1142270205776
 21
821.9878627287391
 31
0.0
  0
LINE
  5
9B39
330
18
100
AcDbEntity
  8
0
 48
0.2
100
AcDbLine
 10
759.5755518859832
 20
824.1529262382002
 30
0.0
 11
760.9698894532802
 21
821.737862728739
 31
0.0
  0
LINE
  5
9B3A
330
18
100
AcDbEntity
  8
0
 48
0.2
100
AcDbLine
 10
761.1142270205776
 20
821.9878627287391
 30
0.0
 11
763.6142270205777
 21
821.9878627287391
 31
0.0
  0
LINE
  5
9B3B
330
18
100
AcDbEntity
  8
0
 48
0.2
100
AcDbLine
 10
760.9698894532802
 20
821.737862728739
 30
0.0
 11
763.7585645878751
 21
821.737862728739
 31
0.0
  0
LINE
  5
9B3C
330
18
100
AcDbEntity
  8
0
100
AcDbLine
 10
758.364227020579
 20
824.6529262382004
 30
0.0
 11
758.364227020579
 21
826.6529262382004
 31
0.0
  0
LINE
  5
9B3D
330
18
100
AcDbEntity
  8
0
100
AcDbLine
 10
758.364227020579
 20
824.6529262382004
 30
0.0
 11
758.364227020579
 21
826.6529262382004
 31
0.0
  0
LINE
  5
9B3E
330
18
100
AcDbEntity
  8
0
 48
0.2
100
AcDbLine
 10
761.1142270205776
 20
826.3179897476613
 30
0.0
 11
763.6142270205777
 21
826.3179897476613
 31
0.0
  0
LINE
  5
9B3F
330
18
100
AcDbEntity
  8
0
 48
0.2
100
AcDbLine
 10
760.9698894532802
 20
826.5679897476612
 30
0.0
 11
763.7585645878751
 21
826.5679897476612
 31
0.0
  0
ARC
  5
9B40
330
18
100
AcDbEntity
  8
0
100
AcDbCircle
 10
770.7299462377212
 20
818.8543474124873
 30
0.0
 40
5.471757172276427
100
AcDbArc
 50
104.4535042664213
 51
142.9266307855302
  0
LINE
  5
9B41
330
18
100
AcDbEntity
  8
0
100
AcDbLine
 10
770.3642270205794
 20
815.6529262382004
 30
0.0
 11
770.364227020579
 21
824.6529262382004
 31
0.0
  0
ARC
  5
9B42
330
18
100
AcDbEntity
  8
0
100
AcDbCircle
 10
770.7299462377212
 20
821.4515050639121
 30
0.0
 40
5.471757172276427
100
AcDbArc
 50
217.0733692144697
 51
255.5464957335785
  0
LINE
  5
9B43
330
18
100
AcDbEntity
  8
0
100
AcDbLine
 10
766.364227020579
 20
818.1529262382003
 30
0.0
 11
766.364227020579
 21
822.1529262382004
 31
0.0
  0
LINE
  5
9B44
330
18
100
AcDbEntity
  8
0
100
AcDbLine
 10
769.364227020579
 20
816.1529262382003
 30
0.0
 11
769.364227020579
 21
824.1529262382004
 31
0.0
  0
LINE
  5
9B45
330
18
100
AcDbEntity
  8
0
100
AcDbLine
 10
769.364227020579
 20
816.1529262382003
 30
0.0
 11
770.364227020579
 21
816.1529262382003
 31
0.0
  0
LINE
  5
9B46
330
18
100
AcDbEntity
  8
0
100
AcDbLine
 10
769.364227020579
 20
824.1529262382004
 30
0.0
 11
770.364227020579
 21
824.1529262382004
 31
0.0
  0
ARC
  5
9B47
330
18
100
AcDbEntity
  8
0
100
AcDbCircle
 10
770.7299462377212
 20
832.4515050639121
 30
0.0
 40
5.471757172276427
100
AcDbArc
 50
217.0733692144697
 51
255.5464957335785
  0
LINE
  5
9B48
330
18
100
AcDbEntity
  8
0
100
AcDbLine
 10
766.364227020579
 20
829.1529262382004
 30
0.0
 11
766.364227020579
 21
833.1529262382003
 31
0.0
  0
LINE
  5
9B49
330
18
100
AcDbEntity
  8
0
100
AcDbLine
 10
769.364227020579
 20
827.1529262382003
 30
0.0
 11
770.364227020579
 21
827.1529262382003
 31
0.0
  0
LINE
  5
9B4A
330
18
100
AcDbEntity
  8
0
100
AcDbLine
 10
758.364227020579
 20
835.6529262382004
 30
0.0
 11
758.364227020579
 21
837.6529262382003
 31
0.0
  0
LINE
  5
9B4B
330
18
100
AcDbEntity
  8
0
100
AcDbLine
 10
758.364227020579
 20
846.6529262382003
 30
0.0
 11
758.364227020579
 21
848.6529262382003
 31
0.0
  0
LINE
  5
9B4C
330
18
100
AcDbEntity
  8
0
100
AcDbLine
 10
770.364227020579
 20
837.6529262382003
 30
0.0
 11
770.364227020579
 21
846.6529262382
 31
0.0
  0
LINE
  5
9B4D
330
18
100
AcDbEntity
  8
0
100
AcDbLine
 10
769.364227020579
 20
838.1529262382004
 30
0.0
 11
769.364227020579
 21
846.1529262382004
 31
0.0
  0
LINE
  5
9B4E
330
18
100
AcDbEntity
  8
0
100
AcDbLine
 10
766.364227020579
 20
840.1529262382004
 30
0.0
 11
766.364227020579
 21
844.1529262382003
 31
0.0
  0
ARC
  5
9B4F
330
18
100
AcDbEntity
  8
0
100
AcDbCircle
 10
770.7299462377212
 20
843.451505063912
 30
0.0
 40
5.471757172276427
100
AcDbArc
 50
217.0733692144697
 51
255.5464957335785
  0
LINE
  5
9B50
330
18
100
AcDbEntity
  8
0
100
AcDbLine
 10
769.364227020579
 20
835.1529262382003
 30
0.0
 11
770.364227020579
 21
835.1529262382003
 31
0.0
  0
LINE
  5
9B51
330
18
100
AcDbEntity
  8
0
100
AcDbLine
 10
769.364227020579
 20
838.1529262382004
 30
0.0
 11
770.364227020579
 21
838.1529262382004
 31
0.0
  0
ARC
  5
9B52
330
18
100
AcDbEntity
  8
0
100
AcDbCircle
 10
770.7299462377212
 20
854.4515050639121
 30
0.0
 40
5.471757172276427
100
AcDbArc
 50
217.0733692144697
 51
255.5464957335785
  0
ARC
  5
9B53
330
18
100
AcDbEntity
  8
0
100
AcDbCircle
 10
770.7299462377212
 20
840.8543474124872
 30
0.0
 40
5.471757172276427
100
AcDbArc
 50
104.4535042664213
 51
142.9266307855302
  0
LINE
  5
9B54
330
18
100
AcDbEntity
  8
0
100
AcDbLine
 10
769.364227020579
 20
846.1529262382004
 30
0.0
 11
770.364227020579
 21
846.1529262382004
 31
0.0
  0
LINE
  5
9B55
330
18
100
AcDbEntity
  8
0
100
AcDbLine
 10
769.364227020579
 20
849.1529262382004
 30
0.0
 11
770.364227020579
 21
849.1529262382004
 31
0.0
  0
LINE
  5
9B56
330
18
100
AcDbEntity
  8
0
100
AcDbLine
 10
758.364227020579
 20
857.6529262382004
 30
0.0
 11
776.8642270205782
 21
857.6529262382004
 31
0.0
  0
LINE
  5
9B57
330
18
100
AcDbEntity
  8
0
100
AcDbLine
 10
758.364227020579
 20
859.6529262382004
 30
0.0
 11
776.8642270205782
 21
859.6529262382004
 31
0.0
  0
LINE
  5
9B58
330
18
100
AcDbEntity
  8
0
100
AcDbLine
 10
770.364227020579
 20
859.9529262381997
 30
0.0
 11
776.8642270205782
 21
859.9529262381997
 31
0.0
  0
LINE
  5
9B59
330
18
100
AcDbEntity
  8
0
100
AcDbLine
 10
758.364227020579
 20
857.6529262382004
 30
0.0
 11
758.3642270205794
 21
859.6529262382004
 31
0.0
  0
ARC
  5
9B5A
330
18
100
AcDbEntity
  8
0
100
AcDbCircle
 10
770.7299462377212
 20
851.8543474124873
 30
0.0
 40
5.471757172276427
100
AcDbArc
 50
104.4535042664213
 51
142.9266307855302
  0
LINE
  5
9B5B
330
18
100
AcDbEntity
  8
0
100
AcDbLine
 10
770.364227020579
 20
859.6529262382004
 30
0.0
 11
770.364227020579
 21
859.9529262381997
 31
0.0
  0
LINE
  5
9B5C
330
18
100
AcDbEntity
  8
0
100
AcDbLine
 10
769.364227020579
 20
857.1529262382004
 30
0.0
 11
770.364227020579
 21
857.1529262382004
 31
0.0
  0
LINE
  5
9B5D
330
18
100
AcDbEntity
  8
0
100
AcDbLine
 10
963.8642270205782
 20
716.1529262382003
 30
0.0
 11
966.8642270205772
 21
716.1529262382003
 31
0.0
  0
LINE
  5
9B5E
330
18
100
AcDbEntity
  8
0
100
AcDbLine
 10
963.8642270205782
 20
941.1529262382002
 30
0.0
 11
776.8642270205782
 21
941.1529262382003
 31
0.0
  0
LINE
  5
9B60
330
18
100
AcDbEntity
  8
0
100
AcDbLine
 10
874.3642270205784
 20
1134.600000580016
 30
0.0
 11
883.3642270205784
 21
1134.600000580016
 31
0.0
  0
LINE
  5
9B61
330
18
100
AcDbEntity
  8
0
100
AcDbLine
 10
874.3642270205784
 20
1084.600000580016
 30
0.0
 11
883.3642270205784
 21
1084.600000580016
 31
0.0
  0
LINE
  5
9B62
330
18
100
AcDbEntity
  8
0
100
AcDbLine
 10
962.8642270205784
 20
1077.600000580016
 30
0.0
 11
833.8642270205783
 21
1077.600000580016
 31
0.0
  0
LINE
  5
9B63
330
18
100
AcDbEntity
  8
0
100
AcDbLine
 10
834.8642270205782
 20
1078.600000580016
 30
0.0
 11
958.8642270205783
 21
1078.600000580016
 31
0.0
  0
LINE
  5
9B64
330
18
100
AcDbEntity
  8
0
100
AcDbLine
 10
966.8642270205786
 20
1141.600000580016
 30
0.0
 11
776.8642270205786
 21
1141.600000580016
 31
0.0
  0
LINE
  5
9B65
330
18
100
AcDbEntity
  8
0
100
AcDbLine
 10
963.8642270205785
 20
1138.600000580016
 30
0.0
 11
779.8642270205785
 21
1138.600000580016
 31
0.0
  0
LINE
  5
9B66
330
18
100
AcDbEntity
  8
0
100
AcDbLine
 10
958.8642270205783
 20
1138.600000580016
 30
0.0
 11
834.8642270205782
 21
1138.600000580016
 31
0.0
  0
LINE
  5
9B67
330
18
100
AcDbEntity
  8
0
100
AcDbLine
 10
779.8642270205784
 20
1021.600000580016
 30
0.0
 11
963.8642270205783
 21
1021.600000580016
 31
0.0
  0
LINE
  5
9B68
330
18
100
AcDbEntity
  8
0
100
AcDbLine
 10
779.8642270205784
 20
1028.600000580015
 30
0.0
 11
779.8642270205784
 21
1136.600000580016
 31
0.0
  0
LINE
  5
9B69
330
18
100
AcDbEntity
  8
0
100
AcDbLine
 10
768.0642270205756
 20
1049.500000580016
 30
0.0
 11
769.5642270205755
 21
1044.000000580016
 31
0.0
  0
LINE
  5
9B6A
330
18
100
AcDbEntity
  8
0
100
AcDbLine
 10
779.8642270205784
 20
1021.600000580016
 30
0.0
 11
779.8642270205785
 21
1138.600000580016
 31
0.0
  0
LINE
  5
9B6B
330
18
100
AcDbEntity
  8
0
100
AcDbLine
 10
776.8642270205783
 20
1021.600000580016
 30
0.0
 11
776.8642270205786
 21
1141.600000580016
 31
0.0
  0
LINE
  5
9B6C
330
18
100
AcDbEntity
  8
0
100
AcDbLine
 10
776.8642270205782
 20
909.2529262382004
 30
0.0
 11
767.3642270205781
 21
909.2529262382008
 31
0.0
  0
LINE
  5
9B6D
330
18
100
AcDbEntity
  8
0
100
AcDbLine
 10
771.4781459095228
 20
905.1025810584336
 30
0.0
 11
774.274572200345
 21
907.8990073492553
 31
0.0
  0
CIRCLE
  5
9B6E
330
18
100
AcDbEntity
  8
0
100
AcDbCircle
 10
772.6642270205778
 20
906.7129262382005
 30
0.0
 40
2.0
  0
LINE
  5
9B6F
330
18
100
AcDbEntity
  8
0
100
AcDbLine
 10
771.4781459095228
 20
894.9425810584338
 30
0.0
 11
774.274572200345
 21
897.7390073492555
 31
0.0
  0
CIRCLE
  5
9B70
330
18
100
AcDbEntity
  8
0
100
AcDbCircle
 10
772.6642270205778
 20
896.5529262382004
 30
0.0
 40
2.0
  0
LINE
  5
9B71
330
18
100
AcDbEntity
  8
0
100
AcDbLine
 10
776.8642270205782
 20
894.0529262382005
 30
0.0
 11
767.3642270205776
 21
894.0529262382007
 31
0.0
  0
LINE
  5
9B72
330
18
100
AcDbEntity
  8
0
100
AcDbLine
 10
771.4781459095228
 20
900.0225810584337
 30
0.0
 11
774.274572200345
 21
902.8190073492554
 31
0.0
  0
CIRCLE
  5
9B73
330
18
100
AcDbEntity
  8
0
100
AcDbCircle
 10
772.6642270205778
 20
901.6329262382004
 30
0.0
 40
2.0
  0
LINE
  5
9B74
330
18
100
AcDbEntity
  8
0
100
AcDbLine
 10
771.0538818408111
 20
900.4468451271453
 30
0.0
 11
773.8503081316329
 21
903.2432714179675
 31
0.0
  0
LINE
  5
9B75
330
18
100
AcDbEntity
  8
0
100
AcDbLine
 10
768.8642270205781
 20
909.2529262382008
 30
0.0
 11
768.8642270205781
 21
894.0529262382007
 31
0.0
  0
LINE
  5
9B76
330
18
100
AcDbEntity
  8
0
100
AcDbLine
 10
767.3642270205781
 20
909.2529262382008
 30
0.0
 11
767.3642270205781
 21
894.0529262382007
 31
0.0
  0
LINE
  5
9B77
330
18
100
AcDbEntity
  8
0
100
AcDbLine
 10
771.0538818408111
 20
895.3668451271454
 30
0.0
 11
773.8503081316329
 21
898.1632714179676
 31
0.0
  0
LINE
  5
9B78
330
18
100
AcDbEntity
  8
0
100
AcDbLine
 10
771.0538818408111
 20
905.5268451271455
 30
0.0
 11
773.8503081316329
 21
908.3232714179674
 31
0.0
  0
LINE
  5
9B79
330
18
100
AcDbEntity
  8
0
100
AcDbLine
 10
776.8642270205782
 20
909.2529262382004
 30
0.0
 11
776.8642270205782
 21
894.0529262382005
 31
0.0
  0
LINE
  5
9B7A
330
18
100
AcDbEntity
  8
0
100
AcDbLine
 10
776.1642270205778
 20
909.2529262382004
 30
0.0
 11
776.1642270205778
 21
894.0529262382005
 31
0.0
  0
LINE
  5
9B7B
330
18
100
AcDbEntity
  8
0
 48
0.2
100
AcDbLine
 10
776.8642270205775
 20
1025.950000580015
 30
0.0
 11
737.8642270205774
 21
1025.950000580015
 31
0.0
  0
LINE
  5
9B7C
330
18
100
AcDbEntity
  8
0
 48
0.2
100
AcDbLine
 10
776.8642270205775
 20
1038.650000580016
 30
0.0
 11
737.8642270205776
 21
1038.650000580016
 31
0.0
  0
LINE
  5
9B7D
330
18
100
AcDbEntity
  8
0
 48
0.2
100
AcDbLine
 10
753.864227020577
 20
1041.300000580015
 30
0.0
 11
737.8642270205776
 21
1041.300000580016
 31
0.0
  0
LINE
  5
9B7E
330
18
100
AcDbEntity
  8
0
 48
0.2
100
AcDbLine
 10
753.864227020577
 20
1023.300000580015
 30
0.0
 11
737.8642270205776
 21
1023.300000580015
 31
0.0
  0
LINE
  5
9B7F
330
18
100
AcDbEntity
  8
0
 48
0.2
100
AcDbLine
 10
753.0642270205775
 20
1025.950000580015
 30
0.0
 11
753.0642270205774
 21
1038.650000580015
 31
0.0
  0
LINE
  5
9B80
330
18
100
AcDbEntity
  8
0
 48
0.2
100
AcDbLine
 10
745.0642270205775
 20
1028.450000580016
 30
0.0
 11
745.0642270205775
 21
1036.150000580016
 31
0.0
  0
LINE
  5
9B81
330
18
100
AcDbEntity
  8
0
 48
0.2
100
AcDbLine
 10
737.8642270205776
 20
1023.300000580015
 30
0.0
 11
737.8642270205776
 21
1041.300000580016
 31
0.0
  0
LINE
  5
9B82
330
18
100
AcDbEntity
  8
0
 48
0.2
100
AcDbLine
 10
753.0642270205776
 20
1028.450000580016
 30
0.0
 11
745.0642270205775
 21
1028.450000580016
 31
0.0
  0
LINE
  5
9B83
330
18
100
AcDbEntity
  8
0
 48
0.2
100
AcDbLine
 10
753.0642270205775
 20
1036.150000580015
 30
0.0
 11
745.0642270205775
 21
1036.150000580016
 31
0.0
  0
ARC
  5
9B84
330
18
100
AcDbEntity
  8
0
 48
0.2
100
AcDbCircle
 10
754.2342270205773
 20
1032.300000580016
 30
0.0
 40
2.669999999999886
100
AcDbArc
 50
115.9892335838301
 51
244.0107664161698
  0
LINE
  5
9B85
330
18
100
AcDbEntity
  8
0
100
AcDbLine
 10
776.8642270205755
 20
1044.000000580016
 30
0.0
 11
769.5642270205755
 21
1044.000000580016
 31
0.0
  0
LINE
  5
9B86
330
18
100
AcDbEntity
  8
0
 48
0.2
100
AcDbLine
 10
776.8642270205775
 20
1035.800000580015
 30
0.0
 11
771.8642270205775
 21
1035.800000580016
 31
0.0
  0
LINE
  5
9B87
330
18
100
AcDbEntity
  8
0
 48
0.2
100
AcDbLine
 10
776.8642270205775
 20
1028.800000580016
 30
0.0
 11
771.8642270205775
 21
1028.800000580015
 31
0.0
  0
LINE
  5
9B88
330
18
100
AcDbEntity
  8
0
 48
0.2
100
AcDbLine
 10
758.8642270205774
 20
1025.950000580015
 30
0.0
 11
753.8642270205774
 21
1023.300000580015
 31
0.0
  0
LINE
  5
9B89
330
18
100
AcDbEntity
  8
0
 48
0.2
100
AcDbLine
 10
753.8642270205774
 20
1041.300000580015
 30
0.0
 11
758.8642270205774
 21
1038.650000580016
 31
0.0
  0
LINE
  5
9B8A
330
18
100
AcDbEntity
  8
0
 48
0.2
100
AcDbLine
 10
771.8642270205775
 20
1028.800000580015
 30
0.0
 11
771.8642270205775
 21
1035.800000580016
 31
0.0
  0
LINE
  5
9B8B
330
18
100
AcDbEntity
  8
0
100
AcDbLine
 10
792.8642270205783
 20
1046.600000580016
 30
0.0
 11
792.8642270205783
 21
1026.600000580015
 31
0.0
  0
LINE
  5
9B8C
330
18
100
AcDbEntity
  8
0
100
AcDbLine
 10
787.8642270205784
 20
1046.600000580016
 30
0.0
 11
787.8642270205784
 21
1026.600000580015
 31
0.0
  0
LINE
  5
9B8D
330
18
100
AcDbEntity
  8
0
 48
0.2
100
AcDbLine
 10
776.8642270205775
 20
1025.950000580015
 30
0.0
 11
776.8642270205775
 21
1028.800000580015
 31
0.0
  0
LINE
  5
9B8E
330
18
100
AcDbEntity
  8
0
100
AcDbLine
 10
779.8642270205784
 20
1021.600000580016
 30
0.0
 11
776.8642270205783
 21
1021.600000580016
 31
0.0
  0
LINE
  5
9B8F
330
18
100
AcDbEntity
  8
0
100
AcDbLine
 10
779.8642270205784
 20
1028.600000580015
 30
0.0
 11
782.8642270205784
 21
1028.600000580015
 31
0.0
  0
LINE
  5
9B90
330
18
100
AcDbEntity
  8
0
100
AcDbLine
 10
779.8642270205784
 20
1026.600000580015
 30
0.0
 11
780.8642270205783
 21
1026.600000580015
 31
0.0
  0
LINE
  5
9B91
330
18
100
AcDbEntity
  8
0
100
AcDbLine
 10
780.8642270205783
 20
1022.600000580016
 30
0.0
 11
782.8642270205784
 21
1022.600000580016
 31
0.0
  0
LINE
  5
9B92
330
18
100
AcDbEntity
  8
0
100
AcDbLine
 10
779.8642270205784
 20
1021.600000580016
 30
0.0
 11
779.8642270205784
 21
1026.600000580016
 31
0.0
  0
LINE
  5
9B93
330
18
100
AcDbEntity
  8
0
100
AcDbLine
 10
780.8642270205783
 20
1022.600000580016
 30
0.0
 11
780.8642270205783
 21
1026.600000580016
 31
0.0
  0
LINE
  5
9B94
330
18
100
AcDbEntity
  8
0
100
AcDbLine
 10
782.8642270205784
 20
1022.600000580016
 30
0.0
 11
782.8642270205784
 21
1028.600000580015
 31
0.0
  0
LINE
  5
9B95
330
18
100
AcDbEntity
  8
0
100
AcDbLine
 10
792.8642270205783
 20
1026.600000580015
 30
0.0
 11
787.8642270205784
 21
1026.600000580015
 31
0.0
  0
LINE
  5
9B96
330
18
100
AcDbEntity
  8
0
 48
0.2
100
AcDbLine
 10
776.8642270205775
 20
1035.800000580016
 30
0.0
 11
776.8642270205775
 21
1038.650000580016
 31
0.0
  0
LINE
  5
9B97
330
18
100
AcDbEntity
  8
0
100
AcDbLine
 10
792.8642270205783
 20
1046.600000580016
 30
0.0
 11
787.8642270205784
 21
1046.600000580016
 31
0.0
  0
LINE
  5
9B98
330
18
100
AcDbEntity
  8
0
100
AcDbLine
 10
802.8642270205784
 20
1046.600000580016
 30
0.0
 11
802.8642270205784
 21
1026.600000580015
 31
0.0
  0
LINE
  5
9B99
330
18
100
AcDbEntity
  8
0
100
AcDbLine
 10
807.8642270205783
 20
1046.600000580016
 30
0.0
 11
807.8642270205783
 21
1026.600000580015
 31
0.0
  0
LINE
  5
9B9A
330
18
100
AcDbEntity
  8
0
100
AcDbLine
 10
812.8642270205784
 20
1046.600000580016
 30
0.0
 11
812.8642270205784
 21
1026.600000580015
 31
0.0
  0
LINE
  5
9B9B
330
18
100
AcDbEntity
  8
0
100
AcDbLine
 10
797.8642270205783
 20
1046.600000580016
 30
0.0
 11
797.8642270205783
 21
1026.600000580015
 31
0.0
  0
LINE
  5
9B9C
330
18
100
AcDbEntity
  8
0
100
AcDbLine
 10
802.8642270205784
 20
1026.600000580015
 30
0.0
 11
797.8642270205783
 21
1026.600000580015
 31
0.0
  0
LINE
  5
9B9D
330
18
100
AcDbEntity
  8
0
100
AcDbLine
 10
812.8642270205784
 20
1026.600000580015
 30
0.0
 11
807.8642270205783
 21
1026.600000580015
 31
0.0
  0
LINE
  5
9B9E
330
18
100
AcDbEntity
  8
0
100
AcDbLine
 10
802.8642270205784
 20
1046.600000580016
 30
0.0
 11
797.8642270205783
 21
1046.600000580016
 31
0.0
  0
LINE
  5
9B9F
330
18
100
AcDbEntity
  8
0
100
AcDbLine
 10
812.8642270205784
 20
1046.600000580016
 30
0.0
 11
807.8642270205783
 21
1046.600000580016
 31
0.0
  0
LINE
  5
9BA0
330
18
100
AcDbEntity
  8
0
100
AcDbLine
 10
827.8642270205784
 20
1046.600000580016
 30
0.0
 11
827.8642270205784
 21
1026.600000580015
 31
0.0
  0
LINE
  5
9BA1
330
18
100
AcDbEntity
  8
0
100
AcDbLine
 10
832.8642270205783
 20
1046.600000580016
 30
0.0
 11
832.8642270205783
 21
1026.600000580015
 31
0.0
  0
LINE
  5
9BA2
330
18
100
AcDbEntity
  8
0
100
AcDbLine
 10
817.8642270205783
 20
1046.600000580016
 30
0.0
 11
817.8642270205783
 21
1026.600000580015
 31
0.0
  0
LINE
  5
9BA3
330
18
100
AcDbEntity
  8
0
100
AcDbLine
 10
822.8642270205783
 20
1046.600000580016
 30
0.0
 11
822.8642270205783
 21
1026.600000580015
 31
0.0
  0
LINE
  5
9BA4
330
18
100
AcDbEntity
  8
0
100
AcDbLine
 10
822.8642270205783
 20
1026.600000580015
 30
0.0
 11
817.8642270205783
 21
1026.600000580015
 31
0.0
  0
LINE
  5
9BA5
330
18
100
AcDbEntity
  8
0
100
AcDbLine
 10
832.8642270205783
 20
1026.600000580015
 30
0.0
 11
827.8642270205784
 21
1026.600000580015
 31
0.0
  0
LINE
  5
9BA6
330
18
100
AcDbEntity
  8
0
100
AcDbLine
 10
822.8642270205783
 20
1046.600000580016
 30
0.0
 11
817.8642270205783
 21
1046.600000580016
 31
0.0
  0
LINE
  5
9BA7
330
18
100
AcDbEntity
  8
0
100
AcDbLine
 10
832.8642270205783
 20
1046.600000580016
 30
0.0
 11
827.8642270205784
 21
1046.600000580016
 31
0.0
  0
LINE
  5
9BA8
330
18
100
AcDbEntity
  8
0
100
AcDbLine
 10
852.8642270205784
 20
1046.600000580016
 30
0.0
 11
852.8642270205784
 21
1026.600000580015
 31
0.0
  0
LINE
  5
9BA9
330
18
100
AcDbEntity
  8
0
100
AcDbLine
 10
837.8642270205784
 20
1046.600000580016
 30
0.0
 11
837.8642270205784
 21
1026.600000580015
 31
0.0
  0
LINE
  5
9BAA
330
18
100
AcDbEntity
  8
0
100
AcDbLine
 10
842.8642270205783
 20
1046.600000580016
 30
0.0
 11
842.8642270205783
 21
1026.600000580015
 31
0.0
  0
LINE
  5
9BAB
330
18
100
AcDbEntity
  8
0
100
AcDbLine
 10
847.8642270205783
 20
1046.600000580016
 30
0.0
 11
847.8642270205783
 21
1026.600000580015
 31
0.0
  0
LINE
  5
9BAC
330
18
100
AcDbEntity
  8
0
100
AcDbLine
 10
842.8642270205783
 20
1026.600000580015
 30
0.0
 11
837.8642270205784
 21
1026.600000580015
 31
0.0
  0
LINE
  5
9BAD
330
18
100
AcDbEntity
  8
0
100
AcDbLine
 10
852.8642270205784
 20
1026.600000580015
 30
0.0
 11
847.8642270205783
 21
1026.600000580015
 31
0.0
  0
LINE
  5
9BAE
330
18
100
AcDbEntity
  8
0
100
AcDbLine
 10
842.8642270205783
 20
1046.600000580016
 30
0.0
 11
837.8642270205784
 21
1046.600000580016
 31
0.0
  0
LINE
  5
9BAF
330
18
100
AcDbEntity
  8
0
100
AcDbLine
 10
852.8642270205784
 20
1046.600000580016
 30
0.0
 11
847.8642270205783
 21
1046.600000580016
 31
0.0
  0
LINE
  5
9BB0
330
18
100
AcDbEntity
  8
0
100
AcDbLine
 10
867.8642270205783
 20
1046.600000580016
 30
0.0
 11
867.8642270205783
 21
1026.600000580015
 31
0.0
  0
LINE
  5
9BB1
330
18
100
AcDbEntity
  8
0
100
AcDbLine
 10
872.8642270205783
 20
1046.600000580016
 30
0.0
 11
872.8642270205783
 21
1026.600000580015
 31
0.0
  0
LINE
  5
9BB2
330
18
100
AcDbEntity
  8
0
100
AcDbLine
 10
857.8642270205783
 20
1046.600000580016
 30
0.0
 11
857.8642270205783
 21
1026.600000580015
 31
0.0
  0
LINE
  5
9BB3
330
18
100
AcDbEntity
  8
0
100
AcDbLine
 10
862.8642270205784
 20
1046.600000580016
 30
0.0
 11
862.8642270205784
 21
1026.600000580015
 31
0.0
  0
LINE
  5
9BB4
330
18
100
AcDbEntity
  8
0
100
AcDbLine
 10
862.8642270205784
 20
1026.600000580015
 30
0.0
 11
857.8642270205783
 21
1026.600000580015
 31
0.0
  0
LINE
  5
9BB5
330
18
100
AcDbEntity
  8
0
100
AcDbLine
 10
872.8642270205783
 20
1026.600000580015
 30
0.0
 11
867.8642270205783
 21
1026.600000580015
 31
0.0
  0
LINE
  5
9BB6
330
18
100
AcDbEntity
  8
0
100
AcDbLine
 10
862.8642270205784
 20
1046.600000580016
 30
0.0
 11
857.8642270205783
 21
1046.600000580016
 31
0.0
  0
LINE
  5
9BB7
330
18
100
AcDbEntity
  8
0
100
AcDbLine
 10
872.8642270205783
 20
1046.600000580016
 30
0.0
 11
867.8642270205783
 21
1046.600000580016
 31
0.0
  0
LINE
  5
9BB8
330
18
100
AcDbEntity
  8
0
100
AcDbLine
 10
832.8642270205781
 20
1136.600000580016
 30
0.0
 11
779.8642270205784
 21
1136.600000580016
 31
0.0
  0
LINE
  5
9BB9
330
18
100
AcDbEntity
  8
0
100
AcDbLine
 10
792.8642270205781
 20
1126.600000580016
 30
0.0
 11
792.8642270205781
 21
1106.600000580016
 31
0.0
  0
LINE
  5
9BBA
330
18
100
AcDbEntity
  8
0
100
AcDbLine
 10
787.8642270205781
 20
1126.600000580016
 30
0.0
 11
787.8642270205781
 21
1106.600000580016
 31
0.0
  0
LINE
  5
9BBB
330
18
100
AcDbEntity
  8
0
100
AcDbLine
 10
787.8642270205781
 20
1101.600000580016
 30
0.0
 11
787.8642270205784
 21
1081.600000580016
 31
0.0
  0
LINE
  5
9BBC
330
18
100
AcDbEntity
  8
0
100
AcDbLine
 10
792.8642270205781
 20
1101.600000580016
 30
0.0
 11
792.8642270205783
 21
1081.600000580016
 31
0.0
  0
LINE
  5
9BBD
330
18
100
AcDbEntity
  8
0
100
AcDbLine
 10
758.3642270205788
 20
1059.600000580015
 30
0.0
 11
776.8642270205784
 21
1059.600000580016
 31
0.0
  0
LINE
  5
9BBE
330
18
100
AcDbEntity
  8
0
100
AcDbLine
 10
758.3642270205785
 20
1080.600000580015
 30
0.0
 11
776.8642270205784
 21
1080.600000580016
 31
0.0
  0
LINE
  5
9BBF
330
18
100
AcDbEntity
  8
0
100
AcDbLine
 10
776.8642270205755
 20
1059.000000580016
 30
0.0
 11
768.0642270205756
 21
1059.000000580016
 31
0.0
  0
LINE
  5
9BC0
330
18
100
AcDbEntity
  8
0
100
AcDbLine
 10
758.3642270205785
 20
1080.600000580015
 30
0.0
 11
758.3642270205788
 21
1059.600000580015
 31
0.0
  0
LINE
  5
9BC1
330
18
100
AcDbEntity
  8
0
100
AcDbLine
 10
768.0642270205756
 20
1059.000000580016
 30
0.0
 11
768.0642270205756
 21
1049.500000580016
 31
0.0
  0
LINE
  5
9BC2
330
18
100
AcDbEntity
  8
0
100
AcDbLine
 10
792.8642270205783
 20
1071.600000580016
 30
0.0
 11
792.8642270205783
 21
1051.600000580016
 31
0.0
  0
LINE
  5
9BC3
330
18
100
AcDbEntity
  8
0
100
AcDbLine
 10
787.8642270205784
 20
1071.600000580016
 30
0.0
 11
787.8642270205784
 21
1051.600000580016
 31
0.0
  0
LINE
  5
9BC4
330
18
100
AcDbEntity
  8
0
100
AcDbLine
 10
776.8642270205755
 20
1059.000000580016
 30
0.0
 11
776.8642270205756
 21
1058.000000580016
 31
0.0
  0
LINE
  5
9BC5
330
18
100
AcDbEntity
  8
0
100
AcDbLine
 10
792.8642270205783
 20
1051.600000580016
 30
0.0
 11
787.8642270205784
 21
1051.600000580016
 31
0.0
  0
LINE
  5
9BC6
330
18
100
AcDbEntity
  8
0
100
AcDbLine
 10
792.8642270205783
 20
1071.600000580016
 30
0.0
 11
787.8642270205784
 21
1071.600000580016
 31
0.0
  0
LINE
  5
9BC7
330
18
100
AcDbEntity
  8
0
100
AcDbLine
 10
792.8642270205783
 20
1081.600000580016
 30
0.0
 11
787.8642270205784
 21
1081.600000580016
 31
0.0
  0
LINE
  5
9BC8
330
18
100
AcDbEntity
  8
0
100
AcDbLine
 10
792.8642270205781
 20
1101.600000580016
 30
0.0
 11
787.8642270205781
 21
1101.600000580016
 31
0.0
  0
LINE
  5
9BC9
330
18
100
AcDbEntity
  8
0
100
AcDbLine
 10
792.8642270205781
 20
1106.600000580016
 30
0.0
 11
787.8642270205781
 21
1106.600000580016
 31
0.0
  0
LINE
  5
9BCA
330
18
100
AcDbEntity
  8
0
100
AcDbLine
 10
792.8642270205781
 20
1126.600000580016
 30
0.0
 11
787.8642270205781
 21
1126.600000580016
 31
0.0
  0
LINE
  5
9BCB
330
18
100
AcDbEntity
  8
0
100
AcDbLine
 10
817.8642270205781
 20
1126.600000580016
 30
0.0
 11
817.8642270205781
 21
1106.600000580016
 31
0.0
  0
LINE
  5
9BCC
330
18
100
AcDbEntity
  8
0
100
AcDbLine
 10
822.8642270205781
 20
1126.600000580016
 30
0.0
 11
822.8642270205781
 21
1106.600000580016
 31
0.0
  0
LINE
  5
9BCD
330
18
100
AcDbEntity
  8
0
100
AcDbLine
 10
802.864227020578
 20
1126.600000580016
 30
0.0
 11
802.864227020578
 21
1106.600000580016
 31
0.0
  0
LINE
  5
9BCE
330
18
100
AcDbEntity
  8
0
100
AcDbLine
 10
797.8642270205781
 20
1126.600000580016
 30
0.0
 11
797.8642270205781
 21
1106.600000580016
 31
0.0
  0
LINE
  5
9BCF
330
18
100
AcDbEntity
  8
0
100
AcDbLine
 10
812.8642270205782
 20
1126.600000580016
 30
0.0
 11
812.8642270205782
 21
1106.600000580016
 31
0.0
  0
LINE
  5
9BD0
330
18
100
AcDbEntity
  8
0
100
AcDbLine
 10
807.8642270205781
 20
1126.600000580016
 30
0.0
 11
807.8642270205781
 21
1106.600000580016
 31
0.0
  0
LINE
  5
9BD1
330
18
100
AcDbEntity
  8
0
100
AcDbLine
 10
874.3642270205784
 20
1084.600000580016
 30
0.0
 11
874.3642270205784
 21
1134.600000580016
 31
0.0
  0
LINE
  5
9BD2
330
18
100
AcDbEntity
  8
0
100
AcDbLine
 10
871.3642270205783
 20
1084.600000580016
 30
0.0
 11
871.3642270205783
 21
1134.600000580016
 31
0.0
  0
LINE
  5
9BD3
330
18
100
AcDbEntity
  8
0
100
AcDbLine
 10
833.8642270205783
 20
1077.600000580016
 30
0.0
 11
833.8642270205781
 21
1135.600000580015
 31
0.0
  0
LINE
  5
9BD4
330
18
100
AcDbEntity
  8
0
100
AcDbLine
 10
834.8642270205782
 20
1078.600000580016
 30
0.0
 11
834.8642270205782
 21
1138.600000580016
 31
0.0
  0
LINE
  5
9BD5
330
18
100
AcDbEntity
  8
0
100
AcDbLine
 10
838.3642270205783
 20
1084.600000580016
 30
0.0
 11
838.3642270205783
 21
1134.600000580016
 31
0.0
  0
LINE
  5
9BD6
330
18
100
AcDbEntity
  8
0
100
AcDbLine
 10
850.3642270205784
 20
1084.600000580016
 30
0.0
 11
850.3642270205784
 21
1134.600000580016
 31
0.0
  0
LINE
  5
9BD7
330
18
100
AcDbEntity
  8
0
100
AcDbLine
 10
847.3642270205782
 20
1084.600000580016
 30
0.0
 11
847.3642270205782
 21
1134.600000580016
 31
0.0
  0
LINE
  5
9BD8
330
18
100
AcDbEntity
  8
0
100
AcDbLine
 10
862.3642270205783
 20
1084.600000580016
 30
0.0
 11
862.3642270205783
 21
1134.600000580016
 31
0.0
  0
LINE
  5
9BD9
330
18
100
AcDbEntity
  8
0
100
AcDbLine
 10
859.3642270205783
 20
1084.600000580016
 30
0.0
 11
859.3642270205783
 21
1134.600000580016
 31
0.0
  0
LINE
  5
9BDA
330
18
100
AcDbEntity
  8
0
100
AcDbLine
 10
817.8642270205781
 20
1101.600000580016
 30
0.0
 11
817.8642270205783
 21
1081.600000580016
 31
0.0
  0
LINE
  5
9BDB
330
18
100
AcDbEntity
  8
0
100
AcDbLine
 10
822.8642270205781
 20
1101.600000580016
 30
0.0
 11
822.8642270205783
 21
1081.600000580016
 31
0.0
  0
LINE
  5
9BDC
330
18
100
AcDbEntity
  8
0
100
AcDbLine
 10
802.864227020578
 20
1101.600000580016
 30
0.0
 11
802.8642270205784
 21
1081.600000580016
 31
0.0
  0
LINE
  5
9BDD
330
18
100
AcDbEntity
  8
0
100
AcDbLine
 10
807.8642270205781
 20
1101.600000580016
 30
0.0
 11
807.8642270205783
 21
1081.600000580016
 31
0.0
  0
LINE
  5
9BDE
330
18
100
AcDbEntity
  8
0
100
AcDbLine
 10
812.8642270205782
 20
1101.600000580016
 30
0.0
 11
812.8642270205784
 21
1081.600000580016
 31
0.0
  0
LINE
  5
9BDF
330
18
100
AcDbEntity
  8
0
100
AcDbLine
 10
797.8642270205781
 20
1101.600000580016
 30
0.0
 11
797.8642270205783
 21
1081.600000580016
 31
0.0
  0
LINE
  5
9BE0
330
18
100
AcDbEntity
  8
0
100
AcDbLine
 10
797.8642270205783
 20
1071.600000580016
 30
0.0
 11
797.8642270205783
 21
1051.600000580016
 31
0.0
  0
LINE
  5
9BE1
330
18
100
AcDbEntity
  8
0
100
AcDbLine
 10
807.8642270205783
 20
1071.600000580016
 30
0.0
 11
807.8642270205783
 21
1051.600000580016
 31
0.0
  0
LINE
  5
9BE2
330
18
100
AcDbEntity
  8
0
100
AcDbLine
 10
812.8642270205784
 20
1071.600000580016
 30
0.0
 11
812.8642270205784
 21
1051.600000580016
 31
0.0
  0
LINE
  5
9BE3
330
18
100
AcDbEntity
  8
0
100
AcDbLine
 10
802.8642270205784
 20
1071.600000580016
 30
0.0
 11
802.8642270205784
 21
1051.600000580016
 31
0.0
  0
LINE
  5
9BE4
330
18
100
AcDbEntity
  8
0
100
AcDbLine
 10
802.8642270205784
 20
1051.600000580016
 30
0.0
 11
797.8642270205783
 21
1051.600000580016
 31
0.0
  0
LINE
  5
9BE5
330
18
100
AcDbEntity
  8
0
100
AcDbLine
 10
812.8642270205784
 20
1051.600000580016
 30
0.0
 11
807.8642270205783
 21
1051.600000580016
 31
0.0
  0
LINE
  5
9BE6
330
18
100
AcDbEntity
  8
0
100
AcDbLine
 10
802.8642270205784
 20
1071.600000580016
 30
0.0
 11
797.8642270205783
 21
1071.600000580016
 31
0.0
  0
LINE
  5
9BE7
330
18
100
AcDbEntity
  8
0
100
AcDbLine
 10
802.8642270205784
 20
1081.600000580016
 30
0.0
 11
797.8642270205783
 21
1081.600000580016
 31
0.0
  0
LINE
  5
9BE8
330
18
100
AcDbEntity
  8
0
100
AcDbLine
 10
812.8642270205784
 20
1071.600000580016
 30
0.0
 11
807.8642270205783
 21
1071.600000580016
 31
0.0
  0
LINE
  5
9BE9
330
18
100
AcDbEntity
  8
0
100
AcDbLine
 10
812.8642270205784
 20
1081.600000580016
 30
0.0
 11
807.8642270205783
 21
1081.600000580016
 31
0.0
  0
LINE
  5
9BEA
330
18
100
AcDbEntity
  8
0
100
AcDbLine
 10
827.8642270205784
 20
1071.600000580016
 30
0.0
 11
827.8642270205784
 21
1051.600000580016
 31
0.0
  0
LINE
  5
9BEB
330
18
100
AcDbEntity
  8
0
100
AcDbLine
 10
832.8642270205783
 20
1071.600000580016
 30
0.0
 11
832.8642270205783
 21
1051.600000580016
 31
0.0
  0
LINE
  5
9BEC
330
18
100
AcDbEntity
  8
0
100
AcDbLine
 10
817.8642270205783
 20
1071.600000580016
 30
0.0
 11
817.8642270205783
 21
1051.600000580016
 31
0.0
  0
LINE
  5
9BED
330
18
100
AcDbEntity
  8
0
100
AcDbLine
 10
822.8642270205783
 20
1071.600000580016
 30
0.0
 11
822.8642270205783
 21
1051.600000580016
 31
0.0
  0
LINE
  5
9BEE
330
18
100
AcDbEntity
  8
0
100
AcDbLine
 10
822.8642270205783
 20
1051.600000580016
 30
0.0
 11
817.8642270205783
 21
1051.600000580016
 31
0.0
  0
LINE
  5
9BEF
330
18
100
AcDbEntity
  8
0
100
AcDbLine
 10
832.8642270205783
 20
1051.600000580016
 30
0.0
 11
827.8642270205784
 21
1051.600000580016
 31
0.0
  0
LINE
  5
9BF0
330
18
100
AcDbEntity
  8
0
100
AcDbLine
 10
822.8642270205783
 20
1071.600000580016
 30
0.0
 11
817.8642270205783
 21
1071.600000580016
 31
0.0
  0
LINE
  5
9BF1
330
18
100
AcDbEntity
  8
0
100
AcDbLine
 10
822.8642270205783
 20
1081.600000580016
 30
0.0
 11
817.8642270205783
 21
1081.600000580016
 31
0.0
  0
LINE
  5
9BF2
330
18
100
AcDbEntity
  8
0
100
AcDbLine
 10
832.8642270205783
 20
1071.600000580016
 30
0.0
 11
827.8642270205784
 21
1071.600000580016
 31
0.0
  0
LINE
  5
9BF3
330
18
100
AcDbEntity
  8
0
100
AcDbLine
 10
802.864227020578
 20
1101.600000580016
 30
0.0
 11
797.8642270205781
 21
1101.600000580016
 31
0.0
  0
LINE
  5
9BF4
330
18
100
AcDbEntity
  8
0
100
AcDbLine
 10
812.8642270205782
 20
1101.600000580016
 30
0.0
 11
807.8642270205781
 21
1101.600000580016
 31
0.0
  0
LINE
  5
9BF5
330
18
100
AcDbEntity
  8
0
100
AcDbLine
 10
802.864227020578
 20
1106.600000580016
 30
0.0
 11
797.8642270205781
 21
1106.600000580016
 31
0.0
  0
LINE
  5
9BF6
330
18
100
AcDbEntity
  8
0
100
AcDbLine
 10
812.8642270205782
 20
1106.600000580016
 30
0.0
 11
807.8642270205781
 21
1106.600000580016
 31
0.0
  0
LINE
  5
9BF7
330
18
100
AcDbEntity
  8
0
100
AcDbLine
 10
822.8642270205781
 20
1101.600000580016
 30
0.0
 11
817.8642270205781
 21
1101.600000580016
 31
0.0
  0
LINE
  5
9BF8
330
18
100
AcDbEntity
  8
0
100
AcDbLine
 10
822.8642270205781
 20
1106.600000580016
 30
0.0
 11
817.8642270205781
 21
1106.600000580016
 31
0.0
  0
LINE
  5
9BF9
330
18
100
AcDbEntity
  8
0
100
AcDbLine
 10
850.3642270205784
 20
1084.600000580016
 30
0.0
 11
859.3642270205783
 21
1084.600000580016
 31
0.0
  0
LINE
  5
9BFA
330
18
100
AcDbEntity
  8
0
100
AcDbLine
 10
842.8642270205783
 20
1071.600000580016
 30
0.0
 11
842.8642270205783
 21
1051.600000580016
 31
0.0
  0
LINE
  5
9BFB
330
18
100
AcDbEntity
  8
0
100
AcDbLine
 10
847.8642270205783
 20
1071.600000580016
 30
0.0
 11
847.8642270205783
 21
1051.600000580016
 31
0.0
  0
LINE
  5
9BFC
330
18
100
AcDbEntity
  8
0
100
AcDbLine
 10
837.8642270205784
 20
1071.600000580016
 30
0.0
 11
837.8642270205784
 21
1051.600000580016
 31
0.0
  0
LINE
  5
9BFD
330
18
100
AcDbEntity
  8
0
100
AcDbLine
 10
852.8642270205784
 20
1071.600000580016
 30
0.0
 11
852.8642270205784
 21
1051.600000580016
 31
0.0
  0
LINE
  5
9BFE
330
18
100
AcDbEntity
  8
0
100
AcDbLine
 10
842.8642270205783
 20
1051.600000580016
 30
0.0
 11
837.8642270205784
 21
1051.600000580016
 31
0.0
  0
LINE
  5
9BFF
330
18
100
AcDbEntity
  8
0
100
AcDbLine
 10
852.8642270205784
 20
1051.600000580016
 30
0.0
 11
847.8642270205783
 21
1051.600000580016
 31
0.0
  0
LINE
  5
9C00
330
18
100
AcDbEntity
  8
0
100
AcDbLine
 10
838.3642270205783
 20
1084.600000580016
 30
0.0
 11
847.3642270205782
 21
1084.600000580016
 31
0.0
  0
LINE
  5
9C01
330
18
100
AcDbEntity
  8
0
100
AcDbLine
 10
842.8642270205783
 20
1071.600000580016
 30
0.0
 11
837.8642270205784
 21
1071.600000580016
 31
0.0
  0
LINE
  5
9C02
330
18
100
AcDbEntity
  8
0
100
AcDbLine
 10
852.8642270205784
 20
1071.600000580016
 30
0.0
 11
847.8642270205783
 21
1071.600000580016
 31
0.0
  0
LINE
  5
9C03
330
18
100
AcDbEntity
  8
0
100
AcDbLine
 10
872.8642270205783
 20
1071.600000580016
 30
0.0
 11
872.8642270205783
 21
1051.600000580016
 31
0.0
  0
LINE
  5
9C04
330
18
100
AcDbEntity
  8
0
100
AcDbLine
 10
867.8642270205783
 20
1071.600000580016
 30
0.0
 11
867.8642270205783
 21
1051.600000580016
 31
0.0
  0
LINE
  5
9C05
330
18
100
AcDbEntity
  8
0
100
AcDbLine
 10
857.8642270205783
 20
1071.600000580016
 30
0.0
 11
857.8642270205783
 21
1051.600000580016
 31
0.0
  0
LINE
  5
9C06
330
18
100
AcDbEntity
  8
0
100
AcDbLine
 10
862.8642270205784
 20
1071.600000580016
 30
0.0
 11
862.8642270205784
 21
1051.600000580016
 31
0.0
  0
LINE
  5
9C07
330
18
100
AcDbEntity
  8
0
100
AcDbLine
 10
862.8642270205784
 20
1051.600000580016
 30
0.0
 11
857.8642270205783
 21
1051.600000580016
 31
0.0
  0
LINE
  5
9C08
330
18
100
AcDbEntity
  8
0
100
AcDbLine
 10
872.8642270205783
 20
1051.600000580016
 30
0.0
 11
867.8642270205783
 21
1051.600000580016
 31
0.0
  0
LINE
  5
9C09
330
18
100
AcDbEntity
  8
0
100
AcDbLine
 10
862.3642270205783
 20
1084.600000580016
 30
0.0
 11
871.3642270205783
 21
1084.600000580016
 31
0.0
  0
LINE
  5
9C0A
330
18
100
AcDbEntity
  8
0
100
AcDbLine
 10
862.8642270205784
 20
1071.600000580016
 30
0.0
 11
857.8642270205783
 21
1071.600000580016
 31
0.0
  0
LINE
  5
9C0B
330
18
100
AcDbEntity
  8
0
100
AcDbLine
 10
872.8642270205783
 20
1071.600000580016
 30
0.0
 11
867.8642270205783
 21
1071.600000580016
 31
0.0
  0
LINE
  5
9C0C
330
18
100
AcDbEntity
  8
0
100
AcDbLine
 10
802.864227020578
 20
1126.600000580016
 30
0.0
 11
797.8642270205781
 21
1126.600000580016
 31
0.0
  0
LINE
  5
9C0D
330
18
100
AcDbEntity
  8
0
100
AcDbLine
 10
812.8642270205782
 20
1126.600000580016
 30
0.0
 11
807.8642270205781
 21
1126.600000580016
 31
0.0
  0
LINE
  5
9C0E
330
18
100
AcDbEntity
  8
0
100
AcDbLine
 10
822.8642270205781
 20
1126.600000580016
 30
0.0
 11
817.8642270205781
 21
1126.600000580016
 31
0.0
  0
LINE
  5
9C0F
330
18
100
AcDbEntity
  8
0
100
AcDbLine
 10
832.8642270205781
 20
1136.600000580016
 30
0.0
 11
833.8642270205781
 21
1135.600000580015
 31
0.0
  0
LINE
  5
9C10
330
18
100
AcDbEntity
  8
0
100
AcDbLine
 10
850.3642270205784
 20
1134.600000580016
 30
0.0
 11
859.3642270205783
 21
1134.600000580016
 31
0.0
  0
LINE
  5
9C11
330
18
100
AcDbEntity
  8
0
100
AcDbLine
 10
838.3642270205783
 20
1134.600000580016
 30
0.0
 11
847.3642270205782
 21
1134.600000580016
 31
0.0
  0
LINE
  5
9C12
330
18
100
AcDbEntity
  8
0
100
AcDbLine
 10
862.3642270205783
 20
1134.600000580016
 30
0.0
 11
871.3642270205783
 21
1134.600000580016
 31
0.0
  0
LINE
  5
9C13
330
18
100
AcDbEntity
  8
0
100
AcDbLine
 10
963.8642270205783
 20
1028.600000580016
 30
0.0
 11
963.8642270205783
 21
1077.600000580016
 31
0.0
  0
LINE
  5
9C14
330
18
100
AcDbEntity
  8
0
100
AcDbLine
 10
963.8642270205783
 20
1021.600000580016
 30
0.0
 11
963.8642270205785
 21
1138.600000580016
 31
0.0
  0
LINE
  5
9C15
330
18
100
AcDbEntity
  8
0
100
AcDbLine
 10
966.8642270205783
 20
1021.600000580016
 30
0.0
 11
966.8642270205786
 21
1141.600000580016
 31
0.0
  0
LINE
  5
9C16
330
18
100
AcDbEntity
  8
0
100
AcDbLine
 10
922.8642270205783
 20
1026.600000580016
 30
0.0
 11
917.8642270205783
 21
1026.600000580016
 31
0.0
  0
LINE
  5
9C17
330
18
100
AcDbEntity
  8
0
100
AcDbLine
 10
922.8642270205783
 20
1046.600000580016
 30
0.0
 11
917.8642270205783
 21
1046.600000580016
 31
0.0
  0
LINE
  5
9C18
330
18
100
AcDbEntity
  8
0
100
AcDbLine
 10
902.8642270205784
 20
1026.600000580016
 30
0.0
 11
897.8642270205783
 21
1026.600000580016
 31
0.0
  0
LINE
  5
9C19
330
18
100
AcDbEntity
  8
0
100
AcDbLine
 10
902.8642270205784
 20
1046.600000580016
 30
0.0
 11
897.8642270205783
 21
1046.600000580016
 31
0.0
  0
LINE
  5
9C1A
330
18
100
AcDbEntity
  8
0
100
AcDbLine
 10
877.8642270205784
 20
1046.600000580016
 30
0.0
 11
877.8642270205784
 21
1026.600000580015
 31
0.0
  0
LINE
  5
9C1B
330
18
100
AcDbEntity
  8
0
100
AcDbLine
 10
882.8642270205783
 20
1046.600000580016
 30
0.0
 11
882.8642270205783
 21
1026.600000580015
 31
0.0
  0
LINE
  5
9C1C
330
18
100
AcDbEntity
  8
0
100
AcDbLine
 10
887.8642270205784
 20
1046.600000580016
 30
0.0
 11
887.8642270205784
 21
1026.600000580016
 31
0.0
  0
LINE
  5
9C1D
330
18
100
AcDbEntity
  8
0
100
AcDbLine
 10
897.8642270205783
 20
1046.600000580016
 30
0.0
 11
897.8642270205783
 21
1026.600000580016
 31
0.0
  0
LINE
  5
9C1E
330
18
100
AcDbEntity
  8
0
100
AcDbLine
 10
892.8642270205783
 20
1046.600000580016
 30
0.0
 11
892.8642270205783
 21
1026.600000580016
 31
0.0
  0
LINE
  5
9C1F
330
18
100
AcDbEntity
  8
0
100
AcDbLine
 10
882.8642270205783
 20
1026.600000580015
 30
0.0
 11
877.8642270205784
 21
1026.600000580015
 31
0.0
  0
LINE
  5
9C20
330
18
100
AcDbEntity
  8
0
100
AcDbLine
 10
892.8642270205783
 20
1026.600000580016
 30
0.0
 11
887.8642270205784
 21
1026.600000580016
 31
0.0
  0
LINE
  5
9C21
330
18
100
AcDbEntity
  8
0
100
AcDbLine
 10
882.8642270205783
 20
1046.600000580016
 30
0.0
 11
877.8642270205784
 21
1046.600000580016
 31
0.0
  0
LINE
  5
9C22
330
18
100
AcDbEntity
  8
0
100
AcDbLine
 10
892.8642270205783
 20
1046.600000580016
 30
0.0
 11
887.8642270205784
 21
1046.600000580016
 31
0.0
  0
LINE
  5
9C23
330
18
100
AcDbEntity
  8
0
100
AcDbLine
 10
917.8642270205783
 20
1046.600000580016
 30
0.0
 11
917.8642270205783
 21
1026.600000580016
 31
0.0
  0
LINE
  5
9C24
330
18
100
AcDbEntity
  8
0
100
AcDbLine
 10
912.8642270205784
 20
1046.600000580016
 30
0.0
 11
912.8642270205784
 21
1026.600000580016
 31
0.0
  0
LINE
  5
9C25
330
18
100
AcDbEntity
  8
0
100
AcDbLine
 10
907.8642270205783
 20
1046.600000580016
 30
0.0
 11
907.8642270205783
 21
1026.600000580016
 31
0.0
  0
LINE
  5
9C26
330
18
100
AcDbEntity
  8
0
100
AcDbLine
 10
902.8642270205784
 20
1046.600000580016
 30
0.0
 11
902.8642270205784
 21
1026.600000580016
 31
0.0
  0
LINE
  5
9C27
330
18
100
AcDbEntity
  8
0
100
AcDbLine
 10
912.8642270205784
 20
1026.600000580016
 30
0.0
 11
907.8642270205783
 21
1026.600000580016
 31
0.0
  0
LINE
  5
9C28
330
18
100
AcDbEntity
  8
0
100
AcDbLine
 10
912.8642270205784
 20
1046.600000580016
 30
0.0
 11
907.8642270205783
 21
1046.600000580016
 31
0.0
  0
LINE
  5
9C29
330
18
100
AcDbEntity
  8
0
100
AcDbLine
 10
942.8642270205783
 20
1026.600000580016
 30
0.0
 11
937.8642270205784
 21
1026.600000580016
 31
0.0
  0
LINE
  5
9C2A
330
18
100
AcDbEntity
  8
0
100
AcDbLine
 10
942.8642270205783
 20
1046.600000580016
 30
0.0
 11
937.8642270205784
 21
1046.600000580016
 31
0.0
  0
LINE
  5
9C2B
330
18
100
AcDbEntity
  8
0
100
AcDbLine
 10
937.8642270205784
 20
1046.600000580016
 30
0.0
 11
937.8642270205784
 21
1026.600000580016
 31
0.0
  0
LINE
  5
9C2C
330
18
100
AcDbEntity
  8
0
100
AcDbLine
 10
932.8642270205783
 20
1046.600000580016
 30
0.0
 11
932.8642270205783
 21
1026.600000580016
 31
0.0
  0
LINE
  5
9C2D
330
18
100
AcDbEntity
  8
0
100
AcDbLine
 10
927.8642270205784
 20
1046.600000580016
 30
0.0
 11
927.8642270205784
 21
1026.600000580016
 31
0.0
  0
LINE
  5
9C2E
330
18
100
AcDbEntity
  8
0
100
AcDbLine
 10
922.8642270205783
 20
1046.600000580016
 30
0.0
 11
922.8642270205783
 21
1026.600000580016
 31
0.0
  0
LINE
  5
9C2F
330
18
100
AcDbEntity
  8
0
100
AcDbLine
 10
932.8642270205783
 20
1026.600000580016
 30
0.0
 11
927.8642270205784
 21
1026.600000580016
 31
0.0
  0
LINE
  5
9C30
330
18
100
AcDbEntity
  8
0
100
AcDbLine
 10
932.8642270205783
 20
1046.600000580016
 30
0.0
 11
927.8642270205784
 21
1046.600000580016
 31
0.0
  0
LINE
  5
9C31
330
18
100
AcDbEntity
  8
0
100
AcDbLine
 10
952.8642270205784
 20
1046.600000580016
 30
0.0
 11
952.8642270205784
 21
1026.600000580016
 31
0.0
  0
LINE
  5
9C32
330
18
100
AcDbEntity
  8
0
100
AcDbLine
 10
947.8642270205783
 20
1046.600000580016
 30
0.0
 11
947.8642270205783
 21
1026.600000580016
 31
0.0
  0
LINE
  5
9C33
330
18
100
AcDbEntity
  8
0
100
AcDbLine
 10
942.8642270205783
 20
1046.600000580016
 30
0.0
 11
942.8642270205783
 21
1026.600000580016
 31
0.0
  0
LINE
  5
9C34
330
18
100
AcDbEntity
  8
0
100
AcDbLine
 10
952.8642270205784
 20
1026.600000580016
 30
0.0
 11
947.8642270205783
 21
1026.600000580016
 31
0.0
  0
LINE
  5
9C35
330
18
100
AcDbEntity
  8
0
100
AcDbLine
 10
952.8642270205784
 20
1046.600000580016
 30
0.0
 11
947.8642270205783
 21
1046.600000580016
 31
0.0
  0
LINE
  5
9C36
330
18
100
AcDbEntity
  8
0
100
AcDbLine
 10
963.8642270205782
 20
956.1529262382002
 30
0.0
 11
966.8642270205781
 21
956.1529262382002
 31
0.0
  0
LINE
  5
9C37
330
18
100
AcDbEntity
  8
0
100
AcDbLine
 10
966.8642270205783
 20
1021.600000580016
 30
0.0
 11
963.8642270205783
 21
1021.600000580016
 31
0.0
  0
LINE
  5
9C38
330
18
100
AcDbEntity
  8
0
100
AcDbLine
 10
963.8642270205783
 20
1026.600000580016
 30
0.0
 11
962.8642270205784
 21
1026.600000580016
 31
0.0
  0
LINE
  5
9C39
330
18
100
AcDbEntity
  8
0
100
AcDbLine
 10
963.8642270205783
 20
1028.600000580016
 30
0.0
 11
962.8642270205784
 21
1028.600000580016
 31
0.0
  0
LINE
  5
9C3A
330
18
100
AcDbEntity
  8
0
100
AcDbLine
 10
963.8642270205783
 20
1028.600000580016
 30
0.0
 11
960.8642270205784
 21
1028.600000580015
 31
0.0
  0
LINE
  5
9C3B
330
18
100
AcDbEntity
  8
0
100
AcDbLine
 10
963.8642270205783
 20
1026.600000580016
 30
0.0
 11
962.8642270205784
 21
1026.600000580016
 31
0.0
  0
LINE
  5
9C3C
330
18
100
AcDbEntity
  8
0
100
AcDbLine
 10
960.8642270205784
 20
1022.600000580016
 30
0.0
 11
962.8642270205784
 21
1022.600000580016
 31
0.0
  0
LINE
  5
9C3D
330
18
100
AcDbEntity
  8
0
100
AcDbLine
 10
963.8642270205783
 20
1021.600000580016
 30
0.0
 11
963.8642270205783
 21
1026.600000580016
 31
0.0
  0
LINE
  5
9C3E
330
18
100
AcDbEntity
  8
0
100
AcDbLine
 10
963.8642270205783
 20
1021.600000580016
 30
0.0
 11
963.8642270205783
 21
1026.600000580016
 31
0.0
  0
LINE
  5
9C3F
330
18
100
AcDbEntity
  8
0
100
AcDbLine
 10
962.8642270205784
 20
1022.600000580016
 30
0.0
 11
962.8642270205784
 21
1026.600000580016
 31
0.0
  0
LINE
  5
9C40
330
18
100
AcDbEntity
  8
0
100
AcDbLine
 10
960.8642270205784
 20
1022.600000580016
 30
0.0
 11
960.8642270205784
 21
1028.600000580015
 31
0.0
  0
LINE
  5
9C41
330
18
100
AcDbEntity
  8
0
100
AcDbLine
 10
962.8642270205784
 20
1022.600000580016
 30
0.0
 11
962.8642270205784
 21
1026.600000580016
 31
0.0
  0
LINE
  5
9C42
330
18
100
AcDbEntity
  8
0
100
AcDbLine
 10
922.3642270205784
 20
1084.600000580016
 30
0.0
 11
922.3642270205784
 21
1134.600000580016
 31
0.0
  0
LINE
  5
9C43
330
18
100
AcDbEntity
  8
0
100
AcDbLine
 10
919.3642270205783
 20
1084.600000580016
 30
0.0
 11
919.3642270205783
 21
1134.600000580016
 31
0.0
  0
LINE
  5
9C44
330
18
100
AcDbEntity
  8
0
100
AcDbLine
 10
910.3642270205783
 20
1084.600000580016
 30
0.0
 11
910.3642270205783
 21
1134.600000580016
 31
0.0
  0
LINE
  5
9C45
330
18
100
AcDbEntity
  8
0
100
AcDbLine
 10
907.3642270205784
 20
1084.600000580016
 30
0.0
 11
907.3642270205784
 21
1134.600000580016
 31
0.0
  0
LINE
  5
9C46
330
18
100
AcDbEntity
  8
0
100
AcDbLine
 10
886.3642270205783
 20
1084.600000580016
 30
0.0
 11
886.3642270205783
 21
1134.600000580016
 31
0.0
  0
LINE
  5
9C47
330
18
100
AcDbEntity
  8
0
100
AcDbLine
 10
883.3642270205784
 20
1084.600000580016
 30
0.0
 11
883.3642270205784
 21
1134.600000580016
 31
0.0
  0
LINE
  5
9C48
330
18
100
AcDbEntity
  8
0
100
AcDbLine
 10
895.3642270205783
 20
1084.600000580016
 30
0.0
 11
895.3642270205783
 21
1134.600000580016
 31
0.0
  0
LINE
  5
9C49
330
18
100
AcDbEntity
  8
0
100
AcDbLine
 10
898.3642270205784
 20
1084.600000580016
 30
0.0
 11
898.3642270205784
 21
1134.600000580016
 31
0.0
  0
LINE
  5
9C4A
330
18
100
AcDbEntity
  8
0
100
AcDbLine
 10
943.3642270205783
 20
1084.600000580016
 30
0.0
 11
943.3642270205783
 21
1134.600000580016
 31
0.0
  0
LINE
  5
9C4B
330
18
100
AcDbEntity
  8
0
100
AcDbLine
 10
934.3642270205783
 20
1084.600000580016
 30
0.0
 11
934.3642270205783
 21
1134.600000580016
 31
0.0
  0
LINE
  5
9C4C
330
18
100
AcDbEntity
  8
0
100
AcDbLine
 10
931.3642270205784
 20
1084.600000580016
 30
0.0
 11
931.3642270205784
 21
1134.600000580016
 31
0.0
  0
LINE
  5
9C4D
330
18
100
AcDbEntity
  8
0
100
AcDbLine
 10
958.8642270205783
 20
1078.600000580016
 30
0.0
 11
958.8642270205783
 21
1138.600000580016
 31
0.0
  0
LINE
  5
9C4E
330
18
100
AcDbEntity
  8
0
100
AcDbLine
 10
955.3642270205783
 20
1084.600000580016
 30
0.0
 11
955.3642270205783
 21
1134.600000580016
 31
0.0
  0
LINE
  5
9C4F
330
18
100
AcDbEntity
  8
0
100
AcDbLine
 10
946.3642270205783
 20
1084.600000580016
 30
0.0
 11
946.3642270205783
 21
1134.600000580016
 31
0.0
  0
LINE
  5
9C50
330
18
100
AcDbEntity
  8
0
100
AcDbLine
 10
922.8642270205783
 20
1071.600000580016
 30
0.0
 11
917.8642270205783
 21
1071.600000580016
 31
0.0
  0
LINE
  5
9C51
330
18
100
AcDbEntity
  8
0
100
AcDbLine
 10
910.3642270205783
 20
1084.600000580016
 30
0.0
 11
919.3642270205783
 21
1084.600000580016
 31
0.0
  0
LINE
  5
9C52
330
18
100
AcDbEntity
  8
0
100
AcDbLine
 10
922.8642270205783
 20
1051.600000580016
 30
0.0
 11
917.8642270205783
 21
1051.600000580016
 31
0.0
  0
LINE
  5
9C53
330
18
100
AcDbEntity
  8
0
100
AcDbLine
 10
902.8642270205784
 20
1071.600000580016
 30
0.0
 11
897.8642270205783
 21
1071.600000580016
 31
0.0
  0
LINE
  5
9C54
330
18
100
AcDbEntity
  8
0
100
AcDbLine
 10
902.8642270205784
 20
1051.600000580016
 30
0.0
 11
897.8642270205783
 21
1051.600000580016
 31
0.0
  0
LINE
  5
9C55
330
18
100
AcDbEntity
  8
0
100
AcDbLine
 10
897.8642270205783
 20
1071.600000580016
 30
0.0
 11
897.8642270205783
 21
1051.600000580016
 31
0.0
  0
LINE
  5
9C56
330
18
100
AcDbEntity
  8
0
100
AcDbLine
 10
892.8642270205783
 20
1071.600000580016
 30
0.0
 11
892.8642270205783
 21
1051.600000580016
 31
0.0
  0
LINE
  5
9C57
330
18
100
AcDbEntity
  8
0
100
AcDbLine
 10
877.8642270205784
 20
1071.600000580016
 30
0.0
 11
877.8642270205784
 21
1051.600000580016
 31
0.0
  0
LINE
  5
9C58
330
18
100
AcDbEntity
  8
0
100
AcDbLine
 10
882.8642270205783
 20
1071.600000580016
 30
0.0
 11
882.8642270205783
 21
1051.600000580016
 31
0.0
  0
LINE
  5
9C59
330
18
100
AcDbEntity
  8
0
100
AcDbLine
 10
887.8642270205784
 20
1071.600000580016
 30
0.0
 11
887.8642270205784
 21
1051.600000580016
 31
0.0
  0
LINE
  5
9C5A
330
18
100
AcDbEntity
  8
0
100
AcDbLine
 10
882.8642270205783
 20
1051.600000580016
 30
0.0
 11
877.8642270205784
 21
1051.600000580016
 31
0.0
  0
LINE
  5
9C5B
330
18
100
AcDbEntity
  8
0
100
AcDbLine
 10
892.8642270205783
 20
1051.600000580016
 30
0.0
 11
887.8642270205784
 21
1051.600000580016
 31
0.0
  0
LINE
  5
9C5C
330
18
100
AcDbEntity
  8
0
100
AcDbLine
 10
886.3642270205783
 20
1084.600000580016
 30
0.0
 11
895.3642270205783
 21
1084.600000580016
 31
0.0
  0
LINE
  5
9C5D
330
18
100
AcDbEntity
  8
0
100
AcDbLine
 10
882.8642270205783
 20
1071.600000580016
 30
0.0
 11
877.8642270205784
 21
1071.600000580016
 31
0.0
  0
LINE
  5
9C5E
330
18
100
AcDbEntity
  8
0
100
AcDbLine
 10
884.0396535011215
 20
1078.600000580016
 30
0.0
 11
877.6888005400355
 21
1078.600000580016
 31
0.0
  0
LINE
  5
9C5F
330
18
100
AcDbEntity
  8
0
100
AcDbLine
 10
880.8642270205783
 20
1078.600000580016
 30
0.0
 11
880.8642270205783
 21
1077.600000580016
 31
0.0
  0
LINE
  5
9C60
330
18
100
AcDbEntity
  8
0
100
AcDbLine
 10
877.6888005400355
 20
1078.600000580016
 30
0.0
 11
877.6888005400355
 21
1077.600000580016
 31
0.0
  0
LINE
  5
9C61
330
18
100
AcDbEntity
  8
0
100
AcDbLine
 10
879.2765137803067
 20
1077.600000580016
 30
0.0
 11
879.2765137803071
 21
1078.600000580016
 31
0.0
  0
LINE
  5
9C62
330
18
100
AcDbEntity
  8
0
100
AcDbLine
 10
882.4519402608501
 20
1077.600000580016
 30
0.0
 11
882.4519402608499
 21
1078.600000580016
 31
0.0
  0
LINE
  5
9C63
330
18
100
AcDbEntity
  8
0
100
AcDbLine
 10
884.0396535011215
 20
1077.600000580016
 30
0.0
 11
884.0396535011215
 21
1078.600000580016
 31
0.0
  0
LINE
  5
9C64
330
18
100
AcDbEntity
  8
0
100
AcDbLine
 10
892.8642270205783
 20
1071.600000580016
 30
0.0
 11
887.8642270205784
 21
1071.600000580016
 31
0.0
  0
LINE
  5
9C65
330
18
100
AcDbEntity
  8
0
100
AcDbLine
 10
917.8642270205783
 20
1071.600000580016
 30
0.0
 11
917.8642270205783
 21
1051.600000580016
 31
0.0
  0
LINE
  5
9C66
330
18
100
AcDbEntity
  8
0
100
AcDbLine
 10
912.8642270205784
 20
1071.600000580016
 30
0.0
 11
912.8642270205784
 21
1051.600000580016
 31
0.0
  0
LINE
  5
9C67
330
18
100
AcDbEntity
  8
0
100
AcDbLine
 10
907.8642270205783
 20
1071.600000580016
 30
0.0
 11
907.8642270205783
 21
1051.600000580016
 31
0.0
  0
LINE
  5
9C68
330
18
100
AcDbEntity
  8
0
100
AcDbLine
 10
902.8642270205784
 20
1071.600000580016
 30
0.0
 11
902.8642270205784
 21
1051.600000580016
 31
0.0
  0
LINE
  5
9C69
330
18
100
AcDbEntity
  8
0
100
AcDbLine
 10
912.8642270205784
 20
1051.600000580016
 30
0.0
 11
907.8642270205783
 21
1051.600000580016
 31
0.0
  0
LINE
  5
9C6A
330
18
100
AcDbEntity
  8
0
100
AcDbLine
 10
912.8642270205784
 20
1071.600000580016
 30
0.0
 11
907.8642270205783
 21
1071.600000580016
 31
0.0
  0
LINE
  5
9C6B
330
18
100
AcDbEntity
  8
0
100
AcDbLine
 10
898.3642270205784
 20
1084.600000580016
 30
0.0
 11
907.3642270205784
 21
1084.600000580016
 31
0.0
  0
LINE
  5
9C6C
330
18
100
AcDbEntity
  8
0
100
AcDbLine
 10
942.8642270205783
 20
1071.600000580016
 30
0.0
 11
937.8642270205784
 21
1071.600000580016
 31
0.0
  0
LINE
  5
9C6D
330
18
100
AcDbEntity
  8
0
100
AcDbLine
 10
934.3642270205783
 20
1084.600000580016
 30
0.0
 11
943.3642270205783
 21
1084.600000580016
 31
0.0
  0
LINE
  5
9C6E
330
18
100
AcDbEntity
  8
0
100
AcDbLine
 10
942.8642270205783
 20
1051.600000580016
 30
0.0
 11
937.8642270205784
 21
1051.600000580016
 31
0.0
  0
LINE
  5
9C6F
330
18
100
AcDbEntity
  8
0
100
AcDbLine
 10
937.8642270205784
 20
1071.600000580016
 30
0.0
 11
937.8642270205784
 21
1051.600000580016
 31
0.0
  0
LINE
  5
9C70
330
18
100
AcDbEntity
  8
0
100
AcDbLine
 10
932.8642270205783
 20
1071.600000580016
 30
0.0
 11
932.8642270205783
 21
1051.600000580016
 31
0.0
  0
LINE
  5
9C71
330
18
100
AcDbEntity
  8
0
100
AcDbLine
 10
927.8642270205784
 20
1071.600000580016
 30
0.0
 11
927.8642270205784
 21
1051.600000580016
 31
0.0
  0
LINE
  5
9C72
330
18
100
AcDbEntity
  8
0
100
AcDbLine
 10
922.8642270205783
 20
1071.600000580016
 30
0.0
 11
922.8642270205783
 21
1051.600000580016
 31
0.0
  0
LINE
  5
9C73
330
18
100
AcDbEntity
  8
0
100
AcDbLine
 10
932.8642270205783
 20
1051.600000580016
 30
0.0
 11
927.8642270205784
 21
1051.600000580016
 31
0.0
  0
LINE
  5
9C74
330
18
100
AcDbEntity
  8
0
100
AcDbLine
 10
932.8642270205783
 20
1071.600000580016
 30
0.0
 11
927.8642270205784
 21
1071.600000580016
 31
0.0
  0
LINE
  5
9C75
330
18
100
AcDbEntity
  8
0
100
AcDbLine
 10
922.3642270205784
 20
1084.600000580016
 30
0.0
 11
931.3642270205784
 21
1084.600000580016
 31
0.0
  0
LINE
  5
9C76
330
18
100
AcDbEntity
  8
0
100
AcDbLine
 10
947.8642270205783
 20
1071.600000580016
 30
0.0
 11
947.8642270205783
 21
1051.600000580016
 31
0.0
  0
LINE
  5
9C77
330
18
100
AcDbEntity
  8
0
100
AcDbLine
 10
942.8642270205783
 20
1071.600000580016
 30
0.0
 11
942.8642270205783
 21
1051.600000580016
 31
0.0
  0
LINE
  5
9C78
330
18
100
AcDbEntity
  8
0
100
AcDbLine
 10
952.8642270205784
 20
1071.600000580016
 30
0.0
 11
952.8642270205784
 21
1051.600000580016
 31
0.0
  0
LINE
  5
9C79
330
18
100
AcDbEntity
  8
0
100
AcDbLine
 10
952.8642270205784
 20
1051.600000580016
 30
0.0
 11
947.8642270205783
 21
1051.600000580016
 31
0.0
  0
LINE
  5
9C7A
330
18
100
AcDbEntity
  8
0
100
AcDbLine
 10
952.8642270205784
 20
1071.600000580016
 30
0.0
 11
947.8642270205783
 21
1071.600000580016
 31
0.0
  0
LINE
  5
9C7B
330
18
100
AcDbEntity
  8
0
100
AcDbLine
 10
946.3642270205783
 20
1084.600000580016
 30
0.0
 11
955.3642270205783
 21
1084.600000580016
 31
0.0
  0
LINE
  5
9C7C
330
18
100
AcDbEntity
  8
0
100
AcDbLine
 10
958.0396535011216
 20
1078.600000580016
 30
0.0
 11
951.6888005400355
 21
1078.600000580016
 31
0.0
  0
LINE
  5
9C7D
330
18
100
AcDbEntity
  8
0
100
AcDbLine
 10
953.2765137803068
 20
1077.600000580016
 30
0.0
 11
953.2765137803069
 21
1078.600000580016
 31
0.0
  0
LINE
  5
9C7E
330
18
100
AcDbEntity
  8
0
100
AcDbLine
 10
951.6888005400355
 20
1078.600000580016
 30
0.0
 11
951.6888005400355
 21
1077.600000580016
 31
0.0
  0
LINE
  5
9C7F
330
18
100
AcDbEntity
  8
0
100
AcDbLine
 10
954.8642270205784
 20
1078.600000580016
 30
0.0
 11
954.8642270205784
 21
1077.600000580016
 31
0.0
  0
LINE
  5
9C80
330
18
100
AcDbEntity
  8
0
100
AcDbLine
 10
958.0396535011216
 20
1077.600000580016
 30
0.0
 11
958.0396535011216
 21
1078.600000580016
 31
0.0
  0
LINE
  5
9C81
330
18
100
AcDbEntity
  8
0
100
AcDbLine
 10
956.4519402608501
 20
1077.600000580016
 30
0.0
 11
956.45194026085
 21
1078.600000580016
 31
0.0
  0
LINE
  5
9C82
330
18
100
AcDbEntity
  8
0
100
AcDbLine
 10
910.3642270205783
 20
1134.600000580016
 30
0.0
 11
919.3642270205783
 21
1134.600000580016
 31
0.0
  0
LINE
  5
9C83
330
18
100
AcDbEntity
  8
0
100
AcDbLine
 10
886.3642270205783
 20
1134.600000580016
 30
0.0
 11
895.3642270205783
 21
1134.600000580016
 31
0.0
  0
LINE
  5
9C84
330
18
100
AcDbEntity
  8
0
100
AcDbLine
 10
898.3642270205784
 20
1134.600000580016
 30
0.0
 11
907.3642270205784
 21
1134.600000580016
 31
0.0
  0
LINE
  5
9C85
330
18
100
AcDbEntity
  8
0
100
AcDbLine
 10
934.3642270205783
 20
1134.600000580016
 30
0.0
 11
943.3642270205783
 21
1134.600000580016
 31
0.0
  0
LINE
  5
9C86
330
18
100
AcDbEntity
  8
0
100
AcDbLine
 10
922.3642270205784
 20
1134.600000580016
 30
0.0
 11
931.3642270205784
 21
1134.600000580016
 31
0.0
  0
LINE
  5
9C87
330
18
100
AcDbEntity
  8
0
100
AcDbLine
 10
946.3642270205783
 20
1134.600000580016
 30
0.0
 11
955.3642270205783
 21
1134.600000580016
 31
0.0
  0
LINE
  5
9C88
330
18
100
AcDbEntity
  8
0
100
AcDbLine
 10
962.8642270205784
 20
1077.600000580016
 30
0.0
 11
963.8642270205783
 21
1077.600000580016
 31
0.0
  0
LINE
  5
9C89
330
18
100
AcDbEntity
  8
0
100
AcDbLine
 10
966.8642270205786
 20
1131.600000580016
 30
0.0
 11
963.8642270205789
 21
1131.600000580015
 31
0.0
  0
LINE
  5
9E09
330
18
100
AcDbEntity
  8
0
100
AcDbLine
 10
800.659227270578
 20
724.7529262383023
 30
0.0
 11
800.6592272705779
 21
724.2529262383023
 31
0.0
  0
LINE
  5
9E0A
330
18
100
AcDbEntity
  8
0
100
AcDbLine
 10
809.0692272705778
 20
724.2529262383023
 30
0.0
 11
809.0692272705778
 21
724.8529262383022
 31
0.0
  0
LINE
  5
9E0B
330
18
100
AcDbEntity
  8
0
100
AcDbLine
 10
809.0692272705778
 20
723.6529262383021
 30
0.0
 11
800.6592272705779
 21
723.6529262383021
 31
0.0
  0
LINE
  5
9E0C
330
18
100
AcDbEntity
  8
0
100
AcDbLine
 10
800.6592272705779
 20
723.6529262383021
 30
0.0
 11
800.6592272705779
 21
723.9529262383022
 31
0.0
  0
LINE
  5
9E0D
330
18
100
AcDbEntity
  8
0
100
AcDbLine
 10
800.6592272705779
 20
724.1529262383022
 30
0.0
 11
800.6592272705779
 21
724.2529262383023
 31
0.0
  0
LINE
  5
9E0E
330
18
100
AcDbEntity
  8
0
100
AcDbLine
 10
800.6592272705779
 20
723.9529262383022
 30
0.0
 11
800.6592272705779
 21
724.1529262383022
 31
0.0
  0
LINE
  5
9E0F
330
18
100
AcDbEntity
  8
0
100
AcDbLine
 10
809.0692272705778
 20
724.2529262383023
 30
0.0
 11
809.0692272705778
 21
724.1529262383022
 31
0.0
  0
LINE
  5
9E10
330
18
100
AcDbEntity
  8
0
100
AcDbLine
 10
809.0692272705778
 20
723.6529262383021
 30
0.0
 11
809.0692272705778
 21
723.9529262383022
 31
0.0
  0
LINE
  5
9E11
330
18
100
AcDbEntity
  8
0
100
AcDbLine
 10
809.0692272705778
 20
723.9529262383022
 30
0.0
 11
809.0692272705778
 21
724.1529262383022
 31
0.0
  0
LINE
  5
9E12
330
18
100
AcDbEntity
  8
0
100
AcDbLine
 10
800.659227270578
 20
725.6529262383021
 30
0.0
 11
809.0692272705778
 21
725.6529262383021
 31
0.0
  0
LINE
  5
9E13
330
18
100
AcDbEntity
  8
0
100
AcDbLine
 10
809.0692272705778
 20
724.8529262383022
 30
0.0
 11
800.659227270578
 21
724.8529262383022
 31
0.0
  0
CIRCLE
  5
9E14
330
18
100
AcDbEntity
  8
0
100
AcDbCircle
 10
802.959227270578
 20
729.5529262383021
 30
0.0
 40
1.45000000000002
  0
ARC
  5
9E15
330
18
100
AcDbEntity
  8
0
100
AcDbCircle
 10
802.959227270578
 20
729.5529262383021
 30
0.0
 40
1.400000000000015
100
AcDbArc
 50
145.2865606114768
 51
304.7134393885269
  0
ARC
  5
9E16
330
18
100
AcDbEntity
  8
0
100
AcDbCircle
 10
802.959227270578
 20
729.5529262383021
 30
0.0
 40
1.400000000000007
100
AcDbArc
 50
124.7134393885268
 51
145.2865606114768
  0
ARC
  5
9E17
330
18
100
AcDbEntity
  8
0
100
AcDbCircle
 10
802.959227270578
 20
729.5529262383021
 30
0.0
 40
1.400000000000012
100
AcDbArc
 50
304.7134393885269
 51
325.2865606114693
  0
ARC
  5
9E18
330
18
100
AcDbEntity
  8
0
100
AcDbCircle
 10
802.959227270578
 20
729.5529262383021
 30
0.0
 40
1.400000000000005
100
AcDbArc
 50
90.0
 51
124.7134393885268
  0
ARC
  5
9E19
330
18
100
AcDbEntity
  8
0
100
AcDbCircle
 10
802.959227270578
 20
729.5529262383021
 30
0.0
 40
1.400000000000017
100
AcDbArc
 50
325.2865606114693
 51
90.0
  0
LINE
  5
9E1A
330
18
100
AcDbEntity
  8
0
100
AcDbLine
 10
801.8084125883422
 20
730.3501875299444
 30
0.0
 11
803.7564885622204
 21
728.4021115560665
 31
0.0
  0
LINE
  5
9E1B
330
18
100
AcDbEntity
  8
0
100
AcDbLine
 10
804.1100419528135
 20
728.7556649466599
 30
0.0
 11
802.1619659789356
 21
730.7037409205377
 31
0.0
  0
LINE
  5
9E1C
330
18
100
AcDbEntity
  8
0
100
AcDbLine
 10
800.659227270578
 20
724.9637220508803
 30
0.0
 11
800.659227270578
 21
724.8529262383022
 31
0.0
  0
LINE
  5
9E1D
330
18
100
AcDbEntity
  8
0
100
AcDbLine
 10
800.659227270578
 20
724.8529262383022
 30
0.0
 11
800.659227270578
 21
724.7529262383023
 31
0.0
  0
LINE
  5
9E1E
330
18
100
AcDbEntity
  8
0
100
AcDbLine
 10
800.659227270578
 20
725.0758378679145
 30
0.0
 11
800.659227270578
 21
724.9637220508803
 31
0.0
  0
LINE
  5
9E1F
330
18
100
AcDbEntity
  8
0
100
AcDbLine
 10
800.659227270578
 20
725.8513582648114
 30
0.0
 11
800.659227270578
 21
725.6529262383021
 31
0.0
  0
LINE
  5
9E20
330
18
100
AcDbEntity
  8
0
100
AcDbLine
 10
800.659227270578
 20
725.6529262383021
 30
0.0
 11
800.659227270578
 21
725.0758378679145
 31
0.0
  0
LINE
  5
9E21
330
18
100
AcDbEntity
  8
0
100
AcDbLine
 10
800.659227270578
 20
726.0270214419597
 30
0.0
 11
800.659227270578
 21
725.952926238302
 31
0.0
  0
LINE
  5
9E22
330
18
100
AcDbEntity
  8
0
100
AcDbLine
 10
800.659227270578
 20
725.952926238302
 30
0.0
 11
800.659227270578
 21
725.8711331695406
 31
0.0
  0
LINE
  5
9E23
330
18
100
AcDbEntity
  8
0
100
AcDbLine
 10
800.659227270578
 20
726.0396730917737
 30
0.0
 11
800.659227270578
 21
726.0270214419597
 31
0.0
  0
LINE
  5
9E24
330
18
100
AcDbEntity
  8
0
100
AcDbLine
 10
800.659227270578
 20
726.1086926604197
 30
0.0
 11
800.659227270578
 21
726.0797203951041
 31
0.0
  0
LINE
  5
9E25
330
18
100
AcDbEntity
  8
0
100
AcDbLine
 10
800.659227270578
 20
726.0797203951041
 30
0.0
 11
800.659227270578
 21
726.0396730917737
 31
0.0
  0
LINE
  5
9E26
330
18
100
AcDbEntity
  8
0
100
AcDbLine
 10
800.659227270578
 20
725.8711331695406
 30
0.0
 11
800.659227270578
 21
725.8513582648114
 31
0.0
  0
LINE
  5
9E27
330
18
100
AcDbEntity
  8
0
100
AcDbLine
 10
800.659227270578
 20
726.5074723903741
 30
0.0
 11
800.659227270578
 21
726.4183950995866
 31
0.0
  0
LINE
  5
9E28
330
18
100
AcDbEntity
  8
0
100
AcDbLine
 10
800.659227270578
 20
726.5364446556897
 30
0.0
 11
800.659227270578
 21
726.5074723903741
 31
0.0
  0
LINE
  5
9E29
330
18
100
AcDbEntity
  8
0
100
AcDbLine
 10
800.659227270578
 20
727.2531114078612
 30
0.0
 11
800.659227270578
 21
726.7648067859824
 31
0.0
  0
LINE
  5
9E2A
330
18
100
AcDbEntity
  8
0
100
AcDbLine
 10
800.659227270578
 20
731.1529262382001
 30
0.0
 11
800.659227270578
 21
727.7529262383023
 31
0.0
  0
LINE
  5
9E2B
330
18
100
AcDbEntity
  8
0
100
AcDbLine
 10
800.659227270578
 20
727.7529262383023
 30
0.0
 11
800.659227270578
 21
727.5421304257243
 31
0.0
  0
LINE
  5
9E2C
330
18
100
AcDbEntity
  8
0
100
AcDbLine
 10
800.659227270578
 20
727.5421304257243
 30
0.0
 11
800.659227270578
 21
727.4112082672947
 31
0.0
  0
LINE
  5
9E2D
330
18
100
AcDbEntity
  8
0
100
AcDbLine
 10
800.659227270578
 20
727.4112082672947
 30
0.0
 11
800.659227270578
 21
727.2531114078612
 31
0.0
  0
LINE
  5
9E2E
330
18
100
AcDbEntity
  8
0
100
AcDbLine
 10
800.659227270578
 20
726.7648067859824
 30
0.0
 11
800.659227270578
 21
726.57649195902
 31
0.0
  0
LINE
  5
9E2F
330
18
100
AcDbEntity
  8
0
100
AcDbLine
 10
800.659227270578
 20
726.57649195902
 30
0.0
 11
800.659227270578
 21
726.5364446556897
 31
0.0
  0
LINE
  5
9E30
330
18
100
AcDbEntity
  8
0
100
AcDbLine
 10
800.659227270578
 20
726.4183950995866
 30
0.0
 11
800.659227270578
 21
726.1977699512072
 31
0.0
  0
LINE
  5
9E31
330
18
100
AcDbEntity
  8
0
100
AcDbLine
 10
800.659227270578
 20
726.1977699512072
 30
0.0
 11
800.659227270578
 21
726.1086926604197
 31
0.0
  0
ARC
  5
9E32
330
18
100
AcDbEntity
  8
0
100
AcDbCircle
 10
806.769227270578
 20
729.5529262383021
 30
0.0
 40
1.400000000000023
100
AcDbArc
 50
145.2865606114768
 51
270.0
  0
ARC
  5
9E33
330
18
100
AcDbEntity
  8
0
100
AcDbCircle
 10
806.769227270578
 20
729.5529262383021
 30
0.0
 40
1.45000000000002
100
AcDbArc
 50
90.0
 51
270.0
  0
ARC
  5
9E34
330
18
100
AcDbEntity
  8
0
100
AcDbCircle
 10
806.769227270578
 20
729.5529262383021
 30
0.0
 40
1.400000000000018
100
AcDbArc
 50
124.7134393885268
 51
145.2865606114768
  0
ARC
  5
9E35
330
18
100
AcDbEntity
  8
0
100
AcDbCircle
 10
806.769227270578
 20
729.5529262383021
 30
0.0
 40
1.400000000000019
100
AcDbArc
 50
325.2865606114693
 51
124.7134393885268
  0
ARC
  5
9E36
330
18
100
AcDbEntity
  8
0
100
AcDbCircle
 10
806.769227270578
 20
729.5529262383021
 30
0.0
 40
1.400000000000024
100
AcDbArc
 50
304.7134393885269
 51
325.2865606114693
  0
ARC
  5
9E37
330
18
100
AcDbEntity
  8
0
100
AcDbCircle
 10
806.769227270578
 20
729.5529262383021
 30
0.0
 40
1.400000000000012
100
AcDbArc
 50
270.0
 51
304.7134393885269
  0
ARC
  5
9E38
330
18
100
AcDbEntity
  8
0
100
AcDbCircle
 10
806.769227270578
 20
729.5529262383021
 30
0.0
 40
1.45000000000002
100
AcDbArc
 50
270.0
 51
90.0
  0
LINE
  5
9E39
330
18
100
AcDbEntity
  8
0
100
AcDbLine
 10
805.6184125883424
 20
730.3501875299444
 30
0.0
 11
807.5664885622202
 21
728.4021115560665
 31
0.0
  0
LINE
  5
9E3A
330
18
100
AcDbEntity
  8
0
100
AcDbLine
 10
805.9719659789356
 20
730.7037409205377
 30
0.0
 11
807.9200419528136
 21
728.7556649466599
 31
0.0
  0
LINE
  5
9E3B
330
18
100
AcDbEntity
  8
0
100
AcDbLine
 10
809.0692272705778
 20
725.8711331695406
 30
0.0
 11
809.0692272705778
 21
725.952926238302
 31
0.0
  0
LINE
  5
9E3C
330
18
100
AcDbEntity
  8
0
100
AcDbLine
 10
809.0692272705778
 20
724.8529262383022
 30
0.0
 11
809.0692272705778
 21
725.6529262383021
 31
0.0
  0
LINE
  5
9E3D
330
18
100
AcDbEntity
  8
0
100
AcDbLine
 10
809.0692272705778
 20
725.6529262383021
 30
0.0
 11
809.0692272705778
 21
725.8711331695406
 31
0.0
  0
LINE
  5
9E3E
330
18
100
AcDbEntity
  8
0
100
AcDbLine
 10
809.0692272705778
 20
725.952926238302
 30
0.0
 11
809.0692272705778
 21
731.1529262382001
 31
0.0
  0
TEXT
  5
9E93
330
18
100
AcDbEntity
  8
0
100
AcDbText
 10
965.700634899867
 20
647.2799612389877
 30
0.0
 40
6.0
  1
VC外形図　DeviceNet付
  7
MSｺﾞｼｯｸ
100
AcDbText
  0
TEXT
  5
9E94
330
18
100
AcDbEntity
  8
0
100
AcDbText
 10
919.5163317581448
 20
658.6069424223207
 30
0.0
 40
6.0
  1
ＮＣＲ－ＸＡＢ６Ｄ１Ｂ－１５２／２２２
 41
0.6
  7
MSｺﾞｼｯｸ
100
AcDbText
  0
TEXT
  5
9E95
330
18
100
AcDbEntity
  8
0
370
    15
100
AcDbText
 10
909.2151508890069
 20
676.2902232723326
 30
0.0
 40
6.0
  1
ＮＣＲ－＊ＡＥ＊Ａ２Ｄ－１５２／２２２（－Ｈ、－Ｓ＊＊）
 41
0.6
  7
MSｺﾞｼｯｸ
100
AcDbText
  0
TEXT
  5
9E96
330
18
100
AcDbEntity
  8
0
370
    15
100
AcDbText
 10
909.2151508890069
 20
684.2124183139405
 30
0.0
 40
6.0
  1
ＮＣＲ－＊ＡＤ＊Ａ２Ｄ－１５２／２２２＊（－Ｈ、－Ｓ＊＊）
 41
0.6
  7
MSｺﾞｼｯｸ
100
AcDbText
  0
TEXT
  5
9E97
330
18
100
AcDbEntity
  8
0
370
    15
100
AcDbText
 10
909.2151508890069
 20
695.3286369393209
 30
0.0
 40
6.0
  1
ＮＣＲ－＊ＡＣ＊Ａ２Ｄ－１５２／２２２（－Ｈ、－Ｓ＊＊）
 41
0.6
  7
MSｺﾞｼｯｸ
100
AcDbText
  0
TEXT
  5
9E98
330
18
100
AcDbEntity
  8
0
370
    15
100
AcDbText
 10
909.2151508890069
 20
703.250831263343
 30
0.0
 40
6.0
  1
ＮＣＲ－＊ＡＢ＊Ａ２Ｄ－１５２／２２２＊（－Ｈ、－Ｓ＊＊）
 41
0.6
  7
MSｺﾞｼｯｸ
100
AcDbText
  0
TEXT
  5
9E99
330
18
100
AcDbEntity
  8
0
100
AcDbText
 10
975.8510858980413
 20
636.280790113583
 30
0.0
 40
7.0
  1
ＳＥ－３５６７１Ｂ
 41
0.9529999999999999
  7
MSｺﾞｼｯｸ
100
AcDbText
  0
ARC
  5
9E9A
330
18
100
AcDbEntity
  8
0
100
AcDbCircle
 10
916.444576202994
 20
682.3888372283049
 30
0.0
 40
13.83302177441517
100
AcDbArc
 50
140.9184803419401
 51
227.0679934844075
  0
TEXT
  5
9E9B
330
18
100
AcDbEntity
  8
0
100
AcDbText
 10
891.4504584354405
 20
680.9149456033843
 30
0.0
 40
6.0
  1
Ａ
  7
MSｺﾞｼｯｸ
100
AcDbText
  0
TEXT
  5
9E9C
330
18
100
AcDbEntity
  8
0
370
    15
100
AcDbText
 10
942.6934029430068
 20
667.5957310943352
 30
0.0
 40
6.0
  1
＋
 41
0.6
  7
MSｺﾞｼｯｸ
100
AcDbText
  0
VIEWPORT
  5
9EFC
330
9EF8
100
AcDbEntity
 67
     1
  8
0
100
AcDbViewport
 10
202.4999999999999
 20
128.4999999999999
 30
0.0
 40
486.0
 41
308.3999999999999
 68
     1
 69
     1
 12
202.4999999999999
 22
128.4999999999999
 13
0.0
 23
0.0
 14
0.5
 24
0.5
 15
0.0
 25
0.0
 16
0.0
 26
0.0
 36
1.0
 17
0.0
 27
0.0
 37
0.0
 42
50.0
 43
0.0
 44
0.0
 45
308.3999999999999
 50
0.0
 51
0.0
 72
   100
 90
    32864
  1

281
     0
 71
     1
 74
     0
110
0.0
120
0.0
130
0.0
111
1.0
121
0.0
131
0.0
112
0.0
122
1.0
132
0.0
 79
     0
146
0.0
  0
VIEWPORT
  5
9EFD
330
9EF8
100
AcDbEntity
 67
     1
  8
0
100
AcDbViewport
 10
202.4999999999999
 20
128.4999999999999
 30
0.0
 40
324.0
 41
205.6
 68
     2
 69
     2
 12
210.0
 22
148.5
 13
0.0
 23
0.0
 14
0.5
 24
0.5
 15
0.0
 25
0.0
 16
0.0
 26
0.0
 36
1.0
 17
0.0
 27
0.0
 37
0.0
 42
50.0
 43
0.0
 44
0.0
 45
302.9399999999999
 50
0.0
 51
0.0
 72
   100
341
E
 90
    32864
  1

281
     0
 71
     1
 74
     0
110
0.0
120
0.0
130
0.0
111
1.0
121
0.0
131
0.0
112
0.0
122
1.0
132
0.0
 79
     0
146
0.0
  0
ENDSEC
  0
SECTION
  2
OBJECTS
  0
DICTIONARY
  5
C
330
0
100
AcDbDictionary
281
     1
  3
ACAD_GROUP
350
D
  3
ACAD_IMAGE_VARS
350
9EF6
  3
ACAD_LAYOUT
350
73F
  3
ACAD_MLINESTYLE
350
1B
  3
ACAD_PLOTSETTINGS
350
740
  3
ACAD_PLOTSTYLENAME
350
73D
  3
ACAD_SCALELIST
350
9ECA
  3
AcadDim
350
6DBD
  3
APPDATA
350
9EF4
  3
DWGPROPS
350
9F00
  0
DICTIONARY
  5
9DBE
330
2
100
AcDbDictionary
280
     1
281
     1
  3
ACAD_LAYERFILTERS
360
9DBF
  3
ACAD_LAYERSTATES
360
9DCD
  0
DICTIONARY
  5
D
102
{ACAD_REACTORS
330
C
102
}
330
C
100
AcDbDictionary
281
     1
  0
RASTERVARIABLES
  5
9EF6
102
{ACAD_REACTORS
330
C
102
}
330
C
100
AcDbRasterVariables
 90
        0
 70
     1
 71
     1
 72
     0
  0
DICTIONARY
  5
73F
102
{ACAD_REACTORS
330
C
102
}
330
C
100
AcDbDictionary
281
     1
  3
Model
350
741
  3
Sheet1
350
9EF9
  0
DICTIONARY
  5
1B
102
{ACAD_REACTORS
330
C
102
}
330
C
100
AcDbDictionary
281
     1
  3
STANDARD
350
1C
  0
DICTIONARY
  5
740
102
{ACAD_REACTORS
330
C
102
}
330
C
100
AcDbDictionary
281
     1
  0
ACDBDICTIONARYWDFLT
  5
73D
102
{ACAD_REACTORS
330
C
102
}
330
C
100
AcDbDictionary
281
     1
  3
Normal
350
73E
100
AcDbDictionaryWithDefault
340
73E
  0
DICTIONARY
  5
9ECA
102
{ACAD_REACTORS
330
C
102
}
330
C
100
AcDbDictionary
281
     1
  3
A0
350
9ECB
  3
A1
350
9ECC
  3
A2
350
9ECD
  3
A3
350
9ECE
  3
A4
350
9ECF
  3
A5
350
9ED0
  3
A6
350
9ED1
  3
A7
350
9ED2
  3
A8
350
9ED3
  3
A9
350
9ED4
  3
B0
350
9ED5
  3
B1
350
9ED6
  3
B2
350
9ED7
  3
B3
350
9ED8
  3
B4
350
9ED9
  3
B5
350
9EDA
  3
B6
350
9EDB
  3
B7
350
9EDC
  3
B8
350
9EDD
  3
B9
350
9EDE
  3
C0
350
9EDF
  3
C1
350
9EE0
  3
C2
350
9EE1
  3
C3
350
9EE2
  3
C4
350
9EE3
  3
C5
350
9EE4
  3
C6
350
9EE5
  3
C7
350
9EE6
  3
C8
350
9EE7
  3
C9
350
9EE8
  3
D0
350
9EE9
  3
D1
350
9EEA
  3
D2
350
9EEB
  0
XRECORD
  5
6DBD
102
{ACAD_REACTORS
330
C
102
}
330
C
100
AcDbXrecord
280
     1
 90
   990106
  3

 60
     0
 61
     0
 62
     1
 63
     3
 64
     0
 65
     0
 66
     0
 67
     3
 68
     1
 69
     0
 70
     0
 71
     0
 72
     0
 40
0.0
170
     0
  0
DICTIONARY
  5
9EF4
102
{ACAD_REACTORS
330
C
102
}
330
C
100
AcDbDictionary
281
     1
  0
XRECORD
  5
9F00
102
{ACAD_REACTORS
330
C
102
}
330
C
100
AcDbXrecord
280
     1
  1
DWGPROPS COOKIE
  2

  3

  4

  6

  7

  8
k-yoshida
  9

300
=
301
=
302
=
303
=
304
=
305
=
306
=
307
=
308
=
309
=
 40
0.0
 41
2451224.285162384
 42
2457316.34283412
  1

 90
        0
  0
DICTIONARY
  5
9DBF
102
{ACAD_REACTORS
330
9DBE
102
}
330
9DBE
100
AcDbDictionary
280
     1
281
     1
  3
0
360
9DC0
  3
11
360
9DC1
  3
150_
360
9DC2
  3
160_
360
9DC3
  3
170_
360
9DC4
  3
171_
360
9DC5
  3
350_
360
9DC6
  3
4
360
9DC7
  3
5
360
9DC8
  3
7
360
9DC9
  3
kiseki
360
9DCA
  0
DICTIONARY
  5
9DCD
102
{ACAD_REACTORS
330
9DBE
102
}
330
9DBE
100
AcDbDictionary
281
     1
  0
LAYOUT
  5
741
102
{ACAD_REACTORS
330
73F
102
}
330
73F
100
AcDbPlotSettings
  1

  2
Microsoft Office Document Image Writer
  4
A4
  6

 40
3.174999952316284
 41
3.174999952316284
 42
3.175003051757812
 43
3.17498779296875
 44
209.9733276367187
 45
297.0106506347656
 46
0.0
 47
0.0
 48
0.0
 49
0.0
140
0.0
141
0.0
142
1.0
143
1.0
 70
 11952
 72
     1
 73
     1
 74
     0
  7

 75
     0
147
1.0
148
-173.2073074372829
149
-323.6297444359588
100
AcDbLayout
  1
Model
 70
     1
 71
     0
 10
0.0
 20
0.0
 11
12.0
 21
9.0
 12
0.0
 22
0.0
 32
0.0
 14
501.7933819188634
 24
636.280790113583
 34
0.0
 15
1052.474191898041
 25
1141.600000580016
 35
0.0
146
0.0
 13
0.0
 23
0.0
 33
0.0
 16
1.0
 26
0.0
 36
0.0
 17
0.0
 27
1.0
 37
0.0
 76
     0
330
18
  0
LAYOUT
  5
9EF9
102
{ACAD_REACTORS
330
73F
102
}
330
73F
100
AcDbPlotSettings
  1

  2
none_device
  4
ISO_A3_(420.00_x_297.00_MM)
  6

 40
7.5
 41
20.0
 42
7.5
 43
20.0
 44
420.0
 45
297.0
 46
0.0
 47
0.0
 48
0.0
 49
0.0
140
0.0
141
0.0
142
1.0
143
1.0
 70
   688
 72
     1
 73
     0
 74
     5
  7

 75
    16
147
1.0
148
0.0
149
0.0
100
AcDbLayout
  1
Sheet1
 70
     1
 71
     1
 10
0.0
 20
0.0
 11
0.0
 21
0.0
 12
0.0
 22
0.0
 32
0.0
 14
40.49999999999999
 24
25.69999999999998
 34
0.0
 15
364.5
 25
231.3
 35
0.0
146
0.0
 13
0.0
 23
0.0
 33
0.0
 16
1.0
 26
0.0
 36
0.0
 17
0.0
 27
1.0
 37
0.0
 76
     0
330
9EF8
331
9EFC
  0
MLINESTYLE
  5
1C
102
{ACAD_REACTORS
330
1B
102
}
330
1B
100
AcDbMlineStyle
  2
STANDARD
 70
     0
  3

 62
   256
 51
90.0
 52
90.0
 71
     2
 49
0.5
 62
   256
  6
BYLAYER
 49
-0.5
 62
   256
  6
BYLAYER
  0
ACDBPLACEHOLDER
  5
73E
102
{ACAD_REACTORS
330
73D
102
}
330
73D
  0
ACAD_PROXY_OBJECT
  5
9ECB
102
{ACAD_REACTORS
330
9ECA
102
}
330
9ECA
100
AcDbProxyObject
 90
      499
 91
      506
 95
   655383
 70
     0
 93
       41
310
903313A31581
 94
        0
  0
ACAD_PROXY_OBJECT
  5
9ECC
102
{ACAD_REACTORS
330
9ECA
102
}
330
9ECA
100
AcDbProxyObject
 90
      499
 91
      506
 95
   655383
 70
     0
 93
      105
310
903313A324000000000000004042
 94
        0
  0
ACAD_PROXY_OBJECT
  5
9ECD
102
{ACAD_REACTORS
330
9ECA
102
}
330
9ECA
100
AcDbProxyObject
 90
      499
 91
      506
 95
   655383
 70
     0
 93
      105
310
903313A344000000000000104042
 94
        0
  0
ACAD_PROXY_OBJECT
  5
9ECE
102
{ACAD_REACTORS
330
9ECA
102
}
330
9ECA
100
AcDbProxyObject
 90
      499
 91
      506
 95
   655383
 70
     0
 93
      105
310
903313A354000000000000144042
 94
        0
  0
ACAD_PROXY_OBJECT
  5
9ECF
102
{ACAD_REACTORS
330
9ECA
102
}
330
9ECA
100
AcDbProxyObject
 90
      499
 91
      506
 95
   655383
 70
     0
 93
      105
310
903313A384000000000000204042
 94
        0
  0
ACAD_PROXY_OBJECT
  5
9ED0
102
{ACAD_REACTORS
330
9ECA
102
}
330
9ECA
100
AcDbProxyObject
 90
      499
 91
      506
 95
   655383
 70
     0
 93
      113
310
904313A31304000000000000244000
 94
        0
  0
ACAD_PROXY_OBJECT
  5
9ED1
102
{ACAD_REACTORS
330
9ECA
102
}
330
9ECA
100
AcDbProxyObject
 90
      499
 91
      506
 95
   655383
 70
     0
 93
      113
310
904313A31364000000000000304000
 94
        0
  0
ACAD_PROXY_OBJECT
  5
9ED2
102
{ACAD_REACTORS
330
9ECA
102
}
330
9ECA
100
AcDbProxyObject
 90
      499
 91
      506
 95
   655383
 70
     0
 93
      113
310
904313A32304000000000000344000
 94
        0
  0
ACAD_PROXY_OBJECT
  5
9ED3
102
{ACAD_REACTORS
330
9ECA
102
}
330
9ECA
100
AcDbProxyObject
 90
      499
 91
      506
 95
   655383
 70
     0
 93
      113
310
904313A333040000000000003E4000
 94
        0
  0
ACAD_PROXY_OBJECT
  5
9ED4
102
{ACAD_REACTORS
330
9ECA
102
}
330
9ECA
100
AcDbProxyObject
 90
      499
 91
      506
 95
   655383
 70
     0
 93
      113
310
904313A34304000000000000444000
 94
        0
  0
ACAD_PROXY_OBJECT
  5
9ED5
102
{ACAD_REACTORS
330
9ECA
102
}
330
9ECA
100
AcDbProxyObject
 90
      499
 91
      506
 95
   655383
 70
     0
 93
      113
310
904313A35304000000000000494000
 94
        0
  0
ACAD_PROXY_OBJECT
  5
9ED6
102
{ACAD_REACTORS
330
9ECA
102
}
330
9ECA
100
AcDbProxyObject
 90
      499
 91
      506
 95
   655383
 70
     0
 93
      121
310
905313A3130304000000000000594000
 94
        0
  0
ACAD_PROXY_OBJECT
  5
9ED7
102
{ACAD_REACTORS
330
9ECA
102
}
330
9ECA
100
AcDbProxyObject
 90
      499
 91
      506
 95
   655383
 70
     0
 93
      105
310
903323A310000000000000010159
 94
        0
  0
ACAD_PROXY_OBJECT
  5
9ED8
102
{ACAD_REACTORS
330
9ECA
102
}
330
9ECA
100
AcDbProxyObject
 90
      499
 91
      506
 95
   655383
 70
     0
 93
      105
310
903343A310000000000000410159
 94
        0
  0
ACAD_PROXY_OBJECT
  5
9ED9
102
{ACAD_REACTORS
330
9ECA
102
}
330
9ECA
100
AcDbProxyObject
 90
      499
 91
      506
 95
   655383
 70
     0
 93
      105
310
903383A310000000000000810159
 94
        0
  0
ACAD_PROXY_OBJECT
  5
9EDA
102
{ACAD_REACTORS
330
9ECA
102
}
330
9ECA
100
AcDbProxyObject
 90
      499
 91
      506
 95
   655383
 70
     0
 93
      113
310
90431303A310000000000000910140
 94
        0
  0
ACAD_PROXY_OBJECT
  5
9EDB
102
{ACAD_REACTORS
330
9ECA
102
}
330
9ECA
100
AcDbProxyObject
 90
      499
 91
      506
 95
   655383
 70
     0
 93
      121
310
9053130303A310000000000001650100
 94
        0
  0
ACAD_PROXY_OBJECT
  5
9EDC
102
{ACAD_REACTORS
330
9ECA
102
}
330
9ECA
100
AcDbProxyObject
 90
      499
 91
      506
 95
   655383
 70
     0
 93
      257
310
90E312F31323822203D2031272D3022000000000000200FC000000000000284000
 94
        0
  0
ACAD_PROXY_OBJECT
  5
9EDD
102
{ACAD_REACTORS
330
9ECA
102
}
330
9ECA
100
AcDbProxyObject
 90
      499
 91
      506
 95
   655383
 70
     0
 93
      249
310
90D312F363422203D2031272D3022000000000000240FC000000000000284040
 94
        0
  0
ACAD_PROXY_OBJECT
  5
9EDE
102
{ACAD_REACTORS
330
9ECA
102
}
330
9ECA
100
AcDbProxyObject
 90
      499
 91
      506
 95
   655383
 70
     0
 93
      249
310
90D312F333222203D2031272D3022000000000000280FC000000000000284040
 94
        0
  0
ACAD_PROXY_OBJECT
  5
9EDF
102
{ACAD_REACTORS
330
9ECA
102
}
330
9ECA
100
AcDbProxyObject
 90
      499
 91
      506
 95
   655383
 70
     0
 93
      249
310
90D312F313622203D2031272D30220000000000002C0FC000000000000284040
 94
        0
  0
ACAD_PROXY_OBJECT
  5
9EE0
102
{ACAD_REACTORS
330
9ECA
102
}
330
9ECA
100
AcDbProxyObject
 90
      499
 91
      506
 95
   655383
 70
     0
 93
      249
310
90D332F333222203D2031272D30220000000000002E0FC000000000000284040
 94
        0
  0
ACAD_PROXY_OBJECT
  5
9EE1
102
{ACAD_REACTORS
330
9ECA
102
}
330
9ECA
100
AcDbProxyObject
 90
      499
 91
      506
 95
   655383
 70
     0
 93
      241
310
90C312F3822203D2031272D3022000000000000300FC000000000000284040
 94
        0
  0
ACAD_PROXY_OBJECT
  5
9EE2
102
{ACAD_REACTORS
330
9ECA
102
}
330
9ECA
100
AcDbProxyObject
 90
      499
 91
      506
 95
   655383
 70
     0
 93
      249
310
90D332F313622203D2031272D3022000000000000320FC000000000000284040
 94
        0
  0
ACAD_PROXY_OBJECT
  5
9EE3
102
{ACAD_REACTORS
330
9ECA
102
}
330
9ECA
100
AcDbProxyObject
 90
      499
 91
      506
 95
   655383
 70
     0
 93
      241
310
90C312F3422203D2031272D3022000000000000340FC000000000000284040
 94
        0
  0
ACAD_PROXY_OBJECT
  5
9EE4
102
{ACAD_REACTORS
330
9ECA
102
}
330
9ECA
100
AcDbProxyObject
 90
      499
 91
      506
 95
   655383
 70
     0
 93
      241
310
90C332F3822203D2031272D3022000000000000360FC000000000000284040
 94
        0
  0
ACAD_PROXY_OBJECT
  5
9EE5
102
{ACAD_REACTORS
330
9ECA
102
}
330
9ECA
100
AcDbProxyObject
 90
      499
 91
      506
 95
   655383
 70
     0
 93
      241
310
90C312F3222203D2031272D3022000000000000380FC000000000000284040
 94
        0
  0
ACAD_PROXY_OBJECT
  5
9EE6
102
{ACAD_REACTORS
330
9ECA
102
}
330
9ECA
100
AcDbProxyObject
 90
      499
 91
      506
 95
   655383
 70
     0
 93
      241
310
90C332F3422203D2031272D30220000000000003A0FC000000000000284040
 94
        0
  0
ACAD_PROXY_OBJECT
  5
9EE7
102
{ACAD_REACTORS
330
9ECA
102
}
330
9ECA
100
AcDbProxyObject
 90
      499
 91
      506
 95
   655383
 70
     0
 93
      161
310
90A3122203D2031272D30224000000000000284020
 94
        0
  0
ACAD_PROXY_OBJECT
  5
9EE8
102
{ACAD_REACTORS
330
9ECA
102
}
330
9ECA
100
AcDbProxyObject
 90
      499
 91
      506
 95
   655383
 70
     0
 93
      257
310
90E312D312F3222203D2031272D30220000000000003E0FC000000000000284000
 94
        0
  0
ACAD_PROXY_OBJECT
  5
9EE9
102
{ACAD_REACTORS
330
9ECA
102
}
330
9ECA
100
AcDbProxyObject
 90
      499
 91
      506
 95
   655383
 70
     0
 93
      225
310
90A3322203D2031272D302200000000000002100000000000000284000
 94
        0
  0
ACAD_PROXY_OBJECT
  5
9EEA
102
{ACAD_REACTORS
330
9ECA
102
}
330
9ECA
100
AcDbProxyObject
 90
      499
 91
      506
 95
   655383
 70
     0
 93
      225
310
90A3622203D2031272D302200000000000006100000000000000284000
 94
        0
  0
ACAD_PROXY_OBJECT
  5
9EEB
102
{ACAD_REACTORS
330
9ECA
102
}
330
9ECA
100
AcDbProxyObject
 90
      499
 91
      506
 95
   655383
 70
     0
 93
      249
310
90D31272D3022203D2031272D30220000000000000A100000000000000284040
 94
        0
  0
XRECORD
  5
9DC0
102
{ACAD_REACTORS
330
9DBF
102
}
330
9DBF
100
AcDbXrecord
280
     1
  1
0
  1
*0
  1
*
  1
*
 70
     0
  1
*
  1
*
  0
XRECORD
  5
9DC1
102
{ACAD_REACTORS
330
9DBF
102
}
330
9DBF
100
AcDbXrecord
280
     1
  1
11
  1
*11
  1
*
  1
*
 70
     0
  1
*
  1
*
  0
XRECORD
  5
9DC2
102
{ACAD_REACTORS
330
9DBF
102
}
330
9DBF
100
AcDbXrecord
280
     1
  1
150_
  1
150_*
  1
*
  1
*
 70
     0
  1
*
  1
*
  0
XRECORD
  5
9DC3
102
{ACAD_REACTORS
330
9DBF
102
}
330
9DBF
100
AcDbXrecord
280
     1
  1
160_
  1
160_*
  1
*
  1
*
 70
     0
  1
*
  1
*
  0
XRECORD
  5
9DC4
102
{ACAD_REACTORS
330
9DBF
102
}
330
9DBF
100
AcDbXrecord
280
     1
  1
170_
  1
170_*
  1
*
  1
*
 70
     0
  1
*
  1
*
  0
XRECORD
  5
9DC5
102
{ACAD_REACTORS
330
9DBF
102
}
330
9DBF
100
AcDbXrecord
280
     1
  1
171_
  1
171_*
  1
*
  1
*
 70
     0
  1
*
  1
*
  0
XRECORD
  5
9DC6
102
{ACAD_REACTORS
330
9DBF
102
}
330
9DBF
100
AcDbXrecord
280
     1
  1
350_
  1
350_*
  1
*
  1
*
 70
     0
  1
*
  1
*
  0
XRECORD
  5
9DC7
102
{ACAD_REACTORS
330
9DBF
102
}
330
9DBF
100
AcDbXrecord
280
     1
  1
4
  1
*4
  1
*
  1
*
 70
     0
  1
*
  1
*
  0
XRECORD
  5
9DC8
102
{ACAD_REACTORS
330
9DBF
102
}
330
9DBF
100
AcDbXrecord
280
     1
  1
5
  1
*5
  1
*
  1
*
 70
     0
  1
*
  1
*
  0
XRECORD
  5
9DC9
102
{ACAD_REACTORS
330
9DBF
102
}
330
9DBF
100
AcDbXrecord
280
     1
  1
7
  1
*7
  1
*
  1
*
 70
     0
  1
*
  1
*
  0
XRECORD
  5
9DCA
102
{ACAD_REACTORS
330
9DBF
102
}
330
9DBF
100
AcDbXrecord
280
     1
  1
kiseki
  1
kiseki*
  1
*
  1
*
 70
     0
  1
*
  1
*
  0
ENDSEC
  0
EOF
