  0
SECTION
  2
HEADER
  9
$ACADVER
  1
AC1015
  9
$ACADMAINTVER
 70
     6
  9
$DWGCODEPAGE
  3
ANSI_932
  9
$INSBASE
 10
0.0
 20
0.0
 30
0.0
  9
$EXTMIN
 10
12606.79080025692
 20
3586.246239470567
 30
0.0
  9
$EXTMAX
 10
13221.23959641339
 20
3959.792848229125
 30
137.5
  9
$LIMMIN
 10
0.0
 20
0.0
  9
$LIMMAX
 10
420.0
 20
297.0
  9
$ORTHOMODE
 70
     0
  9
$REGENMODE
 70
     1
  9
$FILLMODE
 70
     1
  9
$QTEXTMODE
 70
     0
  9
$MIRRTEXT
 70
     0
  9
$LTSCALE
 40
1.0
  9
$ATTMODE
 70
     1
  9
$TEXTSIZE
 40
2.5
  9
$TRACEWID
 40
1.0
  9
$TEXTSTYLE
  7
STANDARD
  9
$CLAYER
  8
0
  9
$CELTYPE
  6
BYLAYER
  9
$CECOLOR
 62
   256
  9
$CELTSCALE
 40
1.0
  9
$DISPSILH
 70
     0
  9
$DIMSCALE
 40
2.0
  9
$DIMASZ
 40
2.0
  9
$DIMEXO
 40
1.0
  9
$DIMDLI
 40
6.4995
  9
$DIMRND
 40
0.0
  9
$DIMDLE
 40
0.0
  9
$DIMEXE
 40
0.5
  9
$DIMTP
 40
0.0
  9
$DIMTM
 40
0.0
  9
$DIMTXT
 40
3.0
  9
$DIMCEN
 40
0.0
  9
$DIMTSZ
 40
0.0
  9
$DIMTOL
 70
     0
  9
$DIMLIM
 70
     0
  9
$DIMTIH
 70
     0
  9
$DIMTOH
 70
     0
  9
$DIMSE1
 70
     0
  9
$DIMSE2
 70
     0
  9
$DIMTAD
 70
     1
  9
$DIMZIN
 70
     9
  9
$DIMBLK
  1
Open30
  9
$DIMASO
 70
     1
  9
$DIMSHO
 70
     1
  9
$DIMPOST
  1

  9
$DIMAPOST
  1

  9
$DIMALT
 70
     0
  9
$DIMALTD
 70
     4
  9
$DIMALTF
 40
0.0394
  9
$DIMLFAC
 40
1.0
  9
$DIMTOFL
 70
     0
  9
$DIMTVP
 40
0.0
  9
$DIMTIX
 70
     0
  9
$DIMSOXD
 70
     0
  9
$DIMSAH
 70
     0
  9
$DIMBLK1
  1

  9
$DIMBLK2
  1

  9
$DIMSTYLE
  2
STD
  9
$DIMCLRD
 70
     4
  9
$DIMCLRE
 70
     4
  9
$DIMCLRT
 70
    40
  9
$DIMTFAC
 40
1.0
  9
$DIMGAP
 40
0.3
  9
$DIMJUST
 70
     0
  9
$DIMSD1
 70
     0
  9
$DIMSD2
 70
     0
  9
$DIMTOLJ
 70
     1
  9
$DIMTZIN
 70
     9
  9
$DIMALTZ
 70
     0
  9
$DIMALTTZ
 70
     0
  9
$DIMUPT
 70
     0
  9
$DIMDEC
 70
     1
  9
$DIMTDEC
 70
     1
  9
$DIMALTU
 70
     8
  9
$DIMALTTD
 70
     4
  9
$DIMTXSTY
  7
MSｺﾞｼｯｸ
  9
$DIMAUNIT
 70
     0
  9
$DIMADEC
 70
     0
  9
$DIMALTRND
 40
0.0
  9
$DIMAZIN
 70
     2
  9
$DIMDSEP
 70
    46
  9
$DIMATFIT
 70
     0
  9
$DIMFRAC
 70
     0
  9
$DIMLDRBLK
  1
Open30
  9
$DIMLUNIT
 70
     2
  9
$DIMLWD
 70
    15
  9
$DIMLWE
 70
    15
  9
$DIMTMOVE
 70
     1
  9
$LUNITS
 70
     2
  9
$LUPREC
 70
     4
  9
$SKETCHINC
 40
1.0
  9
$FILLETRAD
 40
1.0
  9
$AUNITS
 70
     0
  9
$AUPREC
 70
     0
  9
$MENU
  1
.
  9
$ELEVATION
 40
0.0
  9
$PELEVATION
 40
0.0
  9
$THICKNESS
 40
0.0
  9
$LIMCHECK
 70
     0
  9
$CHAMFERA
 40
1.8
  9
$CHAMFERB
 40
1.8
  9
$CHAMFERC
 40
20.0
  9
$CHAMFERD
 40
0.0
  9
$SKPOLY
 70
     0
  9
$TDCREATE
 40
2452479.723123183
  9
$TDUCREATE
 40
2452479.348123183
  9
$TDUPDATE
 40
2457695.475814641
  9
$TDUUPDATE
 40
2457695.100814641
  9
$TDINDWG
 40
22.7326828819
  9
$TDUSRTIMER
 40
2457695.100682824
  9
$USRTIMER
 70
     1
  9
$ANGBASE
 50
0.0
  9
$ANGDIR
 70
     0
  9
$PDMODE
 70
     0
  9
$PDSIZE
 40
0.0
  9
$PLINEWID
 40
0.0
  9
$SPLFRAME
 70
     0
  9
$SPLINETYPE
 70
     6
  9
$SPLINESEGS
 70
     8
  9
$HANDSEED
  5
576E9
  9
$SURFTAB1
 70
     6
  9
$SURFTAB2
 70
     6
  9
$SURFTYPE
 70
     6
  9
$SURFU
 70
     6
  9
$SURFV
 70
     6
  9
$UCSBASE
  2

  9
$UCSNAME
  2

  9
$UCSORG
 10
0.0
 20
0.0
 30
0.0
  9
$UCSXDIR
 10
1.0
 20
0.0
 30
0.0
  9
$UCSYDIR
 10
0.0
 20
1.0
 30
0.0
  9
$UCSORTHOREF
  2

  9
$UCSORTHOVIEW
 70
     0
  9
$UCSORGTOP
 10
0.0
 20
0.0
 30
0.0
  9
$UCSORGBOTTOM
 10
0.0
 20
0.0
 30
0.0
  9
$UCSORGLEFT
 10
0.0
 20
0.0
 30
0.0
  9
$UCSORGRIGHT
 10
0.0
 20
0.0
 30
0.0
  9
$UCSORGFRONT
 10
0.0
 20
0.0
 30
0.0
  9
$UCSORGBACK
 10
0.0
 20
0.0
 30
0.0
  9
$PUCSBASE
  2

  9
$PUCSNAME
  2

  9
$PUCSORG
 10
0.0
 20
0.0
 30
0.0
  9
$PUCSXDIR
 10
1.0
 20
0.0
 30
0.0
  9
$PUCSYDIR
 10
0.0
 20
1.0
 30
0.0
  9
$PUCSORTHOREF
  2

  9
$PUCSORTHOVIEW
 70
     0
  9
$PUCSORGTOP
 10
0.0
 20
0.0
 30
0.0
  9
$PUCSORGBOTTOM
 10
0.0
 20
0.0
 30
0.0
  9
$PUCSORGLEFT
 10
0.0
 20
0.0
 30
0.0
  9
$PUCSORGRIGHT
 10
0.0
 20
0.0
 30
0.0
  9
$PUCSORGFRONT
 10
0.0
 20
0.0
 30
0.0
  9
$PUCSORGBACK
 10
0.0
 20
0.0
 30
0.0
  9
$USERI1
 70
     0
  9
$USERI2
 70
     0
  9
$USERI3
 70
     0
  9
$USERI4
 70
     0
  9
$USERI5
 70
     0
  9
$USERR1
 40
0.0
  9
$USERR2
 40
0.0
  9
$USERR3
 40
0.0
  9
$USERR4
 40
0.0
  9
$USERR5
 40
0.0
  9
$WORLDVIEW
 70
     1
  9
$SHADEDGE
 70
     3
  9
$SHADEDIF
 70
    70
  9
$TILEMODE
 70
     1
  9
$MAXACTVP
 70
    48
  9
$PINSBASE
 10
0.0
 20
0.0
 30
0.0
  9
$PLIMCHECK
 70
     0
  9
$PEXTMIN
 10
1.000000000000000E+20
 20
1.000000000000000E+20
 30
1.000000000000000E+20
  9
$PEXTMAX
 10
-1.000000000000000E+20
 20
-1.000000000000000E+20
 30
-1.000000000000000E+20
  9
$PLIMMIN
 10
-0.25
 20
-0.7499999999999999
  9
$PLIMMAX
 10
10.75
 20
7.75
  9
$UNITMODE
 70
     0
  9
$VISRETAIN
 70
     1
  9
$PLINEGEN
 70
     0
  9
$PSLTSCALE
 70
     1
  9
$TREEDEPTH
 70
  3020
  9
$CMLSTYLE
  2
STANDARD
  9
$CMLJUST
 70
     0
  9
$CMLSCALE
 40
20.0
  9
$PROXYGRAPHICS
 70
     1
  9
$MEASUREMENT
 70
     0
  9
$CELWEIGHT
370
    -1
  9
$ENDCAPS
280
     0
  9
$JOINSTYLE
280
     0
  9
$LWDISPLAY
290
     0
  9
$INSUNITS
 70
     0
  9
$HYPERLINKBASE
  1

  9
$STYLESHEET
  1
monochrome.ctb
  9
$XEDIT
290
     1
  9
$CEPSNTYPE
380
     0
  9
$PSTYLEMODE
290
     1
  9
$FINGERPRINTGUID
  2
{6B368F64-F7EB-11D4-BFBA-00004C030E53}
  9
$VERSIONGUID
  2
{239272EF-4B51-495C-B90C-3B2FE0456301}
  9
$EXTNAMES
290
     1
  9
$PSVPSCALE
 40
0.0
  9
$OLESTARTUP
290
     0
  0
ENDSEC
  0
SECTION
  2
CLASSES
  0
CLASS
  1
HATCH
  2
AcDbHatch
  3
ObjectDBX Classes
 90
        0
280
     0
281
     1
  0
CLASS
  1
LWPOLYLINE
  2
AcDbPolyline
  3
ObjectDBX Classes
 90
        0
280
     0
281
     1
  0
CLASS
  1
ACDBDICTIONARYWDFLT
  2
AcDbDictionaryWithDefault
  3
ObjectDBX Classes
 90
        0
280
     0
281
     0
  0
CLASS
  1
ACDBPLACEHOLDER
  2
AcDbPlaceHolder
  3
ObjectDBX Classes
 90
        0
280
     0
281
     0
  0
CLASS
  1
LAYOUT
  2
AcDbLayout
  3
ObjectDBX Classes
 90
        0
280
     0
281
     0
  0
CLASS
  1
DICTIONARYVAR
  2
AcDbDictionaryVar
  3
ObjectDBX Classes
 90
        0
280
     0
281
     0
  0
CLASS
  1
VISUALSTYLE
  2
AcDbVisualStyle
  3
ObjectDBX Classes
 90
     4095
280
     0
281
     0
  0
CLASS
  1
SCALE
  2
AcDbScale
  3
ObjectDBX Classes
 90
     1153
280
     0
281
     0
  0
CLASS
  1
MATERIAL
  2
AcDbMaterial
  3
ObjectDBX Classes
 90
     1153
280
     0
281
     0
  0
CLASS
  1
TABLESTYLE
  2
AcDbTableStyle
  3
ObjectDBX Classes
 90
     4095
280
     0
281
     0
  0
CLASS
  1
MLEADERSTYLE
  2
AcDbMLeaderStyle
  3
ACDB_MLEADERSTYLE_CLASS
 90
     4095
280
     0
281
     0
  0
CLASS
  1
SUN
  2
AcDbSun
  3
SCENEOE
 90
     1153
280
     0
281
     0
  0
CLASS
  1
RASTERVARIABLES
  2
AcDbRasterVariables
  3
ISM
 90
        0
280
     0
281
     0
  0
ENDSEC
  0
SECTION
  2
TABLES
  0
TABLE
  2
VPORT
  5
8
330
0
100
AcDbSymbolTable
 70
     1
  0
VPORT
  5
56DEB
330
8
100
AcDbSymbolTableRecord
100
AcDbViewportTableRecord
  2
*Active
 70
     0
 10
0.0
 20
0.0
 11
1.0
 21
1.0
 12
12914.01519833516
 22
3773.019543849846
 13
0.0
 23
0.0
 14
10.0
 24
10.0
 15
10.0
 25
10.0
 16
0.0
 26
0.0
 36
1.0
 17
0.0
 27
0.0
 37
0.0
 40
381.0175409337299
 41
1.896511627906977
 42
50.0
 43
0.0
 44
0.0
 50
0.0
 51
0.0
 71
    16
 72
   100
 73
     1
 74
     0
 75
     0
 76
     0
 77
     0
 78
     0
281
     0
 65
     1
110
0.0
120
0.0
130
0.0
111
1.0
121
0.0
131
0.0
112
0.0
122
1.0
132
0.0
 79
     0
146
0.0
  0
ENDTAB
  0
TABLE
  2
LTYPE
  5
5
330
0
100
AcDbSymbolTable
 70
     8
  0
LTYPE
  5
12
330
5
100
AcDbSymbolTableRecord
100
AcDbLinetypeTableRecord
  2
BYBLOCK
 70
     0
  3

 72
    65
 73
     0
 40
0.0
  0
LTYPE
  5
13
330
5
100
AcDbSymbolTableRecord
100
AcDbLinetypeTableRecord
  2
BYLAYER
 70
     0
  3

 72
    65
 73
     0
 40
0.0
  0
LTYPE
  5
14
330
5
100
AcDbSymbolTableRecord
100
AcDbLinetypeTableRecord
  2
CONTINUOUS
 70
     0
  3
Solid line
 72
    65
 73
     0
 40
0.0
  0
LTYPE
  5
BB7
330
5
100
AcDbSymbolTableRecord
100
AcDbLinetypeTableRecord
  2
HIDDEN
 70
     0
  3
Hidden __ __ __ __ __ __ __ __ __ __ __ __ __ _
 72
    65
 73
     2
 40
9.524999999999999
 49
6.35
 74
     0
 49
-3.175
 74
     0
  0
LTYPE
  5
3306
330
5
100
AcDbSymbolTableRecord
100
AcDbLinetypeTableRecord
  2
CENTER
 70
     0
  3
____ _ ____ _ ____ _ ____ _ ____ _ ____ _ ____
 72
    65
 73
     4
 40
17.5
 49
13.0
 74
     0
 49
-1.5
 74
     0
 49
1.5
 74
     0
 49
-1.5
 74
     0
  0
LTYPE
  5
48746
330
5
100
AcDbSymbolTableRecord
100
AcDbLinetypeTableRecord
  2
PHANTOM
 70
     0
  3
Phantom ______  __  __  ______  __  __  ______
 72
    65
 73
     6
 40
2.5
 49
1.25
 74
     0
 49
-0.25
 74
     0
 49
0.25
 74
     0
 49
-0.25
 74
     0
 49
0.25
 74
     0
 49
-0.25
 74
     0
  0
ENDTAB
  0
TABLE
  2
LAYER
  5
2
102
{ACAD_XDICTIONARY
360
56DCC
102
}
330
0
100
AcDbSymbolTable
 70
    48
  0
LAYER
  5
E
330
2
100
AcDbSymbolTableRecord
100
AcDbLayerTableRecord
  2
0
 70
     2
 62
     7
  6
CONTINUOUS
370
    -3
390
73E
  0
LAYER
  5
8C6
330
2
100
AcDbSymbolTableRecord
100
AcDbLayerTableRecord
  2
文字
 70
     0
 62
   250
  6
CONTINUOUS
370
    30
390
73E
  0
LAYER
  5
96A
330
2
100
AcDbSymbolTableRecord
100
AcDbLayerTableRecord
  2
中心線
 70
     0
 62
    13
  6
CENTER
370
    13
390
73E
  0
LAYER
  5
1521
330
2
100
AcDbSymbolTableRecord
100
AcDbLayerTableRecord
  2
実線
 70
     0
 62
     3
  6
CONTINUOUS
370
    30
390
73E
  0
LAYER
  5
1523
330
2
100
AcDbSymbolTableRecord
100
AcDbLayerTableRecord
  2
細線
 70
     0
 62
     7
  6
CONTINUOUS
370
    13
390
73E
  0
LAYER
  5
4D2E2
330
2
100
AcDbSymbolTableRecord
100
AcDbLayerTableRecord
  2
破線
 70
     0
 62
     8
  6
HIDDEN
370
    13
390
73E
  0
LAYER
  5
5575A
330
2
100
AcDbSymbolTableRecord
100
AcDbLayerTableRecord
  2
想像線
 70
     0
 62
    81
  6
PHANTOM
370
    13
390
73E
  0
ENDTAB
  0
TABLE
  2
STYLE
  5
3
330
0
100
AcDbSymbolTable
 70
    13
  0
STYLE
  5
F
330
3
100
AcDbSymbolTableRecord
100
AcDbTextStyleTableRecord
  2
STANDARD
 70
     0
 40
0.0
 41
1.0
 50
0.0
 71
     0
 42
2.5
  3
isocp.shx
  4
bigfont.shx
  0
STYLE
  5
34
330
3
100
AcDbSymbolTableRecord
100
AcDbTextStyleTableRecord
  2
TIMESNR
 70
     0
 40
0.0
 41
1.0
 50
0.0
 71
     0
 42
2.0
  3
TIMES.TTF
  4

1001
ACAD
1000
Times New Roman
1071
       18
  0
STYLE
  5
35
330
3
100
AcDbSymbolTableRecord
100
AcDbTextStyleTableRecord
  2
MSｺﾞｼｯｸ
 70
     0
 40
0.0
 41
1.0
 50
0.0
 71
     0
 42
5.0
  3
MS Gothic.ttf
  4

1001
ACAD
1000
MS Gothic
1071
    32817
  0
STYLE
  5
8D7
330
3
100
AcDbSymbolTableRecord
100
AcDbTextStyleTableRecord
  2
MSｺﾞｼｯｸ-0
 70
     0
 40
0.0
 41
1.0
 50
0.0
 71
     0
 42
4.0
  3
MS Gothic.ttf
  4

1001
ACAD
1000
MS Gothic
1071
    32817
  0
STYLE
  5
1529
330
3
100
AcDbSymbolTableRecord
100
AcDbTextStyleTableRecord
  2
まこ
 70
     0
 40
0.0
 41
1.0
 50
0.0
 71
     0
 42
2.5
  3
simplex.shx
  4
bigfont.shx
  0
STYLE
  5
515AB
330
3
100
AcDbSymbolTableRecord
100
AcDbTextStyleTableRecord
  2
MSｺﾞｼｯｸN
 70
     0
 40
0.0
 41
1.0
 50
0.0
 71
     0
 42
5.0
  3
MS Gothic.ttf
  4

1001
ACAD
1000
MS Gothic
1071
    32817
  0
ENDTAB
  0
TABLE
  2
VIEW
  5
6
330
0
100
AcDbSymbolTable
 70
     0
  0
ENDTAB
  0
TABLE
  2
UCS
  5
7
330
0
100
AcDbSymbolTable
 70
     0
  0
ENDTAB
  0
TABLE
  2
APPID
  5
9
330
0
100
AcDbSymbolTable
 70
     2
  0
APPID
  5
10
330
9
100
AcDbSymbolTableRecord
100
AcDbRegAppTableRecord
  2
ACAD
 70
     0
  0
APPID
  5
5701E
330
9
100
AcDbSymbolTableRecord
100
AcDbRegAppTableRecord
  2
PE_CLOUD
 70
     0
  0
ENDTAB
  0
TABLE
  2
DIMSTYLE
  5
A
330
0
100
AcDbSymbolTable
 70
     9
100
AcDbDimStyleTable
  0
DIMSTYLE
105
1D
330
A
100
AcDbSymbolTableRecord
100
AcDbDimStyleTableRecord
  2
STANDARD
 70
     0
 41
3.0
 42
0.8
 44
0.8
 73
     0
 74
     0
 77
     3
 78
     8
 79
     2
140
3.0
141
0.0
147
0.5
176
     4
177
     4
178
   256
340
8D7
341
89E
342
89E
371
    13
372
    13
  0
DIMSTYLE
105
48761
330
A
100
AcDbSymbolTableRecord
100
AcDbDimStyleTableRecord
  2
STD
 70
     0
 40
2.0
 41
2.0
 42
1.0
 43
6.4995
 44
0.5
 73
     0
 74
     0
 77
     1
 78
     9
 79
     2
140
3.0
141
0.0
143
0.0394
147
0.3
171
     4
176
     4
177
     4
271
     1
178
    40
271
     1
272
     1
273
     8
274
     4
279
     1
284
     9
289
     0
340
35
341
89E
342
89E
371
    15
372
    15
  0
ENDTAB
  0
TABLE
  2
BLOCK_RECORD
  5
1
330
0
100
AcDbSymbolTable
 70
     2
  0
BLOCK_RECORD
  5
18
330
1
100
AcDbSymbolTableRecord
100
AcDbBlockTableRecord
  2
*MODEL_SPACE
340
741
  0
BLOCK_RECORD
  5
57661
330
1
100
AcDbSymbolTableRecord
100
AcDbBlockTableRecord
  2
*Paper_Space
340
57662
  0
BLOCK_RECORD
  5
89E
330
1
100
AcDbSymbolTableRecord
100
AcDbBlockTableRecord
  2
_Open30
340
0
  0
ENDTAB
  0
ENDSEC
  0
SECTION
  2
BLOCKS
  0
BLOCK
  5
19
330
18
100
AcDbEntity
  8
0
100
AcDbBlockBegin
  2
*MODEL_SPACE
 70
     0
 10
0.0
 20
0.0
 30
0.0
  3
*MODEL_SPACE
  1
*MODEL_SPACE
  0
ENDBLK
  5
1A
330
18
100
AcDbEntity
  8
0
100
AcDbBlockEnd
  0
BLOCK
  5
57663
330
57661
100
AcDbEntity
 67
     1
  8
0
100
AcDbBlockBegin
  2
*Paper_Space
 70
     0
 10
0.0
 20
0.0
 30
0.0
  3
*Paper_Space
  1
*Paper_Space
  0
ENDBLK
  5
57664
330
57661
100
AcDbEntity
 67
     1
  8
0
100
AcDbBlockEnd
  0
BLOCK
  5
8A2
330
89E
100
AcDbEntity
  8
0
100
AcDbBlockBegin
  2
_Open30
 70
     0
 10
0.0
 20
0.0
 30
0.0
  3
_Open30
  1
_Open30
  0
LINE
  5
89F
330
89E
100
AcDbEntity
  8
0
  6
ByBlock
 62
     0
370
    -2
100
AcDbLine
 10
-1.0
 20
0.26794919
 30
0.0
 11
0.0
 21
0.0
 31
0.0
  0
LINE
  5
8A0
330
89E
100
AcDbEntity
  8
0
  6
ByBlock
 62
     0
370
    -2
100
AcDbLine
 10
0.0
 20
0.0
 30
0.0
 11
-1.0
 21
-0.26794919
 31
0.0
  0
LINE
  5
8A1
330
89E
100
AcDbEntity
  8
0
  6
ByBlock
 62
     0
370
    -2
100
AcDbLine
 10
0.0
 20
0.0
 30
0.0
 11
-1.0
 21
0.0
 31
0.0
  0
ENDBLK
  5
8A3
330
89E
100
AcDbEntity
  8
0
100
AcDbBlockEnd
  0
ENDSEC
  0
SECTION
  2
ENTITIES
  0
TEXT
  5
45626
330
18
100
AcDbEntity
  8
文字
100
AcDbText
 10
9435.461723978733
 20
3726.227546149175
 30
0.0
 40
5.0
  1
%%
  7
MSｺﾞｼｯｸ-0
100
AcDbText
  0
LINE
  5
524D6
330
18
100
AcDbEntity
  8
中心線
100
AcDbLine
 10
12904.54183114432
 20
3637.563461148489
 30
0.0
 11
12904.54183114432
 21
3861.012786694765
 31
0.0
  0
ARC
  5
524E8
330
18
100
AcDbEntity
  8
実線
100
AcDbCircle
 10
12904.54183114432
 20
2972.480894583724
 30
0.0
 40
789.0
100
AcDbArc
 50
76.84778053213036
 51
103.1522194678698
  0
LINE
  5
525C0
330
18
100
AcDbEntity
  8
実線
100
AcDbLine
 10
12725.01364182055
 20
3740.784629598807
 30
0.0
 11
12710.54183114431
 21
3802.980894583744
 31
0.0
  0
LINE
  5
52645
330
18
100
AcDbEntity
  8
実線
100
AcDbLine
 10
13084.0700204681
 20
3740.784629598807
 30
0.0
 11
13098.54183114431
 21
3802.980894583657
 31
0.0
  0
LINE
  5
526FA
330
18
100
AcDbEntity
  8
実線
100
AcDbLine
 10
13098.04183114431
 20
3854.480894583723
 30
0.0
 11
12711.04183114431
 21
3854.480894583724
 31
0.0
  0
ARC
  5
526FB
330
18
100
AcDbEntity
  8
実線
100
AcDbCircle
 10
12904.54183114431
 20
2972.480894583724
 30
0.0
 40
852.5
100
AcDbArc
 50
76.85178173639548
 51
103.1482182636036
  0
LINE
  5
526FD
330
18
100
AcDbEntity
  8
中心線
100
AcDbLine
 10
12748.99487946027
 20
3844.480894583726
 30
0.0
 11
13060.08878282835
 21
3844.480894583726
 31
0.0
  0
LINE
  5
52708
330
18
100
AcDbEntity
  8
実線
 48
10.0
100
AcDbLine
 10
12711.04183114431
 20
3854.480894583724
 30
0.0
 11
12710.54183114431
 21
3853.980894583724
 31
0.0
  0
LINE
  5
52710
330
18
100
AcDbEntity
  8
実線
 48
10.0
100
AcDbLine
 10
12710.54183114431
 20
3802.980894583737
 30
0.0
 11
12710.54183114431
 21
3853.980894583724
 31
0.0
  0
LINE
  5
52715
330
18
100
AcDbEntity
  8
中心線
100
AcDbLine
 10
12844.54183114432
 20
3840.480894583728
 30
0.0
 11
12844.54183114432
 21
3848.480894583722
 31
0.0
  0
CIRCLE
  5
52716
330
18
100
AcDbEntity
  8
実線
 48
0.5
100
AcDbCircle
 10
12844.54183114431
 20
3844.480894583731
 30
0.0
 40
2.5
  0
LINE
  5
52725
330
18
100
AcDbEntity
  8
中心線
100
AcDbLine
 10
12964.5418311443
 20
3840.480894583726
 30
0.0
 11
12964.5418311443
 21
3848.480894583724
 31
0.0
  0
CIRCLE
  5
52726
330
18
100
AcDbEntity
  8
実線
 48
0.5
100
AcDbCircle
 10
12964.5418311443
 20
3844.480894583729
 30
0.0
 40
2.5
  0
LINE
  5
5272D
330
18
100
AcDbEntity
  8
実線
 48
10.0
100
AcDbLine
 10
13098.04183114431
 20
3854.480894583723
 30
0.0
 11
13098.54183114431
 21
3853.980894583723
 31
0.0
  0
LINE
  5
5272E
330
18
100
AcDbEntity
  8
実線
 48
10.0
100
AcDbLine
 10
13098.54183114431
 20
3802.980894583672
 30
0.0
 11
13098.54183114431
 21
3853.980894583723
 31
0.0
  0
LINE
  5
53034
330
18
100
AcDbEntity
  8
実線
 48
10.0
100
AcDbLine
 10
13196.83959641339
 20
3853.980894583723
 30
0.0
 11
13196.33959641339
 21
3854.480894583723
 31
0.0
  0
ARC
  5
53049
330
18
100
AcDbEntity
  8
実線
 48
10.0
100
AcDbCircle
 10
13185.03959641339
 20
3838.480894583724
 30
0.0
 40
1.0
100
AcDbArc
 50
0.0
 51
90.0
  0
LINE
  5
5304D
330
18
100
AcDbEntity
  8
実線
 48
10.0
100
AcDbLine
 10
13196.33959641339
 20
3824.980894583724
 30
0.0
 11
13196.83959641339
 21
3825.480894583724
 31
0.0
  0
LINE
  5
5304E
330
18
100
AcDbEntity
  8
実線
 48
10.0
100
AcDbLine
 10
13186.03959641339
 20
3824.980894583724
 30
0.0
 11
13196.33959641339
 21
3824.980894583724
 31
0.0
  0
LINE
  5
5304F
330
18
100
AcDbEntity
  8
中心線
100
AcDbLine
 10
13181.83959641339
 20
3718.437506865757
 30
0.0
 11
13181.83959641339
 21
3858.5466196253
 31
0.0
  0
LINE
  5
53050
330
18
100
AcDbEntity
  8
実線
 48
10.0
100
AcDbLine
 10
13196.83959641339
 20
3825.480894583724
 30
0.0
 11
13196.83959641339
 21
3853.980894583723
 31
0.0
  0
LINE
  5
53051
330
18
100
AcDbEntity
  8
実線
 48
10.0
100
AcDbLine
 10
13186.03959641339
 20
3824.980894583724
 30
0.0
 11
13186.03959641339
 21
3838.480894583724
 31
0.0
  0
LINE
  5
53052
330
18
100
AcDbEntity
  8
実線
 48
10.0
100
AcDbLine
 10
13167.33959641339
 20
3854.480894583723
 30
0.0
 11
13166.83959641339
 21
3853.980894583723
 31
0.0
  0
ARC
  5
53053
330
18
100
AcDbEntity
  8
実線
 48
10.0
100
AcDbCircle
 10
13178.63959641339
 20
3838.480894583724
 30
0.0
 40
1.0
100
AcDbArc
 50
90.0
 51
180.0
  0
LINE
  5
53057
330
18
100
AcDbEntity
  8
実線
 48
10.0
100
AcDbLine
 10
13167.33959641339
 20
3824.980894583724
 30
0.0
 11
13166.83959641339
 21
3825.480894583724
 31
0.0
  0
LINE
  5
53058
330
18
100
AcDbEntity
  8
実線
 48
10.0
100
AcDbLine
 10
13167.33959641339
 20
3824.980894583724
 30
0.0
 11
13177.63959641339
 21
3824.980894583724
 31
0.0
  0
LINE
  5
53059
330
18
100
AcDbEntity
  8
実線
 48
10.0
100
AcDbLine
 10
13166.83959641339
 20
3853.980894583723
 30
0.0
 11
13166.83959641339
 21
3825.480894583724
 31
0.0
  0
LINE
  5
5305A
330
18
100
AcDbEntity
  8
実線
 48
10.0
100
AcDbLine
 10
13177.63959641339
 20
3824.980894583724
 30
0.0
 11
13177.63959641339
 21
3838.480894583724
 31
0.0
  0
LINE
  5
5305B
330
18
100
AcDbEntity
  8
実線
 48
10.0
100
AcDbLine
 10
13178.63959641339
 20
3839.480894583724
 30
0.0
 11
13185.03959641339
 21
3839.480894583724
 31
0.0
  0
LINE
  5
5305C
330
18
100
AcDbEntity
  8
実線
 48
10.0
100
AcDbLine
 10
13196.33959641339
 20
3854.480894583723
 30
0.0
 11
13167.33959641339
 21
3854.480894583723
 31
0.0
  0
LINE
  5
5309B
330
18
100
AcDbEntity
  8
実線
100
AcDbLine
 10
13186.33959641339
 20
3824.980894583724
 30
0.0
 11
13184.53959641339
 21
3823.180894583724
 31
0.0
  0
LINE
  5
5309C
330
18
100
AcDbEntity
  8
実線
100
AcDbLine
 10
13177.33959641339
 20
3824.980894583724
 30
0.0
 11
13179.13959641339
 21
3823.180894583724
 31
0.0
  0
LINE
  5
5309D
330
18
100
AcDbEntity
  8
実線
100
AcDbLine
 10
13180.13959641339
 20
3761.480894583724
 30
0.0
 11
13183.53959641339
 21
3761.480894583725
 31
0.0
  0
LINE
  5
5309E
330
18
100
AcDbEntity
  8
実線
100
AcDbLine
 10
13179.13959641339
 20
3823.180894583724
 30
0.0
 11
13179.13959641339
 21
3762.480894583724
 31
0.0
  0
LINE
  5
5309F
330
18
100
AcDbEntity
  8
実線
100
AcDbLine
 10
13184.53959641339
 20
3823.180894583724
 30
0.0
 11
13184.53959641339
 21
3762.480894583725
 31
0.0
  0
ARC
  5
530A0
330
18
100
AcDbEntity
  8
実線
100
AcDbCircle
 10
13183.53959641339
 20
3762.480894583725
 30
0.0
 40
1.0
100
AcDbArc
 50
269.9999999999952
 51
359.9999999999974
  0
ARC
  5
530A1
330
18
100
AcDbEntity
  8
実線
100
AcDbCircle
 10
13180.13959641339
 20
3762.480894583724
 30
0.0
 40
1.0
100
AcDbArc
 50
180.0
 51
270.0000000000059
  0
LINE
  5
5358D
102
{ACAD_REACTORS
330
53593
102
}
330
18
100
AcDbEntity
  8
0
 62
     2
100
AcDbLine
 10
12767.99578464323
 20
3948.57555849143
 30
0.0
 11
12767.59528464323
 21
3945.371558491431
 31
0.0
  0
LINE
  5
5358E
330
18
100
AcDbEntity
  8
0
 62
     2
100
AcDbLine
 10
12770.54183114431
 20
3937.929081909432
 30
0.0
 11
12770.54183114431
 21
3948.929081909432
 31
0.0
  0
SPLINE
  5
5358F
330
18
100
AcDbEntity
  8
想像線
 48
5.0
100
AcDbSpline
210
0.0
220
0.0
230
1.0
 70
  1064
 71
     3
 72
    12
 73
     8
 74
     6
 42
0.000000001
 43
0.0000000001
 44
0.0000000001
 40
0.0
 40
0.0
 40
0.0
 40
0.0
 40
2.812153702321121
 40
6.927195075884932
 40
10.29658125758725
 40
13.40171693196099
 40
15.49498562802008
 40
15.49498562802008
 40
15.49498562802008
 40
15.49498562802008
 10
12678.40061437054
 20
3950.274875001175
 30
0.0
 10
12677.79375480736
 20
3949.556400918935
 30
0.0
 10
12676.29887400681
 20
3947.786579404364
 30
0.0
 10
12675.75052062006
 20
3943.960189976874
 30
0.0
 10
12677.8276700075
 20
3941.045653883092
 30
0.0
 10
12678.0599804588
 20
3937.823258850784
 30
0.0
 10
12676.78749305399
 20
3936.563781758264
 30
0.0
 10
12676.27509389056
 20
3936.056621525373
 30
0.0
 11
12678.40061437054
 21
3950.274875001175
 31
0.0
 11
12676.7655976346
 21
3947.986878340629
 31
0.0
 11
12676.27509389056
 21
3943.901175025014
 31
0.0
 11
12677.58310600257
 21
3940.79603935064
 31
0.0
 11
12677.58310600257
 21
3937.690903676266
 31
0.0
 11
12676.27509389056
 21
3936.056621525373
 31
0.0
  0
LINE
  5
53590
102
{ACAD_REACTORS
330
53593
102
}
330
18
100
AcDbEntity
  8
0
 62
     2
100
AcDbLine
 10
12763.59028464323
 20
3948.57555849143
 30
0.0
 11
12763.34998464323
 21
3946.57305849143
 31
0.0
  0
TEXT
  5
53591
330
18
100
AcDbEntity
  8
0
 62
     2
100
AcDbText
 10
12762.37368541884
 20
3948.527824352846
 30
0.0
 40
1.44
  1
DENSO
 50
180.0
 41
1.3
  7
TIMESNR
100
AcDbText
  0
LINE
  5
53592
330
18
100
AcDbEntity
  8
0
 62
     2
100
AcDbLine
 10
12735.54183114431
 20
3948.929081909432
 30
0.0
 11
12735.54183114431
 21
3937.929081909432
 31
0.0
  0
HATCH
  5
53593
330
18
100
AcDbEntity
  8
0
 62
     2
100
AcDbHatch
 10
0.0
 20
0.0
 30
0.0
210
0.0
220
0.0
230
1.0
  2
SOLID
 70
     1
 71
     1
 91
        2
 92
       17
 93
        1
 72
     2
 10
12765.59278464323
 20
3947.17380849143
 40
0.6007500000000001
 50
0.0
 51
360.0
 73
     1
 97
        1
330
535B7
 92
        1
 93
        8
 72
     2
 10
12765.59185324788
 20
3947.171945700733
 40
1.003113223100251
 50
293.5897772726194
 51
449.946800591376
 73
     1
 72
     2
 10
12765.59278464323
 20
3947.37405849143
 40
0.801
 50
90.0
 51
270.0
 73
     1
 72
     1
 10
12765.59278464323
 20
3946.57305849143
 11
12763.34998464323
 21
3946.57305849143
 72
     1
 10
12763.34998464323
 20
3946.57305849143
 11
12763.59028464323
 21
3948.57555849143
 72
     1
 10
12763.59028464323
 20
3948.57555849143
 11
12767.99578464323
 21
3948.57555849143
 72
     1
 10
12767.99578464323
 20
3948.57555849143
 11
12767.59528464323
 21
3945.371558491431
 72
     1
 10
12767.59528464323
 20
3945.371558491431
 11
12763.18978464323
 21
3945.371558491431
 72
     1
 10
12763.18978464323
 20
3945.371558491431
 11
12765.99328464323
 21
3946.25265849143
 97
        8
330
535B6
330
535B5
330
535B9
330
53590
330
535C4
330
5358D
330
535BA
330
535BB
 75
     0
 76
     1
 98
        1
 10
12967.07049473747
 20
3944.694333675671
  0
LINE
  5
53594
330
18
100
AcDbEntity
  8
実線
100
AcDbLine
 10
12710.54183114431
 20
3928.429081909433
 30
0.0
 11
12710.54183114431
 21
3958.429081909433
 31
0.0
  0
LINE
  5
53597
330
18
100
AcDbEntity
  8
実線
100
AcDbLine
 10
12710.54183114431
 20
3928.429081909433
 30
0.0
 11
12710.54183114431
 21
3958.429081909433
 31
0.0
  0
SPLINE
  5
5359A
330
18
100
AcDbEntity
  8
想像線
 48
5.0
100
AcDbSpline
210
0.0
220
0.0
230
1.0
 70
  1064
 71
     3
 72
    12
 73
     8
 74
     6
 42
0.000000001
 43
0.0000000001
 44
0.0000000001
 40
0.0
 40
0.0
 40
0.0
 40
0.0
 40
4.383795587126982
 40
13.45854892844399
 40
21.01024344967502
 40
28.52568817667342
 40
37.45023787551234
 40
37.45023787551234
 40
37.45023787551234
 40
37.45023787551234
 10
12788.78501387932
 20
3959.792848229125
 30
0.0
 10
12787.79831842856
 20
3958.735728110554
 30
0.0
 10
12784.76909666455
 20
3955.490297853537
 30
0.0
 10
12782.99855388188
 20
3946.961409896261
 30
0.0
 10
12790.80855597922
 20
3942.228802281771
 30
0.0
 10
12791.32704706653
 20
3933.222234020735
 30
0.0
 10
12788.20675074217
 20
3928.626469291666
 30
0.0
 10
12786.51287914462
 20
3926.131630810194
 30
0.0
 11
12788.78501387932
 21
3959.792848229125
 31
0.0
 11
12786.02598857026
 21
3956.386171975985
 31
0.0
 11
12784.88992120291
 21
3947.382811539871
 31
0.0
 11
12789.67763915133
 21
3941.542790393645
 31
0.0
 11
12790.57026442335
 21
3934.080543441934
 31
0.0
 11
12786.51287914462
 21
3926.131630810194
 31
0.0
  0
TEXT
  5
5359B
330
18
100
AcDbEntity
  8
0
 62
     2
100
AcDbText
 10
12762.2522723087
 20
3946.831061943861
 30
0.0
 40
1.44
  1
NIKKI
 50
180.0
 41
1.25
  7
TIMESNR
100
AcDbText
  0
LINE
  5
5359C
330
18
100
AcDbEntity
  8
0
 62
     2
100
AcDbLine
 10
12770.54183114431
 20
3944.429081909432
 30
0.0
 11
12735.54183114431
 21
3944.429081909432
 31
0.0
  0
LINE
  5
5359D
330
18
100
AcDbEntity
  8
0
 62
     2
100
AcDbLine
 10
12736.04183114431
 20
3937.429081909432
 30
0.0
 11
12770.04183114431
 21
3937.429081909432
 31
0.0
  0
TEXT
  5
5359E
330
18
100
AcDbEntity
  8
0
 62
     2
100
AcDbText
 10
12768.71786111344
 20
3941.046169761754
 30
0.0
 40
2.6
  1
MODEL:CLV-CM***
 50
180.0
 41
1.2
  7
MSｺﾞｼｯｸN
 11
12768.71786111344
 21
3941.521296665307
 31
0.0
100
AcDbText
 73
     1
  0
TEXT
  5
5359F
330
18
100
AcDbEntity
  8
0
 62
     2
100
AcDbText
 10
12768.74498768626
 20
3943.870203110185
 30
0.0
 40
2.0
  1
SER No.******
 50
180.0
 41
1.2
  7
MSｺﾞｼｯｸN
 11
12768.74498768626
 21
3944.235685343688
 31
0.0
100
AcDbText
 73
     1
  0
LINE
  5
535A0
330
18
100
AcDbEntity
  8
実線
100
AcDbLine
 10
12710.54183114431
 20
3928.429081909433
 30
0.0
 11
12788.03465487487
 21
3928.429081909433
 31
0.0
  0
LINE
  5
535A1
330
18
100
AcDbEntity
  8
実線
100
AcDbLine
 10
12677.79814742935
 20
3939.929081909433
 30
0.0
 11
12710.54183114431
 21
3939.929081909433
 31
0.0
  0
LINE
  5
535A2
330
18
100
AcDbEntity
  8
実線
100
AcDbLine
 10
12676.35732488476
 20
3946.929081909432
 30
0.0
 11
12710.54183114431
 21
3946.929081909433
 31
0.0
  0
HATCH
  5
535A5
330
18
100
AcDbEntity
  8
0
 62
     4
100
AcDbHatch
 10
0.0
 20
0.0
 30
0.0
210
0.0
220
0.0
230
1.0
  2
SOLID
 70
     1
 71
     1
 91
        2
 92
       17
 93
        1
 72
     2
 10
12726.88175774269
 20
3945.72883782882
 40
0.6007500000000001
 50
0.0
 51
360.0
 73
     1
 97
        1
330
535AE
 92
        1
 93
        8
 72
     2
 10
12726.88082634734
 20
3945.726975038122
 40
1.003113223100251
 50
293.5897772726194
 51
449.946800591376
 73
     1
 72
     2
 10
12726.88175774269
 20
3945.92908782882
 40
0.801
 50
90.0
 51
270.0
 73
     1
 72
     1
 10
12726.88175774269
 20
3945.128087828819
 11
12724.63895774269
 21
3945.128087828819
 72
     1
 10
12724.63895774269
 20
3945.128087828819
 11
12724.87925774269
 21
3947.130587828819
 72
     1
 10
12724.87925774269
 20
3947.130587828819
 11
12729.28475774269
 21
3947.130587828819
 72
     1
 10
12729.28475774269
 20
3947.130587828819
 11
12728.88425774269
 21
3943.926587828819
 72
     1
 10
12728.88425774269
 20
3943.926587828819
 11
12724.47875774269
 21
3943.926587828819
 72
     1
 10
12724.47875774269
 20
3943.926587828819
 11
12727.28225774269
 21
3944.80768782882
 97
        8
330
535AF
330
535B0
330
535A9
330
535B1
330
535A6
330
535B3
330
535AC
330
535A8
 75
     0
 76
     1
 98
        1
 10
12928.35946783693
 20
3943.249363013059
  0
LINE
  5
535A6
102
{ACAD_REACTORS
330
535A5
102
}
330
18
100
AcDbEntity
  8
0
 62
     4
100
AcDbLine
 10
12729.28475774269
 20
3947.130587828819
 30
0.0
 11
12724.87925774269
 21
3947.130587828819
 31
0.0
  0
LINE
  5
535A7
330
18
100
AcDbEntity
  8
0
 62
     4
100
AcDbLine
 10
12730.54183114431
 20
3942.429081909432
 30
0.0
 11
12715.54183114431
 21
3942.429081909432
 31
0.0
  0
LINE
  5
535A8
102
{ACAD_REACTORS
330
535A5
102
}
330
18
100
AcDbEntity
  8
0
 62
     4
100
AcDbLine
 10
12724.47875774269
 20
3943.926587828819
 30
0.0
 11
12727.28225774269
 21
3944.80768782882
 31
0.0
  0
LINE
  5
535A9
102
{ACAD_REACTORS
330
535A5
102
}
330
18
100
AcDbEntity
  8
0
 62
     4
100
AcDbLine
 10
12726.88175774269
 20
3945.128087828819
 30
0.0
 11
12724.63895774269
 21
3945.128087828819
 31
0.0
  0
TEXT
  5
535AA
330
18
100
AcDbEntity
  8
0
 62
     4
100
AcDbText
 10
12723.54124540817
 20
3945.38609128125
 30
0.0
 40
1.44
  1
NIKKI
 50
180.0
  7
TIMESNR
100
AcDbText
  0
TEXT
  5
535AB
330
18
100
AcDbEntity
  8
0
 62
     4
100
AcDbText
 10
12729.3271126651
 20
3941.470522458505
 30
0.0
 40
2.0
  1
Certificate
 50
180.0
  7
TIMESNR
 11
12729.3271126651
 21
3942.109311211208
 31
0.0
100
AcDbText
 73
     1
  0
LINE
  5
535AC
102
{ACAD_REACTORS
330
535A5
102
}
330
18
100
AcDbEntity
  8
0
 62
     4
100
AcDbLine
 10
12728.88425774269
 20
3943.926587828819
 30
0.0
 11
12724.47875774269
 21
3943.926587828819
 31
0.0
  0
ARC
  5
535AD
330
18
100
AcDbEntity
  8
0
 62
     2
100
AcDbCircle
 10
12736.04183114431
 20
3937.929081909432
 30
0.0
 40
0.5
100
AcDbArc
 50
180.0
 51
270.0
  0
CIRCLE
  5
535AE
102
{ACAD_REACTORS
330
535A5
102
}
330
18
100
AcDbEntity
  8
0
 62
     4
100
AcDbCircle
 10
12726.88175774269
 20
3945.72883782882
 30
0.0
 40
0.6007500000000001
  0
ARC
  5
535AF
102
{ACAD_REACTORS
330
535A5
102
}
330
18
100
AcDbEntity
  8
0
 62
     4
100
AcDbCircle
 10
12726.88082634734
 20
3945.726975038122
 30
0.0
 40
1.003113223100251
100
AcDbArc
 50
293.5897772726194
 51
89.94680059137595
  0
ARC
  5
535B0
102
{ACAD_REACTORS
330
535A5
102
}
330
18
100
AcDbEntity
  8
0
 62
     4
100
AcDbCircle
 10
12726.88175774269
 20
3945.92908782882
 30
0.0
 40
0.801
100
AcDbArc
 50
90.0
 51
270.0
  0
LINE
  5
535B1
102
{ACAD_REACTORS
330
535A5
102
}
330
18
100
AcDbEntity
  8
0
 62
     4
100
AcDbLine
 10
12724.87925774269
 20
3947.130587828819
 30
0.0
 11
12724.63895774269
 21
3945.128087828819
 31
0.0
  0
TEXT
  5
535B2
330
18
100
AcDbEntity
  8
0
 62
     4
100
AcDbText
 10
12723.6626585183
 20
3947.082853690236
 30
0.0
 40
1.44
  1
DENSO
 50
180.0
  7
TIMESNR
100
AcDbText
  0
LINE
  5
535B3
102
{ACAD_REACTORS
330
535A5
102
}
330
18
100
AcDbEntity
  8
0
 62
     4
100
AcDbLine
 10
12729.28475774269
 20
3947.130587828819
 30
0.0
 11
12728.88425774269
 21
3943.926587828819
 31
0.0
  0
LWPOLYLINE
  5
535B4
330
18
100
AcDbEntity
  8
0
 62
     4
100
AcDbPolyline
 90
        8
 70
     1
 43
0.0
 10
12730.04183114431
 20
3948.429081909432
 10
12716.04183114431
 20
3948.429081909433
 42
0.414213562373095
 10
12715.54183114431
 20
3947.929081909433
 10
12715.54183114431
 20
3938.929081909433
 42
0.414213562373095
 10
12716.04183114431
 20
3938.429081909433
 10
12730.04183114431
 20
3938.429081909433
 42
0.4142135623730996
 10
12730.54183114431
 20
3938.929081909433
 10
12730.54183114431
 20
3947.929081909432
 42
0.4142135623730904
  0
ARC
  5
535B5
102
{ACAD_REACTORS
330
53593
102
}
330
18
100
AcDbEntity
  8
0
 62
     2
100
AcDbCircle
 10
12765.59278464323
 20
3947.37405849143
 30
0.0
 40
0.801
100
AcDbArc
 50
90.0
 51
270.0
  0
ARC
  5
535B6
102
{ACAD_REACTORS
330
53593
102
}
330
18
100
AcDbEntity
  8
0
 62
     2
100
AcDbCircle
 10
12765.59185324788
 20
3947.171945700733
 30
0.0
 40
1.003113223100251
100
AcDbArc
 50
293.5897772726194
 51
89.94680059137595
  0
CIRCLE
  5
535B7
102
{ACAD_REACTORS
330
53593
102
}
330
18
100
AcDbEntity
  8
0
 62
     2
100
AcDbCircle
 10
12765.59278464323
 20
3947.17380849143
 30
0.0
 40
0.6007500000000001
  0
ARC
  5
535B8
330
18
100
AcDbEntity
  8
0
 62
     2
100
AcDbCircle
 10
12770.04183114431
 20
3937.929081909432
 30
0.0
 40
0.5
100
AcDbArc
 50
270.0
 51
0.0
  0
LINE
  5
535B9
102
{ACAD_REACTORS
330
53593
102
}
330
18
100
AcDbEntity
  8
0
 62
     2
100
AcDbLine
 10
12765.59278464323
 20
3946.57305849143
 30
0.0
 11
12763.34998464323
 21
3946.57305849143
 31
0.0
  0
LINE
  5
535BA
102
{ACAD_REACTORS
330
53593
102
}
330
18
100
AcDbEntity
  8
0
 62
     2
100
AcDbLine
 10
12767.59528464323
 20
3945.371558491431
 30
0.0
 11
12763.18978464323
 21
3945.371558491431
 31
0.0
  0
LINE
  5
535BB
102
{ACAD_REACTORS
330
53593
102
}
330
18
100
AcDbEntity
  8
0
 62
     2
100
AcDbLine
 10
12763.18978464323
 20
3945.371558491431
 30
0.0
 11
12765.99328464323
 21
3946.25265849143
 31
0.0
  0
LINE
  5
535BC
330
18
100
AcDbEntity
  8
実線
100
AcDbLine
 10
12710.54183114431
 20
3958.429081909433
 30
0.0
 11
12787.5442494243
 21
3958.429081909433
 31
0.0
  0
LINE
  5
535BD
330
18
100
AcDbEntity
  8
0
 62
     2
100
AcDbLine
 10
12770.04183114431
 20
3949.429081909432
 30
0.0
 11
12736.04183114431
 21
3949.429081909432
 31
0.0
  0
ARC
  5
535BF
330
18
100
AcDbEntity
  8
0
 62
     2
100
AcDbCircle
 10
12736.04183114431
 20
3948.929081909432
 30
0.0
 40
0.5
100
AcDbArc
 50
90.0
 51
180.0
  0
ARC
  5
535C3
330
18
100
AcDbEntity
  8
0
 62
     2
100
AcDbCircle
 10
12770.04183114431
 20
3948.929081909432
 30
0.0
 40
0.5
100
AcDbArc
 50
0.0
 51
90.0
  0
LINE
  5
535C4
102
{ACAD_REACTORS
330
53593
102
}
330
18
100
AcDbEntity
  8
0
 62
     2
100
AcDbLine
 10
12767.99578464323
 20
3948.57555849143
 30
0.0
 11
12763.59028464323
 21
3948.57555849143
 31
0.0
  0
TEXT
  5
535C5
330
18
100
AcDbEntity
  8
0
 62
     7
100
AcDbText
 10
12750.92017074976
 20
3948.794272683381
 30
137.5
 40
1.5
  1
MADE IN JAPAN
 50
180.0
  7
MSｺﾞｼｯｸN
 11
12750.92017074976
 21
3949.068384358508
 31
137.5
100
AcDbText
 73
     1
  0
TEXT
  5
535C6
330
18
100
AcDbEntity
  8
0
 62
     7
100
AcDbText
 10
12750.92017074976
 20
3946.924486632995
 30
137.5
 40
1.5
  1
SN-16140
 50
180.0
  7
MSｺﾞｼｯｸN
 11
12750.92017074976
 21
3947.198598308121
 31
137.5
100
AcDbText
 73
     1
  0
LINE
  5
53937
330
18
100
AcDbEntity
  8
実線
100
AcDbLine
 10
12637.36104537174
 20
3842.860851802179
 30
0.0
 11
12642.82710305803
 21
3843.824665250381
 31
0.0
  0
LINE
  5
53938
330
18
100
AcDbEntity
  8
実線
100
AcDbLine
 10
12629.61567448661
 20
3842.561808107524
 30
0.0
 11
12629.61567448661
 21
3843.824665250381
 31
0.0
  0
LINE
  5
53939
330
18
100
AcDbEntity
  8
実線
100
AcDbLine
 10
12635.34710305803
 20
3841.39609382181
 30
0.0
 11
12635.34710305803
 21
3845.213808107524
 31
0.0
  0
LINE
  5
5393A
330
18
100
AcDbEntity
  8
実線
100
AcDbLine
 10
12671.42829586528
 20
3839.480894583723
 30
0.0
 11
12710.54183114431
 21
3839.480894583726
 31
0.0
  0
LINE
  5
5393B
330
18
100
AcDbEntity
  8
実線
100
AcDbLine
 10
12671.42829586528
 20
3832.480894583724
 30
0.0
 11
12710.54183114431
 21
3832.480894583726
 31
0.0
  0
LINE
  5
5393C
330
18
100
AcDbEntity
  8
実線
100
AcDbLine
 10
12648.44714815951
 20
3831.39609382181
 30
0.0
 11
12635.34710305803
 21
3831.39609382181
 31
0.0
  0
LINE
  5
5393D
330
18
100
AcDbEntity
  8
実線
100
AcDbLine
 10
12661.99940798273
 20
3834.995797155113
 30
0.0
 11
12649.55584746064
 21
3833.430655129141
 31
0.0
  0
LINE
  5
5393E
330
18
100
AcDbEntity
  8
実線
100
AcDbLine
 10
12671.45261042534
 20
3833.784084723806
 30
0.0
 11
12649.56170318274
 21
3831.030662272793
 31
0.0
  0
LINE
  5
5393F
330
18
100
AcDbEntity
  8
実線
100
AcDbLine
 10
12663.58997830061
 20
3834.795736373044
 30
0.0
 11
12649.55682341432
 21
3833.030656319749
 31
0.0
  0
LINE
  5
53940
330
18
100
AcDbEntity
  8
実線
100
AcDbLine
 10
12671.45261042534
 20
3838.208117407112
 30
0.0
 11
12649.56170318274
 21
3840.961539858126
 31
0.0
  0
LINE
  5
53941
330
18
100
AcDbEntity
  8
実線
100
AcDbLine
 10
12671.44675470324
 20
3835.808124550765
 30
0.0
 11
12649.55584746064
 21
3838.561547001778
 31
0.0
  0
LINE
  5
53942
330
18
100
AcDbEntity
  8
実線
100
AcDbLine
 10
12671.44773065692
 20
3836.208123360156
 30
0.0
 11
12649.55682341432
 21
3838.961545811169
 31
0.0
  0
LINE
  5
53943
330
18
100
AcDbEntity
  8
実線
100
AcDbLine
 10
12671.44187493482
 20
3833.808130503809
 30
0.0
 11
12649.55096769222
 21
3836.561552954822
 31
0.0
  0
LINE
  5
53944
330
18
100
AcDbEntity
  8
実線
100
AcDbLine
 10
12649.54714815951
 20
3842.396099874853
 30
0.0
 11
12648.44714815951
 21
3842.396099874853
 31
0.0
  0
LINE
  5
53945
330
18
100
AcDbEntity
  8
実線
100
AcDbLine
 10
12654.04655639334
 20
3835.996101065459
 30
0.0
 11
12649.55096769222
 21
3835.430649176097
 31
0.0
  0
LINE
  5
53946
330
18
100
AcDbEntity
  8
実線
100
AcDbLine
 10
12648.44714815951
 20
3841.39609382181
 30
0.0
 11
12648.44714815951
 21
3842.396099874853
 31
0.0
  0
LINE
  5
53947
330
18
100
AcDbEntity
  8
実線
100
AcDbLine
 10
12631.94710305803
 20
3842.658950964667
 30
0.0
 11
12635.34710305803
 21
3842.658950964667
 31
0.0
  0
ARC
  5
53948
330
18
100
AcDbEntity
  8
実線
100
AcDbCircle
 10
12637.44538877232
 20
3842.382516607859
 30
0.0
 40
0.4857142857142857
100
AcDbArc
 50
99.99999999995258
 51
180.0
  0
LINE
  5
53949
330
18
100
AcDbEntity
  8
実線
100
AcDbLine
 10
12630.58710305803
 20
3841.590379536095
 30
0.0
 11
12632.04424591518
 21
3841.590379536095
 31
0.0
  0
ARC
  5
5394A
330
18
100
AcDbEntity
  8
実線
100
AcDbCircle
 10
12637.44538877232
 20
3841.881808107524
 30
0.0
 40
0.4857142857142857
100
AcDbArc
 50
180.0
 51
270.0
  0
LINE
  5
5394B
330
18
100
AcDbEntity
  8
実線
100
AcDbLine
 10
12629.61567448661
 20
3842.561808107524
 30
0.0
 11
12630.58710305803
 21
3841.590379536095
 31
0.0
  0
LINE
  5
5394C
330
18
100
AcDbEntity
  8
実線
100
AcDbLine
 10
12632.04424591518
 20
3841.590379536095
 30
0.0
 11
12631.94710305803
 21
3842.658950964667
 31
0.0
  0
LINE
  5
5394D
330
18
100
AcDbEntity
  8
実線
100
AcDbLine
 10
12636.95967448661
 20
3841.881808107524
 30
0.0
 11
12636.95967448661
 21
3842.382516607858
 31
0.0
  0
LINE
  5
5394E
330
18
100
AcDbEntity
  8
実線
100
AcDbLine
 10
12648.44714815951
 20
3841.39609382181
 30
0.0
 11
12635.34710305803
 21
3841.39609382181
 31
0.0
  0
LINE
  5
5394F
330
18
100
AcDbEntity
  8
実線
100
AcDbLine
 10
12649.54714815951
 20
3830.396099874852
 30
0.0
 11
12648.44714815951
 21
3830.396099874852
 31
0.0
  0
LINE
  5
53950
330
18
100
AcDbEntity
  8
実線
100
AcDbLine
 10
12648.44714815951
 20
3830.396099874852
 30
0.0
 11
12648.44714815951
 21
3831.39609382181
 31
0.0
  0
LINE
  5
53951
330
18
100
AcDbEntity
  8
実線
100
AcDbLine
 10
12635.34710305803
 20
3831.39609382181
 30
0.0
 11
12635.34710305803
 21
3841.39609382181
 31
0.0
  0
LINE
  5
53952
330
18
100
AcDbEntity
  8
実線
100
AcDbLine
 10
12649.54714815951
 20
3830.396099874852
 30
0.0
 11
12649.54714815951
 21
3842.396099874853
 31
0.0
  0
LINE
  5
53953
330
18
100
AcDbEntity
  8
実線
100
AcDbLine
 10
12625.84710305803
 20
3836.97109382181
 30
0.0
 11
12625.84710305803
 21
3840.42109382181
 31
0.0
  0
LINE
  5
53954
330
18
100
AcDbEntity
  8
実線
100
AcDbLine
 10
12625.84710305803
 20
3832.87109382181
 30
0.0
 11
12625.84710305803
 21
3836.32109382181
 31
0.0
  0
LINE
  5
53955
330
18
100
AcDbEntity
  8
実線
100
AcDbLine
 10
12625.84710305803
 20
3832.87109382181
 30
0.0
 11
12635.34710305803
 21
3832.87109382181
 31
0.0
  0
LINE
  5
53956
330
18
100
AcDbEntity
  8
実線
100
AcDbLine
 10
12625.84710305803
 20
3836.32109382181
 30
0.0
 11
12635.34710305803
 21
3836.32109382181
 31
0.0
  0
LINE
  5
53957
330
18
100
AcDbEntity
  8
実線
100
AcDbLine
 10
12625.84710305803
 20
3836.97109382181
 30
0.0
 11
12635.34710305803
 21
3836.97109382181
 31
0.0
  0
LINE
  5
53958
330
18
100
AcDbEntity
  8
実線
100
AcDbLine
 10
12625.84710305803
 20
3840.42109382181
 30
0.0
 11
12635.34710305803
 21
3840.42109382181
 31
0.0
  0
LINE
  5
53959
330
18
100
AcDbEntity
  8
実線
100
AcDbLine
 10
12671.42829586528
 20
3833.480894587023
 30
0.0
 11
12671.42829586528
 21
3838.480894580423
 31
0.0
  0
LINE
  5
5395A
330
18
100
AcDbEntity
  8
実線
100
AcDbLine
 10
12671.42829586528
 20
3832.480894583723
 30
0.0
 11
12671.42829586528
 21
3839.480894583723
 31
0.0
  0
LINE
  5
5395B
330
18
100
AcDbEntity
  8
実線
100
AcDbLine
 10
12671.44675470324
 20
3836.184077580154
 30
0.0
 11
12669.95225957212
 21
3835.996101065459
 31
0.0
  0
LINE
  5
5395C
330
18
100
AcDbEntity
  8
実線
100
AcDbLine
 10
12663.58997830061
 20
3837.196465757874
 30
0.0
 11
12661.99940798273
 21
3836.996404975805
 31
0.0
  0
LINE
  5
5395D
330
18
100
AcDbEntity
  8
実線
100
AcDbLine
 10
12642.82710305803
 20
3843.824665250381
 30
0.0
 11
12642.82710305803
 21
3845.213808107524
 31
0.0
  0
LINE
  5
5395E
330
18
100
AcDbEntity
  8
実線
100
AcDbLine
 10
12641.85567448661
 20
3844.79609382181
 30
0.0
 11
12641.85567448661
 21
3845.213808107524
 31
0.0
  0
LINE
  5
5395F
330
18
100
AcDbEntity
  8
実線
100
AcDbLine
 10
12632.04424591518
 20
3843.824665250381
 30
0.0
 11
12635.34710305803
 21
3843.824665250381
 31
0.0
  0
LINE
  5
53960
330
18
100
AcDbEntity
  8
実線
100
AcDbLine
 10
12632.04424591518
 20
3844.79609382181
 30
0.0
 11
12632.46196020089
 21
3845.213808107524
 31
0.0
  0
LINE
  5
53961
330
18
100
AcDbEntity
  8
実線
100
AcDbLine
 10
12630.58710305803
 20
3844.79609382181
 30
0.0
 11
12629.61567448661
 21
3843.824665250381
 31
0.0
  0
LINE
  5
53962
330
18
100
AcDbEntity
  8
実線
100
AcDbLine
 10
12632.04424591518
 20
3843.824665250381
 30
0.0
 11
12632.04424591518
 21
3844.79609382181
 31
0.0
  0
LINE
  5
53963
330
18
100
AcDbEntity
  8
実線
100
AcDbLine
 10
12630.58710305803
 20
3844.79609382181
 30
0.0
 11
12641.85567448661
 21
3844.79609382181
 31
0.0
  0
LINE
  5
53964
330
18
100
AcDbEntity
  8
実線
100
AcDbLine
 10
12632.46196020089
 20
3845.213808107524
 30
0.0
 11
12642.82710305803
 21
3845.213808107524
 31
0.0
  0
LINE
  5
540EB
330
18
100
AcDbEntity
  8
実線
100
AcDbLine
 10
12615.66922194658
 20
3845.227210276491
 30
0.0
 11
12615.66922194658
 21
3843.177210276491
 31
0.0
  0
LINE
  5
540EC
330
18
100
AcDbEntity
  8
実線
100
AcDbLine
 10
12611.91922194658
 20
3843.177210276491
 30
0.0
 11
12611.91922194658
 21
3845.227210276491
 31
0.0
  0
TEXT
  5
540ED
330
18
100
AcDbEntity
  8
実線
370
    20
100
AcDbText
 10
12609.55672194658
 20
3837.939710276491
 30
0.0
 40
3.0
  1
１
 72
     1
 11
12610.73172194658
 21
3839.439710276491
 31
0.0
100
AcDbText
 73
     2
  0
TEXT
  5
540EE
330
18
100
AcDbEntity
  8
実線
370
    20
100
AcDbText
 10
12609.38172194658
 20
3831.707477367129
 30
0.0
 40
3.0
  1
３
 72
     1
 11
12610.73172194658
 21
3833.207477367129
 31
0.0
100
AcDbText
 73
     2
  0
LINE
  5
540EF
330
18
100
AcDbEntity
  8
実線
100
AcDbLine
 10
12608.08172194658
 20
3842.252210276491
 30
0.0
 11
12613.38172194658
 21
3842.252210276491
 31
0.0
  0
LINE
  5
540F0
330
18
100
AcDbEntity
  8
実線
100
AcDbLine
 10
12613.38172194658
 20
3836.627210276491
 30
0.0
 11
12608.08172194658
 21
3836.627210276491
 31
0.0
  0
LINE
  5
540F1
330
18
100
AcDbEntity
  8
実線
100
AcDbLine
 10
12608.08172194658
 20
3836.019977367129
 30
0.0
 11
12613.38172194658
 21
3836.019977367129
 31
0.0
  0
LINE
  5
540F2
330
18
100
AcDbEntity
  8
実線
100
AcDbLine
 10
12613.38172194658
 20
3830.394977367129
 30
0.0
 11
12608.08172194658
 21
3830.394977367129
 31
0.0
  0
LINE
  5
540F3
330
18
100
AcDbEntity
  8
実線
100
AcDbLine
 10
12607.30672194658
 20
3843.177210276491
 30
0.0
 11
12620.28172194658
 21
3843.177210276491
 31
0.0
  0
LINE
  5
540F4
330
18
100
AcDbEntity
  8
実線
100
AcDbLine
 10
12620.28172194658
 20
3829.464977367129
 30
0.0
 11
12607.30672194658
 21
3829.464977367129
 31
0.0
  0
LINE
  5
540F5
330
18
100
AcDbEntity
  8
実線
100
AcDbLine
 10
12608.08172194658
 20
3836.627210276491
 30
0.0
 11
12608.08172194658
 21
3842.252210276491
 31
0.0
  0
LINE
  5
540F6
330
18
100
AcDbEntity
  8
実線
100
AcDbLine
 10
12607.30672194658
 20
3829.464977367129
 30
0.0
 11
12607.30672194658
 21
3843.177210276491
 31
0.0
  0
LINE
  5
540F7
330
18
100
AcDbEntity
  8
実線
100
AcDbLine
 10
12608.08172194658
 20
3830.394977367129
 30
0.0
 11
12608.08172194658
 21
3836.019977367129
 31
0.0
  0
TEXT
  5
540F8
330
18
100
AcDbEntity
  8
実線
370
    20
100
AcDbText
 10
12615.45672194658
 20
3837.939710276491
 30
0.0
 40
3.0
  1
２
 72
     1
 11
12616.83172194658
 21
3839.439710276491
 31
0.0
100
AcDbText
 73
     2
  0
TEXT
  5
540F9
330
18
100
AcDbEntity
  8
実線
370
    20
100
AcDbText
 10
12615.55672194658
 20
3831.707477367129
 30
0.0
 40
3.0
  1
４
 72
     1
 11
12616.83172194658
 21
3833.207477367129
 31
0.0
100
AcDbText
 73
     2
  0
LINE
  5
540FA
330
18
100
AcDbEntity
  8
実線
100
AcDbLine
 10
12619.48172194658
 20
3842.252210276491
 30
0.0
 11
12619.48172194658
 21
3836.627210276491
 31
0.0
  0
LINE
  5
540FB
330
18
100
AcDbEntity
  8
実線
100
AcDbLine
 10
12620.28172194658
 20
3829.464977367129
 30
0.0
 11
12620.28172194658
 21
3843.177210276491
 31
0.0
  0
LINE
  5
540FC
330
18
100
AcDbEntity
  8
実線
100
AcDbLine
 10
12619.48172194658
 20
3836.019977367129
 30
0.0
 11
12619.48172194658
 21
3830.394977367129
 31
0.0
  0
LINE
  5
540FD
330
18
100
AcDbEntity
  8
実線
100
AcDbLine
 10
12615.66922194658
 20
3843.177210276491
 30
0.0
 11
12611.91922194658
 21
3843.177210276491
 31
0.0
  0
LINE
  5
540FE
330
18
100
AcDbEntity
  8
実線
100
AcDbLine
 10
12614.18172194658
 20
3836.627210276491
 30
0.0
 11
12614.18172194658
 21
3842.252210276491
 31
0.0
  0
LINE
  5
540FF
330
18
100
AcDbEntity
  8
実線
100
AcDbLine
 10
12613.38172194658
 20
3842.252210276491
 30
0.0
 11
12613.38172194658
 21
3836.627210276491
 31
0.0
  0
LINE
  5
54100
330
18
100
AcDbEntity
  8
実線
100
AcDbLine
 10
12614.18172194658
 20
3830.394977367129
 30
0.0
 11
12614.18172194658
 21
3836.019977367129
 31
0.0
  0
LINE
  5
54101
330
18
100
AcDbEntity
  8
実線
100
AcDbLine
 10
12613.38172194658
 20
3836.019977367129
 30
0.0
 11
12613.38172194658
 21
3830.394977367129
 31
0.0
  0
LINE
  5
54102
330
18
100
AcDbEntity
  8
実線
100
AcDbLine
 10
12619.48172194658
 20
3836.627210276491
 30
0.0
 11
12614.18172194658
 21
3836.627210276491
 31
0.0
  0
LINE
  5
54103
330
18
100
AcDbEntity
  8
実線
100
AcDbLine
 10
12614.18172194658
 20
3836.019977367129
 30
0.0
 11
12619.48172194658
 21
3836.019977367129
 31
0.0
  0
LINE
  5
54104
330
18
100
AcDbEntity
  8
実線
100
AcDbLine
 10
12614.18172194658
 20
3842.252210276491
 30
0.0
 11
12619.48172194658
 21
3842.252210276491
 31
0.0
  0
LINE
  5
54105
330
18
100
AcDbEntity
  8
実線
100
AcDbLine
 10
12619.48172194658
 20
3830.394977367129
 30
0.0
 11
12614.18172194658
 21
3830.394977367129
 31
0.0
  0
LINE
  5
54106
330
18
100
AcDbEntity
  8
実線
100
AcDbLine
 10
12611.91922194658
 20
3845.227210276491
 30
0.0
 11
12615.66922194658
 21
3845.227210276491
 31
0.0
  0
LINE
  5
54142
330
18
100
AcDbEntity
  8
想像線
 48
5.0
100
AcDbLine
 10
12710.54183114431
 20
3802.580848089318
 30
0.0
 11
12696.54183114431
 21
3800.880895376893
 31
0.0
  0
LINE
  5
54143
330
18
100
AcDbEntity
  8
想像線
 48
5.0
100
AcDbLine
 10
12710.54183114431
 20
3814.880866358055
 30
0.0
 11
12710.54183114431
 21
3802.580848089318
 31
0.0
  0
LINE
  5
54146
330
18
100
AcDbEntity
  8
想像線
 48
5.0
100
AcDbLine
 10
12696.54183114431
 20
3814.880866358055
 30
0.0
 11
12696.54183114431
 21
3800.880895376893
 31
0.0
  0
LINE
  5
54148
330
18
100
AcDbEntity
  8
想像線
 48
5.0
100
AcDbLine
 10
12696.54183114431
 20
3814.880866358055
 30
0.0
 11
12710.54183114431
 21
3814.880866358055
 31
0.0
  0
LINE
  5
54151
330
18
100
AcDbEntity
  8
想像線
 48
5.0
100
AcDbLine
 10
12718.42088426681
 20
3757.11772404325
 30
0.0
 11
12708.65418022303
 21
3754.970285540927
 31
0.0
  0
LINE
  5
54152
330
18
100
AcDbEntity
  8
想像線
 48
5.0
100
AcDbLine
 10
12708.65418022303
 20
3754.970285540927
 30
0.0
 11
12698.5071865825
 21
3801.119539041752
 31
0.0
  0
LINE
  5
54154
330
18
100
AcDbEntity
  8
想像線
 48
5.0
100
AcDbLine
 10
12708.47980458576
 20
3802.33046611494
 30
0.0
 11
12718.42088426681
 21
3757.11772404325
 31
0.0
  0
TEXT
  5
54158
330
18
100
AcDbEntity
  8
想像線
 48
5.0
100
AcDbText
 10
12614.84080025692
 20
3744.930755134778
 30
0.0
 40
3.0
  1
５
 72
     1
 11
12616.31580025693
 21
3746.430755134778
 31
0.0
100
AcDbText
 73
     2
  0
LINE
  5
54159
330
18
100
AcDbEntity
  8
想像線
 48
5.0
100
AcDbLine
 10
12614.45330025692
 20
3758.45048804414
 30
0.0
 11
12618.20330025692
 21
3758.45048804414
 31
0.0
  0
LINE
  5
5415A
330
18
100
AcDbEntity
  8
想像線
 48
5.0
100
AcDbLine
 10
12618.20330025692
 20
3756.40048804414
 30
0.0
 11
12614.45330025692
 21
3756.40048804414
 31
0.0
  0
TEXT
  5
5415B
330
18
100
AcDbEntity
  8
想像線
 48
5.0
100
AcDbText
 10
12614.94080025693
 20
3751.16298804414
 30
0.0
 40
3.0
  1
２
 72
     1
 11
12616.31580025693
 21
3752.66298804414
 31
0.0
100
AcDbText
 73
     2
  0
LINE
  5
5415C
330
18
100
AcDbEntity
  8
想像線
 48
5.0
100
AcDbLine
 10
12618.96580025692
 20
3743.618255134778
 30
0.0
 11
12613.66580025692
 21
3743.618255134778
 31
0.0
  0
LINE
  5
5415D
330
18
100
AcDbEntity
  8
想像線
 48
5.0
100
AcDbLine
 10
12613.66580025692
 20
3755.47548804414
 30
0.0
 11
12618.96580025692
 21
3755.47548804414
 31
0.0
  0
LINE
  5
5415E
330
18
100
AcDbEntity
  8
想像線
 48
5.0
100
AcDbLine
 10
12613.66580025692
 20
3749.243255134778
 30
0.0
 11
12618.96580025692
 21
3749.243255134778
 31
0.0
  0
LINE
  5
5415F
330
18
100
AcDbEntity
  8
想像線
 48
5.0
100
AcDbLine
 10
12618.96580025692
 20
3749.85048804414
 30
0.0
 11
12613.66580025692
 21
3749.85048804414
 31
0.0
  0
LINE
  5
54160
330
18
100
AcDbEntity
  8
想像線
 48
5.0
100
AcDbLine
 10
12625.86580025692
 20
3742.688255134779
 30
0.0
 11
12606.79080025692
 21
3742.688255134779
 31
0.0
  0
LINE
  5
54161
330
18
100
AcDbEntity
  8
想像線
 48
5.0
100
AcDbLine
 10
12606.79080025692
 20
3756.40048804414
 30
0.0
 11
12625.86580025692
 21
3756.40048804414
 31
0.0
  0
TEXT
  5
54162
330
18
100
AcDbEntity
  8
想像線
 48
5.0
100
AcDbText
 10
12608.94080025693
 20
3744.930755134778
 30
0.0
 40
3.0
  1
４
 72
     1
 11
12610.21580025692
 21
3746.430755134778
 31
0.0
100
AcDbText
 73
     2
  0
LINE
  5
54163
330
18
100
AcDbEntity
  8
想像線
 48
5.0
100
AcDbLine
 10
12614.45330025692
 20
3756.40048804414
 30
0.0
 11
12614.45330025692
 21
3758.45048804414
 31
0.0
  0
TEXT
  5
54164
330
18
100
AcDbEntity
  8
想像線
 48
5.0
100
AcDbText
 10
12609.04080025693
 20
3751.16298804414
 30
0.0
 40
3.0
  1
１
 72
     1
 11
12610.21580025692
 21
3752.66298804414
 31
0.0
100
AcDbText
 73
     2
  0
LINE
  5
54165
330
18
100
AcDbEntity
  8
想像線
 48
5.0
100
AcDbLine
 10
12612.86580025692
 20
3749.243255134778
 30
0.0
 11
12612.86580025692
 21
3743.618255134778
 31
0.0
  0
LINE
  5
54166
330
18
100
AcDbEntity
  8
想像線
 48
5.0
100
AcDbLine
 10
12613.66580025692
 20
3743.618255134778
 30
0.0
 11
12613.66580025692
 21
3749.243255134778
 31
0.0
  0
LINE
  5
54167
330
18
100
AcDbEntity
  8
想像線
 48
5.0
100
AcDbLine
 10
12612.86580025692
 20
3755.47548804414
 30
0.0
 11
12612.86580025692
 21
3749.85048804414
 31
0.0
  0
LINE
  5
54168
330
18
100
AcDbEntity
  8
想像線
 48
5.0
100
AcDbLine
 10
12607.56580025693
 20
3749.85048804414
 30
0.0
 11
12607.56580025693
 21
3755.47548804414
 31
0.0
  0
LINE
  5
54169
330
18
100
AcDbEntity
  8
想像線
 48
5.0
100
AcDbLine
 10
12607.56580025693
 20
3749.243255134778
 30
0.0
 11
12612.86580025692
 21
3749.243255134778
 31
0.0
  0
LINE
  5
5416A
330
18
100
AcDbEntity
  8
想像線
 48
5.0
100
AcDbLine
 10
12612.86580025692
 20
3749.85048804414
 30
0.0
 11
12607.56580025693
 21
3749.85048804414
 31
0.0
  0
LINE
  5
5416B
330
18
100
AcDbEntity
  8
想像線
 48
5.0
100
AcDbLine
 10
12607.56580025693
 20
3755.47548804414
 30
0.0
 11
12612.86580025692
 21
3755.47548804414
 31
0.0
  0
LINE
  5
5416C
330
18
100
AcDbEntity
  8
想像線
 48
5.0
100
AcDbLine
 10
12613.66580025692
 20
3749.85048804414
 30
0.0
 11
12613.66580025692
 21
3755.47548804414
 31
0.0
  0
LINE
  5
5416D
330
18
100
AcDbEntity
  8
想像線
 48
5.0
100
AcDbLine
 10
12612.86580025692
 20
3743.618255134778
 30
0.0
 11
12607.56580025693
 21
3743.618255134778
 31
0.0
  0
LINE
  5
5416E
330
18
100
AcDbEntity
  8
想像線
 48
5.0
100
AcDbLine
 10
12606.79080025692
 20
3742.688255134779
 30
0.0
 11
12606.79080025692
 21
3756.40048804414
 31
0.0
  0
LINE
  5
5416F
330
18
100
AcDbEntity
  8
想像線
 48
5.0
100
AcDbLine
 10
12607.56580025693
 20
3743.618255134778
 30
0.0
 11
12607.56580025693
 21
3749.243255134778
 31
0.0
  0
LINE
  5
54171
330
18
100
AcDbEntity
  8
想像線
 48
5.0
100
AcDbLine
 10
12625.06580025693
 20
3755.47548804414
 30
0.0
 11
12625.06580025693
 21
3749.85048804414
 31
0.0
  0
LINE
  5
54172
330
18
100
AcDbEntity
  8
想像線
 48
5.0
100
AcDbLine
 10
12625.06580025693
 20
3749.243255134778
 30
0.0
 11
12625.06580025693
 21
3743.618255134778
 31
0.0
  0
LINE
  5
54173
330
18
100
AcDbEntity
  8
想像線
 48
5.0
100
AcDbLine
 10
12625.86580025692
 20
3742.688255134779
 30
0.0
 11
12625.86580025692
 21
3756.40048804414
 31
0.0
  0
LINE
  5
54174
330
18
100
AcDbEntity
  8
想像線
 48
5.0
100
AcDbLine
 10
12662.02595324517
 20
3745.119377642502
 30
0.0
 11
12662.02595324517
 21
3754.119377642502
 31
0.0
  0
LINE
  5
54175
330
18
100
AcDbEntity
  8
想像線
 48
5.0
100
AcDbLine
 10
12655.1448055394
 20
3743.619377642501
 30
0.0
 11
12655.1448055394
 21
3755.619377642502
 31
0.0
  0
LINE
  5
54176
330
18
100
AcDbEntity
  8
想像線
 48
5.0
100
AcDbLine
 10
12662.02595324517
 20
3745.119377642502
 30
0.0
 11
12672.5448055394
 21
3745.119377642502
 31
0.0
  0
LINE
  5
54177
330
18
100
AcDbEntity
  8
想像線
 48
5.0
100
AcDbLine
 10
12655.1448055394
 20
3746.119377642502
 30
0.0
 11
12662.02595324517
 21
3746.119377642502
 31
0.0
  0
LINE
  5
54178
330
18
100
AcDbEntity
  8
想像線
 48
5.0
100
AcDbLine
 10
12655.1448055394
 20
3746.919377642501
 30
0.0
 11
12662.02595324517
 21
3746.919377642501
 31
0.0
  0
LINE
  5
54179
330
18
100
AcDbEntity
  8
想像線
 48
5.0
100
AcDbLine
 10
12654.0448055394
 20
3744.619371589459
 30
0.0
 11
12640.94476043792
 21
3744.619371589459
 31
0.0
  0
LINE
  5
5417A
330
18
100
AcDbEntity
  8
想像線
 48
5.0
100
AcDbLine
 10
12654.0448055394
 20
3743.619377642501
 30
0.0
 11
12654.0448055394
 21
3744.619371589459
 31
0.0
  0
LINE
  5
5417B
330
18
100
AcDbEntity
  8
想像線
 48
5.0
100
AcDbLine
 10
12655.1448055394
 20
3743.619377642501
 30
0.0
 11
12654.0448055394
 21
3743.619377642501
 31
0.0
  0
LINE
  5
5417C
330
18
100
AcDbEntity
  8
想像線
 48
5.0
100
AcDbLine
 10
12662.02595324517
 20
3754.119377642502
 30
0.0
 11
12672.5448055394
 21
3754.119377642502
 31
0.0
  0
LINE
  5
5417D
330
18
100
AcDbEntity
  8
想像線
 48
5.0
100
AcDbLine
 10
12655.1448055394
 20
3752.319377642502
 30
0.0
 11
12662.02595324517
 21
3752.319377642502
 31
0.0
  0
LINE
  5
5417E
330
18
100
AcDbEntity
  8
想像線
 48
5.0
100
AcDbLine
 10
12655.1448055394
 20
3749.219377642502
 30
0.0
 11
12662.02595324517
 21
3749.219377642502
 31
0.0
  0
LINE
  5
5417F
330
18
100
AcDbEntity
  8
想像線
 48
5.0
100
AcDbLine
 10
12655.1448055394
 20
3750.019377642501
 30
0.0
 11
12662.02595324517
 21
3750.019377642501
 31
0.0
  0
LINE
  5
54180
330
18
100
AcDbEntity
  8
想像線
 48
5.0
100
AcDbLine
 10
12655.1448055394
 20
3753.119377642502
 30
0.0
 11
12662.02595324517
 21
3753.119377642502
 31
0.0
  0
LINE
  5
54181
330
18
100
AcDbEntity
  8
想像線
 48
5.0
100
AcDbLine
 10
12654.0448055394
 20
3754.619371589459
 30
0.0
 11
12640.94476043792
 21
3754.619371589459
 31
0.0
  0
LINE
  5
54182
330
18
100
AcDbEntity
  8
想像線
 48
5.0
100
AcDbLine
 10
12642.5573318665
 20
3755.105085875173
 30
0.0
 11
12642.5573318665
 21
3755.605794375507
 31
0.0
  0
ARC
  5
54183
330
18
100
AcDbEntity
  8
想像線
 48
5.0
100
AcDbCircle
 10
12643.04304615221
 20
3755.105085875173
 30
0.0
 40
0.4857142857142857
100
AcDbArc
 50
180.0
 51
270.0
  0
ARC
  5
54184
330
18
100
AcDbEntity
  8
想像線
 48
5.0
100
AcDbCircle
 10
12643.04304615221
 20
3755.605794375508
 30
0.0
 40
0.4857142857142857
100
AcDbArc
 50
99.99999999995258
 51
180.0
  0
LINE
  5
54185
330
18
100
AcDbEntity
  8
想像線
 48
5.0
100
AcDbLine
 10
12638.05961758078
 20
3758.437085875173
 30
0.0
 11
12648.42476043792
 21
3758.437085875173
 31
0.0
  0
LINE
  5
54186
330
18
100
AcDbEntity
  8
想像線
 48
5.0
100
AcDbLine
 10
12636.18476043792
 20
3758.019371589459
 30
0.0
 11
12647.45333186649
 21
3758.019371589459
 31
0.0
  0
LINE
  5
54187
330
18
100
AcDbEntity
  8
想像線
 48
5.0
100
AcDbLine
 10
12647.45333186649
 20
3758.019371589459
 30
0.0
 11
12647.45333186649
 21
3758.437085875173
 31
0.0
  0
LINE
  5
54188
330
18
100
AcDbEntity
  8
想像線
 48
5.0
100
AcDbLine
 10
12648.42476043792
 20
3757.04794301803
 30
0.0
 11
12648.42476043792
 21
3758.437085875173
 31
0.0
  0
LINE
  5
54189
330
18
100
AcDbEntity
  8
想像線
 48
5.0
100
AcDbLine
 10
12642.95870275163
 20
3756.084129569828
 30
0.0
 11
12648.42476043792
 21
3757.04794301803
 31
0.0
  0
LINE
  5
5418A
330
18
100
AcDbEntity
  8
想像線
 48
5.0
100
AcDbLine
 10
12654.0448055394
 20
3754.619371589459
 30
0.0
 11
12654.0448055394
 21
3755.619377642502
 31
0.0
  0
LINE
  5
5418B
330
18
100
AcDbEntity
  8
想像線
 48
5.0
100
AcDbLine
 10
12655.1448055394
 20
3755.619377642502
 30
0.0
 11
12654.0448055394
 21
3755.619377642502
 31
0.0
  0
LINE
  5
5418C
330
18
100
AcDbEntity
  8
想像線
 48
5.0
100
AcDbLine
 10
12631.44476043792
 20
3746.094371589459
 30
0.0
 11
12631.44476043792
 21
3749.544371589459
 31
0.0
  0
LINE
  5
5418D
330
18
100
AcDbEntity
  8
想像線
 48
5.0
100
AcDbLine
 10
12640.94476043792
 20
3744.619371589459
 30
0.0
 11
12640.94476043792
 21
3754.619371589459
 31
0.0
  0
LINE
  5
5418E
330
18
100
AcDbEntity
  8
想像線
 48
5.0
100
AcDbLine
 10
12631.44476043792
 20
3746.094371589459
 30
0.0
 11
12640.94476043792
 21
3746.094371589459
 31
0.0
  0
LINE
  5
5418F
330
18
100
AcDbEntity
  8
想像線
 48
5.0
100
AcDbLine
 10
12631.44476043792
 20
3753.644371589459
 30
0.0
 11
12640.94476043792
 21
3753.644371589459
 31
0.0
  0
LINE
  5
54190
330
18
100
AcDbEntity
  8
想像線
 48
5.0
100
AcDbLine
 10
12631.44476043792
 20
3750.194371589459
 30
0.0
 11
12640.94476043792
 21
3750.194371589459
 31
0.0
  0
LINE
  5
54191
330
18
100
AcDbEntity
  8
想像線
 48
5.0
100
AcDbLine
 10
12631.44476043792
 20
3749.544371589459
 30
0.0
 11
12640.94476043792
 21
3749.544371589459
 31
0.0
  0
LINE
  5
54192
330
18
100
AcDbEntity
  8
想像線
 48
5.0
100
AcDbLine
 10
12631.44476043792
 20
3750.194371589459
 30
0.0
 11
12631.44476043792
 21
3753.644371589459
 31
0.0
  0
LINE
  5
54193
330
18
100
AcDbEntity
  8
想像線
 48
5.0
100
AcDbLine
 10
12640.94476043792
 20
3754.619371589459
 30
0.0
 11
12640.94476043792
 21
3758.437085875173
 31
0.0
  0
LINE
  5
54194
330
18
100
AcDbEntity
  8
想像線
 48
5.0
100
AcDbLine
 10
12637.64190329507
 20
3754.813657303745
 30
0.0
 11
12637.54476043792
 21
3755.882228732316
 31
0.0
  0
LINE
  5
54195
330
18
100
AcDbEntity
  8
想像線
 48
5.0
100
AcDbLine
 10
12635.21333186649
 20
3755.785085875173
 30
0.0
 11
12636.18476043792
 21
3754.813657303745
 31
0.0
  0
LINE
  5
54196
330
18
100
AcDbEntity
  8
想像線
 48
5.0
100
AcDbLine
 10
12636.18476043792
 20
3754.813657303745
 30
0.0
 11
12637.64190329507
 21
3754.813657303745
 31
0.0
  0
LINE
  5
54197
330
18
100
AcDbEntity
  8
想像線
 48
5.0
100
AcDbLine
 10
12637.64190329507
 20
3757.04794301803
 30
0.0
 11
12637.64190329507
 21
3758.019371589459
 31
0.0
  0
LINE
  5
54198
330
18
100
AcDbEntity
  8
想像線
 48
5.0
100
AcDbLine
 10
12636.18476043792
 20
3758.019371589459
 30
0.0
 11
12635.21333186649
 21
3757.04794301803
 31
0.0
  0
LINE
  5
54199
330
18
100
AcDbEntity
  8
想像線
 48
5.0
100
AcDbLine
 10
12635.21333186649
 20
3755.785085875173
 30
0.0
 11
12635.21333186649
 21
3757.04794301803
 31
0.0
  0
LINE
  5
5419A
330
18
100
AcDbEntity
  8
想像線
 48
5.0
100
AcDbLine
 10
12637.64190329507
 20
3758.019371589459
 30
0.0
 11
12638.05961758078
 21
3758.437085875173
 31
0.0
  0
LINE
  5
5419B
330
18
100
AcDbEntity
  8
想像線
 48
5.0
100
AcDbLine
 10
12637.64190329507
 20
3757.04794301803
 30
0.0
 11
12640.94476043792
 21
3757.04794301803
 31
0.0
  0
LINE
  5
5419C
330
18
100
AcDbEntity
  8
想像線
 48
5.0
100
AcDbLine
 10
12637.54476043792
 20
3755.882228732316
 30
0.0
 11
12640.94476043792
 21
3755.882228732316
 31
0.0
  0
LINE
  5
5419D
330
18
100
AcDbEntity
  8
想像線
 48
5.0
100
AcDbLine
 10
12684.02595324517
 20
3746.619377642502
 30
0.0
 11
12690.82647793203
 21
3746.619377642502
 31
0.0
  0
LINE
  5
5419E
330
18
100
AcDbEntity
  8
想像線
 48
5.0
100
AcDbLine
 10
12689.77121033227
 20
3752.619377642503
 30
0.0
 11
12684.02595324517
 21
3752.619377642502
 31
0.0
  0
LINE
  5
5419F
330
18
100
AcDbEntity
  8
想像線
 48
5.0
100
AcDbLine
 10
12684.02595324517
 20
3746.319377642502
 30
0.0
 11
12684.02595324517
 21
3752.919377642502
 31
0.0
  0
LINE
  5
541A0
330
18
100
AcDbEntity
  8
想像線
 48
5.0
100
AcDbLine
 10
12673.5448055394
 20
3746.319377642502
 30
0.0
 11
12672.5448055394
 21
3745.119377642502
 31
0.0
  0
LINE
  5
541A1
330
18
100
AcDbEntity
  8
想像線
 48
5.0
100
AcDbLine
 10
12673.5448055394
 20
3746.319377642502
 30
0.0
 11
12684.02595324517
 21
3746.319377642502
 31
0.0
  0
LINE
  5
541A2
330
18
100
AcDbEntity
  8
想像線
 48
5.0
100
AcDbLine
 10
12672.5448055394
 20
3754.119377642502
 30
0.0
 11
12673.5448055394
 21
3752.919377642502
 31
0.0
  0
LINE
  5
541A3
330
18
100
AcDbEntity
  8
想像線
 48
5.0
100
AcDbLine
 10
12684.02595324517
 20
3752.919377642502
 30
0.0
 11
12673.5448055394
 21
3752.919377642502
 31
0.0
  0
LINE
  5
541A4
330
18
100
AcDbEntity
  8
想像線
 48
5.0
100
AcDbLine
 10
12619.76580025692
 20
3743.618255134778
 30
0.0
 11
12619.76580025692
 21
3749.243255134778
 31
0.0
  0
TEXT
  5
541A5
330
18
100
AcDbEntity
  8
想像線
 48
5.0
100
AcDbText
 10
12620.99080025693
 20
3744.930755134778
 30
0.0
 40
3.0
  1
６
 72
     1
 11
12622.41580025693
 21
3746.430755134778
 31
0.0
100
AcDbText
 73
     2
  0
TEXT
  5
541A6
330
18
100
AcDbEntity
  8
想像線
 48
5.0
100
AcDbText
 10
12621.06580025693
 20
3751.16298804414
 30
0.0
 40
3.0
  1
３
 72
     1
 11
12622.41580025693
 21
3752.66298804414
 31
0.0
100
AcDbText
 73
     2
  0
LINE
  5
541A7
330
18
100
AcDbEntity
  8
想像線
 48
5.0
100
AcDbLine
 10
12618.20330025692
 20
3758.45048804414
 30
0.0
 11
12618.20330025692
 21
3756.40048804414
 31
0.0
  0
LINE
  5
541A8
330
18
100
AcDbEntity
  8
想像線
 48
5.0
100
AcDbLine
 10
12619.76580025692
 20
3749.85048804414
 30
0.0
 11
12619.76580025692
 21
3755.47548804414
 31
0.0
  0
LINE
  5
541A9
330
18
100
AcDbEntity
  8
想像線
 48
5.0
100
AcDbLine
 10
12618.96580025692
 20
3749.243255134778
 30
0.0
 11
12618.96580025692
 21
3743.618255134778
 31
0.0
  0
LINE
  5
541AA
330
18
100
AcDbEntity
  8
想像線
 48
5.0
100
AcDbLine
 10
12618.96580025692
 20
3755.47548804414
 30
0.0
 11
12618.96580025692
 21
3749.85048804414
 31
0.0
  0
LINE
  5
541AB
330
18
100
AcDbEntity
  8
想像線
 48
5.0
100
AcDbLine
 10
12625.06580025693
 20
3749.85048804414
 30
0.0
 11
12619.76580025692
 21
3749.85048804414
 31
0.0
  0
LINE
  5
541AC
330
18
100
AcDbEntity
  8
想像線
 48
5.0
100
AcDbLine
 10
12619.76580025692
 20
3749.243255134778
 30
0.0
 11
12625.06580025693
 21
3749.243255134778
 31
0.0
  0
LINE
  5
541AD
330
18
100
AcDbEntity
  8
想像線
 48
5.0
100
AcDbLine
 10
12619.76580025692
 20
3755.47548804414
 30
0.0
 11
12625.06580025693
 21
3755.47548804414
 31
0.0
  0
LINE
  5
541AE
330
18
100
AcDbEntity
  8
想像線
 48
5.0
100
AcDbLine
 10
12625.06580025693
 20
3743.618255134778
 30
0.0
 11
12619.76580025692
 21
3743.618255134778
 31
0.0
  0
LINE
  5
541B0
330
18
100
AcDbEntity
  8
想像線
 48
5.0
100
AcDbLine
 10
12679.80600842014
 20
3809.279140044141
 30
0.0
 11
12691.25475031691
 21
3744.184322960767
 31
0.0
  0
LINE
  5
541B1
330
18
100
AcDbEntity
  8
想像線
 48
5.0
100
AcDbLine
 10
12681.28307433551
 20
3800.880895376893
 30
0.0
 11
12696.54183114431
 21
3800.880895376894
 31
0.0
  0
LINE
  5
541B2
330
18
100
AcDbEntity
  8
想像線
 48
5.0
100
AcDbLine
 10
12696.54183114431
 20
3806.880895376897
 30
0.0
 11
12680.22780673575
 21
3806.880895376894
 31
0.0
  0
LINE
  5
541BC
330
18
100
AcDbEntity
  8
想像線
 48
5.0
100
AcDbLine
 10
12696.54183114431
 20
3812.980894583722
 30
0.0
 11
12693.54183114431
 21
3812.980894583722
 31
0.0
  0
LINE
  5
541BD
330
18
100
AcDbEntity
  8
想像線
 48
5.0
100
AcDbLine
 10
12696.54183114431
 20
3807.780894583725
 30
0.0
 11
12693.54183114431
 21
3807.780894583725
 31
0.0
  0
LINE
  5
541BE
330
18
100
AcDbEntity
  8
想像線
 48
5.0
100
AcDbLine
 10
12693.54183114431
 20
3812.980894583722
 30
0.0
 11
12693.54183114431
 21
3807.780894583725
 31
0.0
  0
LINE
  5
54BF5
330
18
100
AcDbEntity
  8
中心線
100
AcDbLine
 10
12671.0025602899
 20
3943.429081909433
 30
0.0
 11
12793.10917295195
 21
3943.429081909433
 31
0.0
  0
LINE
  5
55320
330
18
100
AcDbEntity
  8
想像線
 48
5.0
100
AcDbLine
 10
13201.23959641339
 20
3822.980894583733
 30
0.0
 11
13201.23959641339
 21
3722.480894583723
 31
0.0
  0
LINE
  5
55323
330
18
100
AcDbEntity
  8
想像線
 48
5.0
100
AcDbLine
 10
13162.43959641339
 20
3722.480894583723
 30
0.0
 11
13201.23959641339
 21
3722.480894583723
 31
0.0
  0
LINE
  5
55327
330
18
100
AcDbEntity
  8
想像線
 48
5.0
100
AcDbLine
 10
13195.33959641339
 20
3722.480894583723
 30
0.0
 11
13195.33959641339
 21
3822.971021061612
 31
0.0
  0
LINE
  5
5532A
330
18
100
AcDbEntity
  8
想像線
 48
5.0
100
AcDbLine
 10
13168.33959641339
 20
3759.480894583728
 30
0.0
 11
13195.33959641339
 21
3759.480894583728
 31
0.0
  0
LINE
  5
5532B
330
18
100
AcDbEntity
  8
想像線
 48
5.0
100
AcDbLine
 10
13185.23959641339
 20
3772.571021061613
 30
0.0
 11
13195.33959641339
 21
3772.571021061613
 31
0.0
  0
LINE
  5
5532C
330
18
100
AcDbEntity
  8
想像線
 48
5.0
100
AcDbLine
 10
13195.33959641339
 20
3822.980894583733
 30
0.0
 11
13201.23959641339
 21
3822.980894583733
 31
0.0
  0
LINE
  5
5532D
330
18
100
AcDbEntity
  8
想像線
 48
5.0
100
AcDbLine
 10
13185.23959641338
 20
3822.571021061613
 30
0.0
 11
13195.33959641339
 21
3822.571021061613
 31
0.0
  0
LINE
  5
5532E
330
18
100
AcDbEntity
  8
想像線
 48
5.0
100
AcDbLine
 10
13168.33959641338
 20
3722.480894583723
 30
0.0
 11
13168.33959641339
 21
3822.971021061612
 31
0.0
  0
LINE
  5
5532F
330
18
100
AcDbEntity
  8
想像線
 48
5.0
100
AcDbLine
 10
13162.43959641339
 20
3822.980894583733
 30
0.0
 11
13162.43959641339
 21
3722.480894583723
 31
0.0
  0
LINE
  5
55332
330
18
100
AcDbEntity
  8
想像線
 48
5.0
100
AcDbLine
 10
13178.43959641339
 20
3772.571021061613
 30
0.0
 11
13168.33959641339
 21
3772.571021061613
 31
0.0
  0
LINE
  5
55334
330
18
100
AcDbEntity
  8
想像線
 48
5.0
100
AcDbLine
 10
13162.43959641339
 20
3822.980894583734
 30
0.0
 11
13168.33959641339
 21
3822.980894583733
 31
0.0
  0
LINE
  5
55335
330
18
100
AcDbEntity
  8
想像線
 48
5.0
100
AcDbLine
 10
13178.43959641339
 20
3822.571021061613
 30
0.0
 11
13168.33959641339
 21
3822.571021061613
 31
0.0
  0
LINE
  5
55337
330
18
100
AcDbEntity
  8
想像線
 48
5.0
100
AcDbLine
 10
13178.43959641339
 20
3772.571021061613
 30
0.0
 11
13178.43959641339
 21
3822.565257203426
 31
0.0
  0
LINE
  5
55338
330
18
100
AcDbEntity
  8
想像線
 48
5.0
100
AcDbLine
 10
13185.23959641339
 20
3772.571021061613
 30
0.0
 11
13185.23959641338
 21
3822.565257203426
 31
0.0
  0
CIRCLE
  5
55599
102
{ACAD_REACTORS
330
5559B
330
555AF
102
}
330
18
100
AcDbEntity
  8
実線
 48
10.0
100
AcDbCircle
 10
12754.54183114431
 20
3844.480894583726
 30
0.0
 40
3.3
  0
CIRCLE
  5
5559A
102
{ACAD_REACTORS
330
5559B
330
555AF
102
}
330
18
100
AcDbEntity
  8
実線
 48
10.0
100
AcDbCircle
 10
12754.54183114431
 20
3844.480894583726
 30
0.0
 40
5.5
  0
LINE
  5
5559C
102
{ACAD_REACTORS
330
555AF
102
}
330
18
100
AcDbEntity
  8
中心線
100
AcDbLine
 10
12754.54183114431
 20
3836.208677424398
 30
0.0
 11
12754.54183114431
 21
3852.753111743054
 31
0.0
  0
CIRCLE
  5
555C9
102
{ACAD_REACTORS
330
555CC
330
555CD
102
}
330
18
100
AcDbEntity
  8
実線
 48
10.0
100
AcDbCircle
 10
12814.54183114431
 20
3844.480894583726
 30
0.0
 40
5.5
  0
CIRCLE
  5
555CA
102
{ACAD_REACTORS
330
555CC
330
555CD
102
}
330
18
100
AcDbEntity
  8
実線
 48
10.0
100
AcDbCircle
 10
12814.54183114431
 20
3844.480894583726
 30
0.0
 40
3.3
  0
LINE
  5
555CB
102
{ACAD_REACTORS
330
555CD
102
}
330
18
100
AcDbEntity
  8
中心線
100
AcDbLine
 10
12814.54183114431
 20
3836.208677424398
 30
0.0
 11
12814.54183114431
 21
3852.753111743054
 31
0.0
  0
CIRCLE
  5
555CE
102
{ACAD_REACTORS
330
555D1
330
555D2
102
}
330
18
100
AcDbEntity
  8
実線
 48
10.0
100
AcDbCircle
 10
12874.54183114431
 20
3844.480894583726
 30
0.0
 40
5.5
  0
CIRCLE
  5
555CF
102
{ACAD_REACTORS
330
555D1
330
555D2
102
}
330
18
100
AcDbEntity
  8
実線
 48
10.0
100
AcDbCircle
 10
12874.54183114431
 20
3844.480894583726
 30
0.0
 40
3.3
  0
LINE
  5
555D0
102
{ACAD_REACTORS
330
555D2
102
}
330
18
100
AcDbEntity
  8
中心線
100
AcDbLine
 10
12874.54183114431
 20
3836.208677424398
 30
0.0
 11
12874.54183114431
 21
3852.753111743054
 31
0.0
  0
CIRCLE
  5
555D3
102
{ACAD_REACTORS
330
555D6
330
555D7
102
}
330
18
100
AcDbEntity
  8
実線
 48
10.0
100
AcDbCircle
 10
12934.54183114431
 20
3844.480894583726
 30
0.0
 40
5.5
  0
CIRCLE
  5
555D4
102
{ACAD_REACTORS
330
555D6
330
555D7
102
}
330
18
100
AcDbEntity
  8
実線
 48
10.0
100
AcDbCircle
 10
12934.54183114431
 20
3844.480894583726
 30
0.0
 40
3.3
  0
LINE
  5
555D5
102
{ACAD_REACTORS
330
555D7
102
}
330
18
100
AcDbEntity
  8
中心線
100
AcDbLine
 10
12934.54183114431
 20
3836.208677424398
 30
0.0
 11
12934.54183114431
 21
3852.753111743054
 31
0.0
  0
CIRCLE
  5
555D8
102
{ACAD_REACTORS
330
555DB
330
555DC
102
}
330
18
100
AcDbEntity
  8
実線
 48
10.0
100
AcDbCircle
 10
12994.54183114431
 20
3844.480894583726
 30
0.0
 40
5.5
  0
CIRCLE
  5
555D9
102
{ACAD_REACTORS
330
555DB
330
555DC
102
}
330
18
100
AcDbEntity
  8
実線
 48
10.0
100
AcDbCircle
 10
12994.54183114431
 20
3844.480894583726
 30
0.0
 40
3.3
  0
LINE
  5
555DA
102
{ACAD_REACTORS
330
555DC
102
}
330
18
100
AcDbEntity
  8
中心線
100
AcDbLine
 10
12994.54183114431
 20
3836.208677424398
 30
0.0
 11
12994.54183114431
 21
3852.753111743054
 31
0.0
  0
CIRCLE
  5
555DD
102
{ACAD_REACTORS
330
555E0
330
555E1
102
}
330
18
100
AcDbEntity
  8
実線
 48
10.0
100
AcDbCircle
 10
13054.54183114431
 20
3844.480894583726
 30
0.0
 40
5.5
  0
CIRCLE
  5
555DE
102
{ACAD_REACTORS
330
555E0
330
555E1
102
}
330
18
100
AcDbEntity
  8
実線
 48
10.0
100
AcDbCircle
 10
13054.54183114431
 20
3844.480894583726
 30
0.0
 40
3.3
  0
LINE
  5
555DF
102
{ACAD_REACTORS
330
555E1
102
}
330
18
100
AcDbEntity
  8
中心線
100
AcDbLine
 10
13054.54183114431
 20
3836.208677424398
 30
0.0
 11
13054.54183114431
 21
3852.753111743054
 31
0.0
  0
LINE
  5
5564E
330
18
100
AcDbEntity
  8
中心線
100
AcDbLine
 10
13162.77387137181
 20
3844.480894583725
 30
0.0
 11
13200.90532145497
 21
3844.480894583726
 31
0.0
  0
LINE
  5
5564F
330
18
100
AcDbEntity
  8
破線
 48
0.3
100
AcDbLine
 10
13173.33959641339
 20
3847.780894583726
 30
0.0
 11
13190.33959641339
 21
3847.780894583726
 31
0.0
  0
LINE
  5
55650
330
18
100
AcDbEntity
  8
破線
 48
0.3
100
AcDbLine
 10
13173.33959641339
 20
3838.980894583726
 30
0.0
 11
13173.33959641339
 21
3849.980894583726
 31
0.0
  0
LINE
  5
55651
330
18
100
AcDbEntity
  8
破線
 48
0.3
100
AcDbLine
 10
13166.83959641339
 20
3849.980894583726
 30
0.0
 11
13173.33959641339
 21
3849.980894583726
 31
0.0
  0
LINE
  5
55652
330
18
100
AcDbEntity
  8
破線
 48
0.3
100
AcDbLine
 10
13173.33959641339
 20
3841.180894583726
 30
0.0
 11
13190.33959641339
 21
3841.180894583726
 31
0.0
  0
LINE
  5
55653
330
18
100
AcDbEntity
  8
破線
 48
0.3
100
AcDbLine
 10
13166.83959641339
 20
3838.980894583726
 30
0.0
 11
13173.33959641339
 21
3838.980894583726
 31
0.0
  0
LINE
  5
55654
330
18
100
AcDbEntity
  8
破線
 48
0.3
100
AcDbLine
 10
13196.83959641339
 20
3849.980894583726
 30
0.0
 11
13190.33959641339
 21
3849.980894583726
 31
0.0
  0
LINE
  5
55655
330
18
100
AcDbEntity
  8
破線
 48
0.3
100
AcDbLine
 10
13190.33959641339
 20
3838.980894583726
 30
0.0
 11
13190.33959641339
 21
3849.980894583726
 31
0.0
  0
LINE
  5
55656
330
18
100
AcDbEntity
  8
破線
 48
0.3
100
AcDbLine
 10
13196.83959641339
 20
3838.980894583726
 30
0.0
 11
13190.33959641339
 21
3838.980894583726
 31
0.0
  0
LINE
  5
56E51
330
18
100
AcDbEntity
  8
細線
100
AcDbLine
 10
13201.23959641339
 20
3822.980894583733
 30
0.0
 11
13221.23959641339
 21
3822.980894583733
 31
0.0
  0
LINE
  5
56E53
330
18
100
AcDbEntity
  8
細線
100
AcDbLine
 10
13221.23959641339
 20
3689.971572971562
 30
0.0
 11
13201.23959641339
 21
3689.971572971562
 31
0.0
  0
LINE
  5
56E54
330
18
100
AcDbEntity
  8
細線
100
AcDbLine
 10
13201.23959641339
 20
3722.480894583723
 30
0.0
 11
13201.23959641339
 21
3689.971572971562
 31
0.0
  0
TEXT
  5
575FE
330
18
100
AcDbEntity
  8
0
  6
Continuous
100
AcDbText
 10
13142.39001325386
 20
3585.487906137233
 30
0.0
 40
6.5
  1
ＳＥ-４２２１１Ａ
  7
まこ
100
AcDbText
  0
TEXT
  5
5762F
330
18
100
AcDbEntity
  8
0
  6
Continuous
100
AcDbText
 10
13143.53167992053
 20
3599.63450499997
 30
0.0
 40
5.0
  1
ＣＬユニット外形図（300N：ザグリ取付型）
 41
0.5
  7
まこ
100
AcDbText
  0
TEXT
  5
57660
330
18
100
AcDbEntity
  8
0
  6
Continuous
100
AcDbText
 10
13143.20203436635
 20
3614.122770529374
 30
0.0
 40
3.3
  1
NVA-C サーボコンパス コイルユニット　CLV-CME850A2B (300N)
 41
0.48
  7
まこ
100
AcDbText
  0
HATCH
  5
576D3
330
18
100
AcDbEntity
  8
細線
100
AcDbHatch
 10
0.0
 20
0.0
 30
0.0
210
0.0
220
0.0
230
1.0
  2
ANSI31
 70
     0
 71
     0
 91
        1
 92
        7
 72
     0
 73
     1
 93
        5
 10
13221.23959641339
 20
3689.971572971562
 10
13221.23959641339
 20
3822.980894583733
 10
13201.23959641339
 20
3822.980894583733
 10
13201.23959641338
 20
3722.480894583722
 10
13201.23959641339
 20
3689.971572971562
 97
        0
 75
     0
 76
     1
 52
0.0
 41
20.0
 77
     0
 78
     1
 53
45.0
 43
0.0
 44
0.0
 45
-1.767766952966369
 46
1.767766952966369
 79
     0
 47
0.0
 98
        1
 10
13209.57695090298
 20
3769.918238284106
1001
ACAD
1010
0.0
1020
0.0
1030
0.0
  0
VIEWPORT
  5
57665
330
57661
100
AcDbEntity
 67
     1
  8
0
100
AcDbViewport
 10
5.25
 20
3.5
 30
0.0
 40
12.6
 41
8.4
 68
     1
 69
     1
 12
5.25
 22
3.5
 13
0.0
 23
0.0
 14
0.5
 24
0.5
 15
0.0
 25
0.0
 16
0.0
 26
0.0
 36
1.0
 17
0.0
 27
0.0
 37
0.0
 42
50.0
 43
0.0
 44
0.0
 45
8.4
 50
0.0
 51
0.0
 72
   100
 90
   557152
  1

281
     0
 71
     1
 74
     0
110
0.0
120
0.0
130
0.0
111
1.0
121
0.0
131
0.0
112
0.0
122
1.0
132
0.0
 79
     0
146
0.0
  0
ENDSEC
  0
SECTION
  2
OBJECTS
  0
DICTIONARY
  5
C
330
0
100
AcDbDictionary
281
     1
  3
ACAD_DETAILVIEWSTYLE
350
56E48
  3
ACAD_GROUP
350
D
  3
ACAD_IMAGE_VARS
350
56E43
  3
ACAD_LAYOUT
350
73F
  3
ACAD_MLINESTYLE
350
1B
  3
ACAD_PLOTSETTINGS
350
740
  3
ACAD_PLOTSTYLENAME
350
73D
  3
ACAD_SCALELIST
350
56E17
  3
ACAD_SECTIONVIEWSTYLE
350
56E49
  3
AcadDim
350
56779
  3
AcDbVariableDictionary
350
11AC
  3
AcDsDecomposeData
350
576E0
  3
APPDATA
350
56E41
  3
CLOUDSETTINGS
350
5748D
  3
DWGPROPS
350
576DD
  3
FX_DICT_DIMENSION_PALETTE
350
56E4B
  0
DICTIONARY
  5
56DCC
330
2
100
AcDbDictionary
280
     1
281
     1
  3
ACAD_LAYERFILTERS
360
56DCD
  3
ACAD_LAYERSTATES
360
56DD9
  0
DICTIONARY
  5
56E48
102
{ACAD_REACTORS
330
C
102
}
330
C
100
AcDbDictionary
281
     1
  0
DICTIONARY
  5
D
102
{ACAD_REACTORS
330
C
102
}
330
C
100
AcDbDictionary
281
     1
  3
*A1
350
5559B
  3
*A10
350
555DC
  3
*A11
350
555E0
  3
*A12
350
555E1
  3
*A2
350
555AF
  3
*A3
350
555CC
  3
*A4
350
555CD
  3
*A5
350
555D1
  3
*A6
350
555D2
  3
*A7
350
555D6
  3
*A8
350
555D7
  3
*A9
350
555DB
  0
RASTERVARIABLES
  5
56E43
102
{ACAD_REACTORS
330
C
102
}
330
C
100
AcDbRasterVariables
 90
        0
 70
     1
 71
     1
 72
     0
  0
DICTIONARY
  5
73F
102
{ACAD_REACTORS
330
C
102
}
330
C
100
AcDbDictionary
281
     1
  3
Model
350
741
  3
Sheet1
350
57662
  0
DICTIONARY
  5
1B
102
{ACAD_REACTORS
330
C
102
}
330
C
100
AcDbDictionary
281
     1
  3
STANDARD
350
1C
  0
DICTIONARY
  5
740
102
{ACAD_REACTORS
330
C
102
}
330
C
100
AcDbDictionary
281
     1
  0
ACDBDICTIONARYWDFLT
  5
73D
102
{ACAD_REACTORS
330
C
102
}
330
C
100
AcDbDictionary
281
     1
  3
Normal
350
73E
100
AcDbDictionaryWithDefault
340
73E
  0
DICTIONARY
  5
56E17
102
{ACAD_REACTORS
330
C
102
}
330
C
100
AcDbDictionary
281
     1
  3
*A1
350
573E9
  3
A0
350
56E18
  3
A1
350
56E19
  3
A2
350
56E1A
  3
A3
350
56E1B
  3
A4
350
56E1C
  3
A5
350
56E1D
  3
A6
350
56E1E
  3
A7
350
56E1F
  3
A8
350
56E20
  3
A9
350
56E21
  3
B0
350
56E22
  3
B1
350
56E23
  3
B2
350
56E24
  3
B3
350
56E25
  3
B4
350
56E26
  3
B5
350
56E27
  3
B6
350
56E28
  3
B7
350
56E29
  3
B8
350
56E2A
  3
B9
350
56E2B
  3
C0
350
56E2C
  3
C1
350
56E2D
  3
C2
350
56E2E
  3
C3
350
56E2F
  3
C4
350
56E30
  3
C5
350
56E31
  3
C6
350
56E32
  3
C7
350
56E33
  3
C8
350
56E34
  3
C9
350
56E35
  3
D0
350
56E36
  3
D1
350
56E37
  3
D2
350
56E38
  0
DICTIONARY
  5
56E49
102
{ACAD_REACTORS
330
C
102
}
330
C
100
AcDbDictionary
281
     1
  0
XRECORD
  5
56779
102
{ACAD_REACTORS
330
C
102
}
330
C
100
AcDbXrecord
280
     1
 90
   990106
  3

 60
     0
 61
     0
 62
     1
 63
     3
 64
     0
 65
     0
 66
     0
 67
     3
 68
     1
 69
     0
 70
     0
 71
     0
 72
     0
 40
10.8693687371815
170
     0
  0
DICTIONARY
  5
11AC
102
{ACAD_REACTORS
330
C
102
}
330
C
100
AcDbDictionary
281
     1
  3
DIMASSOC
350
11AD
  3
SORTENTS
350
4B8FE
  0
DICTIONARY
  5
576E0
102
{ACAD_REACTORS
330
C
102
}
330
C
100
AcDbDictionary
281
     1
  3
AcDsRecords
350
576E1
  3
AcDsSchemas
350
576E2
1001
ACAD
1070
     2
  0
DICTIONARY
  5
56E41
102
{ACAD_REACTORS
330
C
102
}
330
C
100
AcDbDictionary
281
     1
  0
XRECORD
  5
5748D
102
{ACAD_REACTORS
330
C
102
}
330
C
100
AcDbXrecord
280
     1
 40
0.5
  0
XRECORD
  5
576DD
102
{ACAD_REACTORS
330
C
102
}
330
C
100
AcDbXrecord
280
     1
  1
DWGPROPS COOKIE
  2

  3

  4

  6

  7

  8
a-okamoto
  9

300
=
301
=
302
=
303
=
304
=
305
=
306
=
307
=
308
=
309
=
 40
0.0
 41
2452479.348123183
 42
2457695.100814641
  1

 90
        0
  0
DICTIONARY
  5
56E4B
102
{ACAD_REACTORS
330
C
102
}
330
C
100
AcDbDictionary
281
     1
  0
DICTIONARY
  5
56DCD
102
{ACAD_REACTORS
330
56DCC
102
}
330
56DCC
100
AcDbDictionary
280
     1
281
     1
  3
0
360
56DCE
  3
11
360
56DCF
  3
150_
360
56DD0
  3
160_
360
56DD1
  3
170_
360
56DD2
  3
171_
360
56DD3
  3
350_
360
56DD4
  3
4
360
56DD5
  3
5
360
56DD6
  3
7
360
56DD7
  3
kiseki
360
56DD8
  0
DICTIONARY
  5
56DD9
102
{ACAD_REACTORS
330
56DCC
102
}
330
56DCC
100
AcDbDictionary
281
     1
  0
GROUP
  5
5559B
102
{ACAD_REACTORS
330
D
102
}
330
D
100
AcDbGroup
300

 70
     1
 71
     1
340
55599
340
5559A
  0
GROUP
  5
555DC
102
{ACAD_REACTORS
330
D
102
}
330
D
100
AcDbGroup
300

 70
     1
 71
     1
340
555D8
340
555D9
340
555DA
  0
GROUP
  5
555E0
102
{ACAD_REACTORS
330
D
102
}
330
D
100
AcDbGroup
300

 70
     1
 71
     1
340
555DE
340
555DD
  0
GROUP
  5
555E1
102
{ACAD_REACTORS
330
D
102
}
330
D
100
AcDbGroup
300

 70
     1
 71
     1
340
555DD
340
555DE
340
555DF
  0
GROUP
  5
555AF
102
{ACAD_REACTORS
330
D
102
}
330
D
100
AcDbGroup
300

 70
     1
 71
     1
340
5559A
340
55599
340
5559C
  0
GROUP
  5
555CC
102
{ACAD_REACTORS
330
D
102
}
330
D
100
AcDbGroup
300

 70
     1
 71
     1
340
555CA
340
555C9
  0
GROUP
  5
555CD
102
{ACAD_REACTORS
330
D
102
}
330
D
100
AcDbGroup
300

 70
     1
 71
     1
340
555C9
340
555CA
340
555CB
  0
GROUP
  5
555D1
102
{ACAD_REACTORS
330
D
102
}
330
D
100
AcDbGroup
300

 70
     1
 71
     1
340
555CF
340
555CE
  0
GROUP
  5
555D2
102
{ACAD_REACTORS
330
D
102
}
330
D
100
AcDbGroup
300

 70
     1
 71
     1
340
555CE
340
555CF
340
555D0
  0
GROUP
  5
555D6
102
{ACAD_REACTORS
330
D
102
}
330
D
100
AcDbGroup
300

 70
     1
 71
     1
340
555D4
340
555D3
  0
GROUP
  5
555D7
102
{ACAD_REACTORS
330
D
102
}
330
D
100
AcDbGroup
300

 70
     1
 71
     1
340
555D3
340
555D4
340
555D5
  0
GROUP
  5
555DB
102
{ACAD_REACTORS
330
D
102
}
330
D
100
AcDbGroup
300

 70
     1
 71
     1
340
555D9
340
555D8
  0
LAYOUT
  5
741
102
{ACAD_REACTORS
330
73F
102
}
102
{ACAD_XDICTIONARY
360
576DE
102
}
330
73F
100
AcDbPlotSettings
  1

  2
IBM Infoprint 1316J RPCS(A3-00-裏).pc3
  4
A3
  6

 40
0.0
 41
0.0
 42
0.925994873046875
 43
0.9466552734375
 44
296.9259948730469
 45
419.9466552734375
 46
27.64
 47
16.34
 48
13399.53930111344
 49
2601.583770223464
140
13640.25641361182
141
2987.901808374525
142
1.0
143
1.0
 70
 11956
 72
     1
 73
     0
 74
     4
  7
monochrome.ctb
 75
    16
147
1.0
148
-13399.53930111344
149
-2601.583770223464
100
AcDbLayout
  1
Model
 70
     1
 71
     0
 10
0.0
 20
0.0
 11
12.0
 21
9.0
 12
0.0
 22
0.0
 32
0.0
 14
12606.79080025692
 24
3586.246239470567
 34
0.0
 15
13221.23959641339
 25
3959.792848229125
 35
137.5
146
0.0
 13
0.0
 23
0.0
 33
0.0
 16
1.0
 26
0.0
 36
0.0
 17
0.0
 27
1.0
 37
0.0
 76
     0
330
18
331
56DEB
  0
LAYOUT
  5
57662
102
{ACAD_REACTORS
330
73F
102
}
330
73F
100
AcDbPlotSettings
  1

  2
none_device
  4
ANSI_A_(11.00_x_8.50_Inches)
  6

 40
6.35
 41
19.05
 42
6.35
 43
19.05
 44
279.4
 45
215.9
 46
0.0
 47
0.0
 48
0.0
 49
0.0
140
0.0
141
0.0
142
1.0
143
1.0
 70
   688
 72
     0
 73
     0
 74
     5
  7

 75
    16
147
1.0
148
0.0
149
0.0
100
AcDbLayout
  1
Sheet1
 70
     1
 71
     1
 10
0.0
 20
0.0
 11
0.0
 21
0.0
 12
0.0
 22
0.0
 32
0.0
 14
1.000000000000000E+20
 24
1.000000000000000E+20
 34
1.000000000000000E+20
 15
-1.000000000000000E+20
 25
-1.000000000000000E+20
 35
-1.000000000000000E+20
146
0.0
 13
0.0
 23
0.0
 33
0.0
 16
1.0
 26
0.0
 36
0.0
 17
0.0
 27
1.0
 37
0.0
 76
     0
330
57661
331
57665
  0
MLINESTYLE
  5
1C
102
{ACAD_REACTORS
330
1B
102
}
330
1B
100
AcDbMlineStyle
  2
STANDARD
 70
     0
  3

 62
   256
 51
90.0
 52
90.0
 71
     2
 49
0.5
 62
   256
  6
BYLAYER
 49
-0.5
 62
   256
  6
BYLAYER
  0
ACDBPLACEHOLDER
  5
73E
102
{ACAD_REACTORS
330
73D
102
}
330
73D
  0
SCALE
  5
573E9
102
{ACAD_REACTORS
330
56E17
102
}
330
56E17
100
AcDbScale
 70
     0
300
1:1_XREF_XREF
140
1.0
141
1.0
290
     0
  0
SCALE
  5
56E18
102
{ACAD_REACTORS
330
56E17
102
}
330
56E17
100
AcDbScale
 70
     0
300
1:1
140
1.0
141
1.0
290
     1
  0
SCALE
  5
56E19
102
{ACAD_REACTORS
330
56E17
102
}
330
56E17
100
AcDbScale
 70
     0
300
1:2
140
1.0
141
2.0
290
     0
  0
SCALE
  5
56E1A
102
{ACAD_REACTORS
330
56E17
102
}
330
56E17
100
AcDbScale
 70
     0
300
1:4
140
1.0
141
4.0
290
     0
  0
SCALE
  5
56E1B
102
{ACAD_REACTORS
330
56E17
102
}
330
56E17
100
AcDbScale
 70
     0
300
1:5
140
1.0
141
5.0
290
     0
  0
SCALE
  5
56E1C
102
{ACAD_REACTORS
330
56E17
102
}
330
56E17
100
AcDbScale
 70
     0
300
1:8
140
1.0
141
8.0
290
     0
  0
SCALE
  5
56E1D
102
{ACAD_REACTORS
330
56E17
102
}
330
56E17
100
AcDbScale
 70
     0
300
1:10
140
1.0
141
10.0
290
     0
  0
SCALE
  5
56E1E
102
{ACAD_REACTORS
330
56E17
102
}
330
56E17
100
AcDbScale
 70
     0
300
1:16
140
1.0
141
16.0
290
     0
  0
SCALE
  5
56E1F
102
{ACAD_REACTORS
330
56E17
102
}
330
56E17
100
AcDbScale
 70
     0
300
1:20
140
1.0
141
20.0
290
     0
  0
SCALE
  5
56E20
102
{ACAD_REACTORS
330
56E17
102
}
330
56E17
100
AcDbScale
 70
     0
300
1:30
140
1.0
141
30.0
290
     0
  0
SCALE
  5
56E21
102
{ACAD_REACTORS
330
56E17
102
}
330
56E17
100
AcDbScale
 70
     0
300
1:40
140
1.0
141
40.0
290
     0
  0
SCALE
  5
56E22
102
{ACAD_REACTORS
330
56E17
102
}
330
56E17
100
AcDbScale
 70
     0
300
1:50
140
1.0
141
50.0
290
     0
  0
SCALE
  5
56E23
102
{ACAD_REACTORS
330
56E17
102
}
330
56E17
100
AcDbScale
 70
     0
300
1:100
140
1.0
141
100.0
290
     0
  0
SCALE
  5
56E24
102
{ACAD_REACTORS
330
56E17
102
}
330
56E17
100
AcDbScale
 70
     0
300
2:1
140
2.0
141
1.0
290
     0
  0
SCALE
  5
56E25
102
{ACAD_REACTORS
330
56E17
102
}
330
56E17
100
AcDbScale
 70
     0
300
4:1
140
4.0
141
1.0
290
     0
  0
SCALE
  5
56E26
102
{ACAD_REACTORS
330
56E17
102
}
330
56E17
100
AcDbScale
 70
     0
300
8:1
140
8.0
141
1.0
290
     0
  0
SCALE
  5
56E27
102
{ACAD_REACTORS
330
56E17
102
}
330
56E17
100
AcDbScale
 70
     0
300
10:1
140
10.0
141
1.0
290
     0
  0
SCALE
  5
56E28
102
{ACAD_REACTORS
330
56E17
102
}
330
56E17
100
AcDbScale
 70
     0
300
100:1
140
100.0
141
1.0
290
     0
  0
SCALE
  5
56E29
102
{ACAD_REACTORS
330
56E17
102
}
330
56E17
100
AcDbScale
 70
     0
300
1/128" = 1'-0"
140
0.0078125
141
12.0
290
     0
  0
SCALE
  5
56E2A
102
{ACAD_REACTORS
330
56E17
102
}
330
56E17
100
AcDbScale
 70
     0
300
1/64" = 1'-0"
140
0.015625
141
12.0
290
     0
  0
SCALE
  5
56E2B
102
{ACAD_REACTORS
330
56E17
102
}
330
56E17
100
AcDbScale
 70
     0
300
1/32" = 1'-0"
140
0.03125
141
12.0
290
     0
  0
SCALE
  5
56E2C
102
{ACAD_REACTORS
330
56E17
102
}
330
56E17
100
AcDbScale
 70
     0
300
1/16" = 1'-0"
140
0.0625
141
12.0
290
     0
  0
SCALE
  5
56E2D
102
{ACAD_REACTORS
330
56E17
102
}
330
56E17
100
AcDbScale
 70
     0
300
3/32" = 1'-0"
140
0.09375
141
12.0
290
     0
  0
SCALE
  5
56E2E
102
{ACAD_REACTORS
330
56E17
102
}
330
56E17
100
AcDbScale
 70
     0
300
1/8" = 1'-0"
140
0.125
141
12.0
290
     0
  0
SCALE
  5
56E2F
102
{ACAD_REACTORS
330
56E17
102
}
330
56E17
100
AcDbScale
 70
     0
300
3/16" = 1'-0"
140
0.1875
141
12.0
290
     0
  0
SCALE
  5
56E30
102
{ACAD_REACTORS
330
56E17
102
}
330
56E17
100
AcDbScale
 70
     0
300
1/4" = 1'-0"
140
0.25
141
12.0
290
     0
  0
SCALE
  5
56E31
102
{ACAD_REACTORS
330
56E17
102
}
330
56E17
100
AcDbScale
 70
     0
300
3/8" = 1'-0"
140
0.375
141
12.0
290
     0
  0
SCALE
  5
56E32
102
{ACAD_REACTORS
330
56E17
102
}
330
56E17
100
AcDbScale
 70
     0
300
1/2" = 1'-0"
140
0.5
141
12.0
290
     0
  0
SCALE
  5
56E33
102
{ACAD_REACTORS
330
56E17
102
}
330
56E17
100
AcDbScale
 70
     0
300
3/4" = 1'-0"
140
0.75
141
12.0
290
     0
  0
SCALE
  5
56E34
102
{ACAD_REACTORS
330
56E17
102
}
330
56E17
100
AcDbScale
 70
     0
300
1" = 1'-0"
140
1.0
141
12.0
290
     0
  0
SCALE
  5
56E35
102
{ACAD_REACTORS
330
56E17
102
}
330
56E17
100
AcDbScale
 70
     0
300
1-1/2" = 1'-0"
140
1.5
141
12.0
290
     0
  0
SCALE
  5
56E36
102
{ACAD_REACTORS
330
56E17
102
}
330
56E17
100
AcDbScale
 70
     0
300
3" = 1'-0"
140
3.0
141
12.0
290
     0
  0
SCALE
  5
56E37
102
{ACAD_REACTORS
330
56E17
102
}
330
56E17
100
AcDbScale
 70
     0
300
6" = 1'-0"
140
6.0
141
12.0
290
     0
  0
SCALE
  5
56E38
102
{ACAD_REACTORS
330
56E17
102
}
330
56E17
100
AcDbScale
 70
     0
300
1'-0" = 1'-0"
140
12.0
141
12.0
290
     0
  0
DICTIONARYVAR
  5
11AD
102
{ACAD_REACTORS
330
11AC
102
}
330
11AC
100
DictionaryVariables
280
     0
  1
1
  0
DICTIONARYVAR
  5
4B8FE
102
{ACAD_REACTORS
330
11AC
102
}
330
11AC
100
DictionaryVariables
280
     0
  1
96
  0
DICTIONARY
  5
576E1
102
{ACAD_REACTORS
330
576E0
102
}
330
576E0
100
AcDbDictionary
281
     1
  0
DICTIONARY
  5
576E2
102
{ACAD_REACTORS
330
576E0
102
}
330
576E0
100
AcDbDictionary
281
     1
  3
8796077903504
350
576E3
  3
8796077903520
350
576E4
  3
8796077903536
350
576E5
  3
8796077903552
350
576E6
  3
8796077903568
350
576E7
  3
8796077903584
350
576E8
  0
XRECORD
  5
56DCE
102
{ACAD_REACTORS
330
56DCD
102
}
330
56DCD
100
AcDbXrecord
280
     1
  1
0
  1
*0
  1
*
  1
*
 70
     0
  1
*
  1
*
  0
XRECORD
  5
56DCF
102
{ACAD_REACTORS
330
56DCD
102
}
330
56DCD
100
AcDbXrecord
280
     1
  1
11
  1
*11
  1
*
  1
*
 70
     0
  1
*
  1
*
  0
XRECORD
  5
56DD0
102
{ACAD_REACTORS
330
56DCD
102
}
330
56DCD
100
AcDbXrecord
280
     1
  1
150_
  1
150_*
  1
*
  1
*
 70
     0
  1
*
  1
*
  0
XRECORD
  5
56DD1
102
{ACAD_REACTORS
330
56DCD
102
}
330
56DCD
100
AcDbXrecord
280
     1
  1
160_
  1
160_*
  1
*
  1
*
 70
     0
  1
*
  1
*
  0
XRECORD
  5
56DD2
102
{ACAD_REACTORS
330
56DCD
102
}
330
56DCD
100
AcDbXrecord
280
     1
  1
170_
  1
170_*
  1
*
  1
*
 70
     0
  1
*
  1
*
  0
XRECORD
  5
56DD3
102
{ACAD_REACTORS
330
56DCD
102
}
330
56DCD
100
AcDbXrecord
280
     1
  1
171_
  1
171_*
  1
*
  1
*
 70
     0
  1
*
  1
*
  0
XRECORD
  5
56DD4
102
{ACAD_REACTORS
330
56DCD
102
}
330
56DCD
100
AcDbXrecord
280
     1
  1
350_
  1
350_*
  1
*
  1
*
 70
     0
  1
*
  1
*
  0
XRECORD
  5
56DD5
102
{ACAD_REACTORS
330
56DCD
102
}
330
56DCD
100
AcDbXrecord
280
     1
  1
4
  1
*4
  1
*
  1
*
 70
     0
  1
*
  1
*
  0
XRECORD
  5
56DD6
102
{ACAD_REACTORS
330
56DCD
102
}
330
56DCD
100
AcDbXrecord
280
     1
  1
5
  1
*5
  1
*
  1
*
 70
     0
  1
*
  1
*
  0
XRECORD
  5
56DD7
102
{ACAD_REACTORS
330
56DCD
102
}
330
56DCD
100
AcDbXrecord
280
     1
  1
7
  1
*7
  1
*
  1
*
 70
     0
  1
*
  1
*
  0
XRECORD
  5
56DD8
102
{ACAD_REACTORS
330
56DCD
102
}
330
56DCD
100
AcDbXrecord
280
     1
  1
kiseki
  1
kiseki*
  1
*
  1
*
 70
     0
  1
*
  1
*
  0
DICTIONARY
  5
576DE
330
741
100
AcDbDictionary
280
     1
281
     1
  3
ADSK_XREC_LAYOUTTHUMBNAIL
360
576DF
  0
XRECORD
  5
576E3
102
{ACAD_REACTORS
330
576E2
102
}
330
576E2
100
AcDbXrecord
280
     1
  1
AcDb_Thumbnail_Schema
102
{ATTRRECORD
341
576E5
  2
AcDbDs::TreatedAsObjectData
280
     1
291
     1
102
ATTRRECORD}
102
{ATTRRECORD
341
576E6
  2
AcDbDs::Legacy
280
     1
291
     1
102
ATTRRECORD}
  2
AcDbDs::ID
280
    10
 91
        8
102
{ATTRRECORD
341
576E7
  2
AcDs:Indexable
280
     1
291
     1
102
ATTRRECORD}
102
{ATTRRECORD
341
576E8
  2
AcDbDs::HandleAttribute
280
     7
282
     1
102
ATTRRECORD}
  2
Thumbnail_Data
280
    15
 91
        0
  0
XRECORD
  5
576E4
102
{ACAD_REACTORS
330
576E2
102
}
330
576E2
100
AcDbXrecord
280
     1
  1
AcDb3DSolid_ASM_Data
102
{ATTRRECORD
341
576E5
  2
AcDbDs::TreatedAsObjectData
280
     1
291
     1
102
ATTRRECORD}
102
{ATTRRECORD
341
576E6
  2
AcDbDs::Legacy
280
     1
291
     1
102
ATTRRECORD}
  2
AcDbDs::ID
280
    10
 91
        8
102
{ATTRRECORD
341
576E7
  2
AcDs:Indexable
280
     1
291
     1
102
ATTRRECORD}
102
{ATTRRECORD
341
576E8
  2
AcDbDs::HandleAttribute
280
     7
282
     1
102
ATTRRECORD}
  2
ASM_Data
280
    15
 91
        0
  0
XRECORD
  5
576E5
102
{ACAD_REACTORS
330
576E2
102
}
330
576E2
100
AcDbXrecord
280
     1
  1
AcDbDs::TreatedAsObjectDataSchema
  2
AcDbDs::TreatedAsObjectData
280
     1
 91
        0
  0
XRECORD
  5
576E6
102
{ACAD_REACTORS
330
576E2
102
}
330
576E2
100
AcDbXrecord
280
     1
  1
AcDbDs::LegacySchema
  2
AcDbDs::Legacy
280
     1
 91
        0
  0
XRECORD
  5
576E7
102
{ACAD_REACTORS
330
576E2
102
}
330
576E2
100
AcDbXrecord
280
     1
  1
AcDbDs::IndexedPropertySchema
  2
AcDs:Indexable
280
     1
 91
        0
  0
XRECORD
  5
576E8
102
{ACAD_REACTORS
330
576E2
102
}
330
576E2
100
AcDbXrecord
280
     1
  1
AcDbDs::HandleAttributeSchema
  2
AcDbDs::HandleAttribute
280
     7
 91
        1
284
     1
  0
XRECORD
  5
576DF
102
{ACAD_REACTORS
330
576DE
102
}
330
576DE
100
AcDbXrecord
280
     1
310
89504E470D0A1A0A0000000D49484452000001000000008508020000003B1AB1EE000000097048597300000EC400000EC401952B0E1B0000200049444154789CEDBD797C5BD77DE0FBBDB8D841000409800BB88B922882B216DB9225CB9663C776E225769CC5C9B49349A62FCB64E9E4B5934FFB66DABE493B6DA749A7E9A7
310
AF499A2669B3EF699C646C8FED7855EC58B1254B96A88514F7155C0062C7BDB8F7E2FD012E20099220C5CD32BE1F7DEE87B8CBB9E75E9DDF3DE7FCB603458A142952A4489122458A142952A4489122458A142952A4489122458A142952A4489122458A142952A4C81B1C71AB2B304D4325D1044D55B89DB43552E361606C75
310
25883A0EEF412F72A099D212F42291C4F4218B095187AAAD7BAD8BBCE1D916026034F0E8FF64570D9FFF18CD3E3EF54ECA1CFCFCC5D515B27F0727FE019B853FFB008A8AAAD152C7754DB4D471A495B71DE6F9B31B53FB226F64B68500A81AC3135CEAE7B52B84E2C24498BE002F9E23B39A42F422AAC673671899E47427B1
310
142F5FE45407970748AB8C85E81DDDA8FA1729B27EF8FDABBEA4BE9EE6E60DA84A916B1FFD56576011F138361BF17841275756525E4E6F6FEEF946AB411090E2E98DAA61916B0861AB2B90C3FDD00D40B39FFE0EE4A55BB0D180C341652597465126171C74B91DA1E7231B58CF22453684D9B1CFF1E31C3AB4E469562B9FFE
310
34BB77E73D68F7588D56C3FAD7ADC835CAE6F500768F351E4C6AEAD2335B3FB4CFFC5D5BCBC040F6CF3D7BB05A4DAAAA8AA2288A623299D4B479850C0E120E4FFF5DD5E21EB934B1FEB52F728DB2797380D63A538CC43227746B24F7ECE1C107B1580885B8EB2EBEF94D7EF003A3517CEF7BFF3C9D4EEFDFBF7FDFBE7D0F3D
310
74F8AFFF7AD8E3E1E2450E1DE29FFF995FFE724E00E444DA6C37A6A2F2663C5291373E9BA1067599CD3EBB5D6FB4C5A3A2A25942293191368A4289A25914CD92D62CE194184F1BDDBE9232636599CF67F0FB6DA3A3953E5FD9C99365E3E3B7DC607AE5E4336AAA5F0D5F9918F849B96DC422EA53095D78D04ED2920A596213
310
96C931D166345696949865A1A6CAE5108D7A8478BA380FDE46ECDDBB776C6C0C30994CAAAA6E7575A6D98C1E20944A8552A9864AC1208400A729BB7B4E6FE330010CC4E22983C4DEBDB8DDDC7FFF585F1F4E27A190F5327E3F9AF1E2B87AF1E4F33437D335C1F33FE5031F48F6C728A9E35280B138C0585617140AF9FC9E40
310
A0303D52914DE1C89123070F1E6C6F6F2F2D2DADADAD3D7B76BB5825376F08A48AE27078B913D2553031C117BE80C984D58AA6313909545561B76334D2D6467737B28C4E87CD86A6914814AA2F2DB285582C96C3870F472291071E78E089279E989A9ADAEA1ACDB1799360A3452F2795E5CEC89D045F1DDEE6B2B12BC1F529
310
ABC855D3DADA2A08C2AE5DBB7A7A7A2A2B2B2727279D4E673C1E371A8DB22C67321993C9148944CACBCB038180D1683C75EAD45657794B58BD097829BCCD65EB56D6B2BCE73882C0A7DFC57B6F0378D7ADFCDE3DFCF98778CB01FEFC433C742B9F7C27BAED646BD91244516C6BC4E735B535228A624B1D368BA817B9718F68
310
32E8EA2B055114B3A7010F3EF8A0206CDE2BDB4E96E0B2F591015BA979EAB5E83A1454009F7A17DD237CE47E92124F9DE2C3F7F17A37EFBF9D89309F791F3F7F91637BF9C9F38CBEB97B235555AD663EF94E69689CF3DF56BFF009FEE571F5D6EB1899544581661FDF794ACD9E063CF3CC3335353503334AF08DE61AFC3AD9
310
3DD6E8F872FAD675A3B6B6BCC63119A1AA1C398D94C664A0DA8DD5845EC4534A24414AA26B9840A880D212097A7A36BCCEEB85DF8FCF87DDCEA54BCB9D565D8DD3C9C58B0F1EA3C285ACF0D8CB3CFC162EF56335D3354C248EA232F4E26594E9E1F19D77DEF9CC33CF6C9A9AE81A14804DE3FEA35CD744F7084D557CE3097C
310
6EFA03F81B38718E661FC108351E0481033B9115348DB4CAD92B18F47CE02E5232CF9C46D5F0BAF8F1737CE8ED7C6BA84D397B7EAB9F6935ECD881CDC6EBAF2F774E5B9B5D2FFF5E734799831F3D4B7D050E1B4D55740CE276726598FB6EE2B797B018E919A1AD91B1291E3F556AB3D986868636E721B6853BF43AE2B253E1
310
2221B1AB8650949BF6B0AB86DB0F128EF1B107B01869A82421A169ECA967AC900FF3D2FCD907B8B98DC64AEE38C86484876FE36C17BF732767AEF0A54FF37A373E37CD3E7654F37A17660317FB28B3B3B386F7DF4134C1F814351E3E7A3FBF78910FDFC7932F24644FD59C496F13F1F97C8944A2B2B232168BADE2B25008B7
310
9BF1F1E5CEF1785AE2976E6EE3ED8731E8397E1D0E2BEFBE0DB381CE21840CFFE5612EF4F2A1B7037CE6611A2BB91CB9F9E2C58BC51E608DDCB09B0FDE8DCBC1C55E2C660EEFE1D5CB4C8479E93C77DFC8EFDCC95888477E4D5D05B7ECE5E047AE2A4CACA50EAB09B311BD9E600439CDC0384D555CE8E3581B2FB5E32C4127
310
20EA0884A8ABA03F40B59B708C9D35282A4909294D308A4EC0A8271805BF9FF675528415CC5D77DD75F2E4C9DDBB775FB972C5E974F6AC6A18B66285FD7EDADB7D6E4A4B988A21EA301AA87031384E6B03E77BF037104F3211219E2291A2CCC194E4D5E974A3A39B14BD71AD09406B3DA5760410453A0638B61759616F238F
310
BECC7F7C3BFD630C4D3032C96498BA0A1E7B797531371BCEA60B404B4B4B87286A603193923039AD298CE4EAE9ABAA18190150D53CC3FDC204402770F2CB3C76925802979D1F3DC70DBB51555A1B78F2159E9AAFF3ACABABEBEFEF5F97A72B84EDA4055A0F620D2DDE5A5151998AB3EF2097C6A928E37367499BF8E1388DD5
310
846C54F9914679B41DAE135718C25EEBA452A9FABD7B7B7EF9CBA606D20A3DA3A57AABEDB3770D7DEEFBF83C98F4BC36C22777B5FFE3CFF2052A9596A2D3157823298DDB493481AAA1175154FC0DBCEB56CE5C5978E666B67EAE3D0138A85EFAF83E04816094BB6EE0F33FC061E6D52B18F5D478F9DC7BF8D1B3B4D4F0F810
310
A3417ACAD6CFF4F0C6C466B3B57767833030E8492B9874789CECA8666C8ABA0AC8F0B6439CBCC02BB5B50B2FDEBD9B9212CE9D5BF12E5A86639F9AB7E7D5CB18F5FCEB0BADAAAAEEDB674E2412252525A9544A14C58989894D1BFF70ED4D82350D042EF5F38367F8E90906C6387385F13036336353BC7289AE612E0F301AE2
310
E445703A89C7B98AF9D65BF6E373E32DA5A182C165678305A1AA9496B2AA99E8D561B3D9AAF6ED338F5F181C2703B18C59158DAFBC121D9B622ACAF814AADBFBD463E38129249D89F676C6C7E7FE5DBC88A2CC4E82F736B1A38A864AFA73D37978BDB327ECDB41208441CFBE264683988D949608A1A9443216C808A6CB972F
310
5BADD6CECECE83070FF6F5F56DDA1BB8D67A808E413A7E92677F2C09D0353C7F6F7F3FF5F57476AEF976CE123E721F17FA482BFCE6C29A8B992118A4B5757ACCBD29D86CB6F6A79F2EBFEEB8343141652581406565E5E8A8ABBCBC3C3D319106D08DF9FC00C3C3CB1765D4F3D5CFF0A547F875BE2E412FF2FFFE071EFA33DE
310
F7165A1BF8DDBB181A672438F6D2791A2A79FE6C3F33839F898909B7DB3D31B149411DDB49003EFA510281AB698E6B61E74E8CC6355F6DBB811F4DA09A49ABEBE4CAB173279BE3085053436565E0D147FDD5D56228E413453118F4EA748C8DF94CA6D74E9C402B40415651C1D1A39C3E4D2AE538C8DF5D20EC033F949470E0
310
00DDDD783C1C3AC46F7FABE9F86990863B386D44B093C9D001A57504A3A4A74660CE545E5A5ABA993DC076D2025D771DBDBD4436379C772B348FCBB169F5B1D9D8B58BD75E03CC66F39FFCC99F7CF6B39F056EBFFDF6279E78A2D042FC7E4646989A5A282D7A3D6633F5F5806962F8E17DA1FA4AFEF76FF03760D4D3D6C885
310
3E6ABD3C77865BAFE3972F71DF517A86D9E16378825FBC5A096CDA3460A37A004120AB62CCAB67B41849CA00A28E4C86E9084755DDECD6BF2CD96F4326E76706040101B402B4A7332F60951766320802998D57CFC6E3C8D37173D75F7F7D6F6FEFEDB7DF7EF6EC594559D6637731C17C7E4E8A323B93F13B43077672EB3E6C
310
66DC0EC6A6B8E7264C064C46F637F3F1074848DC75034FBCC2A7DEC9853E4E8DF8CE1530B15E2F364400EE3BC2AE1AAADD38AC3C7D9AE1496EDBCFD3A7988CA0A8DCDC86D9485D057FFB433ABECD177EC233A7397971232A5200D128763BD13CCE73FFFD83D47879F9026E0793110481F65E3EFE202F9DE71F7FB65C91FFE1
310
6E8EFAE91A269E62789223AD7CED513EF836CC46FEE04B2BD5676C0CAF974060ED4FB47A8687872727271545191D1D5DF74FEF994E4626F9F6938C0471DA9064BEF734C128952E06C779E512AAC6232748CAF4690FBFF8CC0FBB864F793C9EF1E50DCCEBC77A0B80C14065652C39A0651818C3534A3CC5F96EEABC740E515D
310
CE68109D8EDF5EC26EE5A6562EF66133A3586CB8D63E10BF2AFAFBA7471D06C37414CE8C308C8769A8C26E05819149AACA49A478FE0C43B9D333976BBAF7178459FB5165196D8DF48F61B7224C32124410988ACD4F4D67B160B3110EB3206E736202BF7F93056075D6DF55A2650804F9CE7FE3B71749A4301A78AD931B5AE8
310
1DE50FDECBA32FF3FDA7016A6A6A5ADB0E5CB8D455A31B75BBDD6F5801B8E9269A9A9E3B75EAB98B399D783DDF1D011FE34035DF18001367DA41E089AF91C980C5C27D7BB6D826B56B17070F72F9F26C8CD9577AF872178230E3A7180123A7B34AF3D9F9AECBC58103A4D37474CCB6DABF6DE76FDBD109A4B31706C1C1E7CE
310
CDBFD066A3A5858E0E5E7E79E39F6DEB49A7311B49A41075F405D0E9A8AFA0A90A9B79FA8403070E3CFDF4D3353535AFBEFAEAAA8761DB883524365C976BAF86EC7DD77CF7EA6A5CAEABBA75213B3782A56F74E4C81187C3013436369A4CA63594307D74E6045137BD35CE7C72451D3A01FD224394D1686C6D6DD5156C63BE
310
4A36E9366BE3889F864A1AAB0A3DDFEDE4CE1BF8D0DBAEF6BE463DEF39CE47EE2BDCD20FE06FE01D47B9E7F05AEE78CF611EBA85665F4127DF77845BAFA3BE6215E5DF7E80DB0FE43FA41378E816EEBD097D537D768F20087EBFFFAEBBEE6A696901CACAD621BC2EEB74A86AC8CADC1E2D83B2C808D9DCDC7CF1E2C523478E
310
6C4E5CD876B203CC472FF2671F2018E1A72FD0539869E8C163DC7B132FAFD6203534447575EE8E83BB78FF1D9CEFA1AD91D7BB0A2DE6ED8739B697275F59E5DD0138BE1FAB097F037FF16D088570B9082DE9ABFDBB6F2592A47390CFFFA0A0C25BEBF9F07D345472EC5379BC5F1D361AAB482B18E4926CE33C78F0E0E4E4A4
310
D96C9E9898282D2D8DAF6FDE81E3C7999870960084CBEBC955F9D7D7D3D77701B8EBAED75F7A69CF9E3D172E5CBD717105B693003CF820070E6435D380027F7781709C902D67E86CB170FC3892C4D4D4EC99B33C9B667208B377099BD43BDE41384C26C30B2F2C3CB47367EEAF7316BE1FC0E2A2C3017EB8E71EA6A6D0EBF3
310
5C0878BD4812E1F0CFC39CEB422DCDB9FB6DB721CB389D3CFE78FE479EB9EFAF350C69BA2233D77EEC630C0F63B371E2C4E2BC173F9944D1E88CE57BCCBD7BA9AE2695E2F5D7674568C0CA37066110DA60F68BBB7327BB76D1DE1E8EE1B2331A242901582C164DD346464662B158737373341A6D6E6E9624697C7C3C9BD567
310
15949561342E346B4C4C58AFB497B9B09A09C7787B49BBB7946F3EC147EFE72BDDD87BDA3FF836FEBFCBECD9B36770707075B7DB16E40C0ACBECDC73186FE9F4CF6C50DCF5BB703BA7F7DCD4CAEF3F44B59BCA6C1FDBD68658806F9228D2D6B6BAD1C9EC857E7FFE5BE48C56577721CBCE0196BF90A5C7D0FBF615FA36F2DE
310
51AF5FD99CACD3B1772F6032F0C1B7717C1FD6EBFD2693E9D8B163B71E747CF881D27207470F56EE6FE6FEDB2A9AAAF8E83B4B5BEB0BAE7F960F7C808F7F7CFADDCEFE3B74C8DF80B7144F29F8FDEFBF9DFFFBDDB89D3CFC16F0FBDF7A3DDFFC7FC0EF1704A1B5B575D58FBF7A36B007F094F2BEDBB198D08B0442DC7D23A1
310
28C7F7D13D425A212971AA83DDB5DC793D87F7F089BF2793C914E497A6AA64320519EA175F38BB5DC70B93C9598BD2BADD31AB06595B55B3AF7145539AA665DFA1A2D23342066405834E178FC7FDEEC81FBF977A377B1B47BB47F8BFEE0DFCE8395EEB9CCA8E5B564136BBC9821EE0C891B8D36B75D23B02E5E53FBAE8B55B
310
4939F8D52054959F1CF0BEFE6FE02D3B74E8D0E6F8456FA0005C1EE02FBFAF9BD871FDE4680298EAE68CC27080CE19AFAA5D37F093093C4E9E3E43C6B9A5FD9DA6A15FE3AB289765595136290BC506A06A3C7F160C066E7466D36AFF566BFDD853C2E0B8689A542D66E39597E44BA362B94F0D49000802E7F3C72E9BF5FAD4
310
8A1ACC0B177A0DD3E9BB2B43A1512553EED9D175E58ACFD73C79E182B7B9B9EBCA951DA5F2C99327FD7EFFC8C6FB056EEC1CE0B2AE8197CE934C0267DA013A733E071DED909B21B1BA9CA5156EF33051E899055E38D4C5DBEEA563690BFCD277148C19C4A53FB7CB5775A9A389108D3B58142C5210463043211DA42A6130CC
310
0D266FBD556B6FD759ADC7761FF9F177BFBBF7E0C18EF6F69B8F1FFFF1D77FADD3EB4767F3945454E07693F5D69492B9F5AF7295F48472A2C9A42426CBC29BE6043D8F8742FE96967430E8AFA8C86EBD168BB9A2221D0A1D3870A0A3A363B58FBE063678126CB1645B7F41340C515852E792645FAC662DD559FA42992A234B
310
97B9CC1D558B96D1405AF5850015903F087ED858D624AFE9196D525FDC972928D6B33240C48365A68D9E3D2BB9DDA746474F8D8ED6BADDAFF4F77BECF6FF73FAB4B3A464F4AD6FE5CB5F9E3E2D10C0EF9F1600EB50EE4B539D196C39E5970E91CCBF74D5CE9D3B3B3B3B9B9A9A7A7B7BBD5E6FB6AD7B3C9E77BFFBDD5FFCE2
310
17A7A6A66EB9E59675D63E2DC176D202F54B14A273DC494589217609563BEC68A2A2C410EB83C5CA0C41A0FA205D3FCC7F611D156586D820E4EB9045AB4E5533F905C0434583211680A546B3D1F13C9501AACCAE83C702E77ECDE5252E5C0A3BDE16436F8CCCA525FC1073314719CE798966335DD3FF01D9AFFDA88E3BAF47
310
3658C61604034C4C643B014B465712F1643299ACFBBE6453B21DBAD7EB5514256E89E77D2BBB77EFEEE9E979E73BDFF9E8A38FEEDFBFFFF2E5CBF7DE7B6F3018ACADAD0D87C30F3EF8E02F7FF94B6D0D73BC35B19102301B4FBD8EEC8512D0C31E78A580FFE3599AC00C66688578EEC00B804CC63BF48B311F2CCE46530995
310
A0876A9061E1824C488AA2E4FDDF72402B24206BDE5A2C038D78AB95FCAAC5E654C9133F0ED86137AB9381BDA08314EC81ABD6A1B7D6535F81C9907CB1E7CABCBE79A613486AC9E478D2EBF5668D65950E47DA6412453193C9048341165930FFEEE3E8745CE8BDFCBE9B88A77EF6AF9FE1DF4EFCF63F7F92FFF56F2FE86CBB
310
1F79E411411032998C2CCB81CDF2862A54008ED4D0E2A6CACE6F06188AD01104B8A9860776331C652C4E58E2FF5CC134393627F437DFCC238FAC6F751D1693436FAA1D76C60EC942A7401AB35E2FCEA8FCA2B20CD867025CD29A26ABAA4E102C7ABD54A902AE2E8BA32DE1AA35EB03BADC4B6C2643F550BFB1C941145955ED
310
392132933549A320D60E3BA56A955DE82E08B2AA9A44513F337416044127086A8E0C24D2694110747B04046AC79DD16A992AECD1B93225559555D5B85BACD3DBECAE4CF67CCBCC2C3CEDD4926569D7ABC99A7A07E5985CA2A269D2FC9B2E78D2EC1E835EA73667EA7EEDD4DC99A828041B5D58ADCBBDCD9DF37FDE7EFBDCDF
310
C78EF1BDEF4D46A2AA46E750BEE5DAC6C7BDF5F5766B041736AB35303E5E6234BA2096C94413892A8FC7A1285899C29AFBC5B098B09A1045DC4E4A2C34FBF0B989A5283126228A222FA54CDB480A1580163723604CA07770C04647908355D88D3CDA417D29E7C700FC1EFC15C18BDAB4D77BB8D21AD62931709AF1D957BE45
310
B7C68AD385C88014D92D99EAC5C099384B984AC7F28E1D2F4123A603622426453AA48573C438C113C97058CA8E64E695701E8E62DF691C8C467825C7903483DB6A955535222DEAED7F0BB7606A14C79438E7198B2CAAD5F344DD5238B4E8C2103871EC320DEA229C67A9C7CCFFA4A7B0B4E9FB47C39901182C200B793BC067
310
3F88CFC35FA4AFEB9B5559D6D561B58E04A23F7C966A373816DF7B6CCCEF9F480EE8E3FA72B3396D32855A282923342E88DDD6402A35198BA90955CBAE09B463076633F09F9FA5D455169E0A7A13656313C1BAD11DE363233B745AD061756C512848A102603322C6292B61489A8E1439564B200E167A42B4CFF8AE5696A877
310
34D23D855107CF7CAB6C2F7A1D027CB11007016F01E78C40844C15ABD690042149260A4BA816C2634B4C6353F01C9916E8C8D3FA9723032F90D9035DE49FDC27090F2C71D3B36476431FA4567347A01DE23005AB49C1FF4FBFC46C60C093E38DDBDF4F2050EBE54B9F6678828FE60D118BC5F4470F5806AE4C4D4D25934912
310
B82E6682F521C6B15AAD2693491264CDEDA1B595EE6E52294006A1A2A2D9EDB647D30E997A59295375D10B719B4E3ABB846A75A3295400D22A0E07290575265CE9E99EE976EFF7CC9DA6133088EC2E27916622415790726B419FFF5510A7FBCA9A721A26E9EE58D3851ADD17D69845B1FBE25A2FBCBCC60B7B7A57BDFCC4A1
310
16F637F3F57E16DA62325CEA6764A9D4D64343B2F776393C93D72A8DACAAA401128904C0BDFF8E113DCF3D8720603466CD85814060767C7FE38D37AAAA7AF2E4C963C78ED5D7D76F6628F02C850A80AA919248E940239DB56F66A69B7EA9794E06DC561EBF3267850CC4994C6037CD1392A5286408B40D51354DDB8408C68D
310
C466269E425AD44D85135CECC35982D190AF0F53147EF5AFB93BE405A6EBFFFDBD697725A391DA5AAECCEBB577EFDE6DB7DB3D1E4F381C1E1919D934FFE705142A00CFF662D64F0F1F2693007917236DCF17C71391F2EF5F482143A0ED879AC9A89BA5B3DB20EC569C364CC70EF3E23CB785489C6F3F49C66A55DE7FF3B421
310
73594A8CC6C042FD1A004D4DD4D52D1080AEAEAEAF7DED6B8024499BA6F45C4CA102D075758994DF48D8C00C0214E670AF19C58C5686524605ACD8D14D8002C9457AD82D61460BF4956EE886FB3C73CE6D336EAA69401066ED030B89E478A466A78662CE1EC58DB70CBF1F976BB13D545194ED10F9B59D0C619B80054A6171
310
808728F2D67B79E21700714841A6D005CBCC5664359892460A3ADF0D7A3033CF62BA9849886E8A90CCD6D9664392E639AEE5FE9D6F86BAE78EC6C868CCDD503AD13B05E8F6E91892EBF75729A71420BB7F4FB560B4D74B2693A9B55532184C2693A228CF3EFB6C7ADBAC607B2D0A800E4A596C850148C254BE966DD0B1BF74
310
BD96E85B8E02F39D9583071AF21D1A86C82AF55185108FF3D453ABBA62B22F3C76259896D4EC7A84BE360FA048CA50FB3890DD6FD1976851C1DCD4943A77CE3C32924EA74551DCC201CF62B652009C5525256573CE5263BA509A35F5893BC09CF3535BA2952F433ACDB65A9970328FC9799A6AA8989FD35585659729DA2014
310
4999DD6689C9B27EA645CDEE379BCDA9C1417343832CCB06834196E5CD5C036F45B64C00AA5ADC65B58EF6A7BAE77615120B6E829AF9CD1DB8B2A42FDA26B0A42BC406310C0BB2748AD03A3FC79F04A3B0C13976F54671760BA425D5248A92A4E61E854C2A95323B1C723A6D30182449329BCDF98BDB223655004AABED5333
310
DE578DA5A5E68C71D0640A2FB6A1E66280BA9C169F82A1D59B87AE6DD4456E3F46A882D900AE248CB0EE3A6683593FBB05D4B46A14C5445ACD3D2A6B898375F2403811CD94699264369B53A9EDF59FB7A902E0DDE1B2B9A6DBF2602A565EE1CCD3FA45A880D918C334F46FEB166FD2EB05554D6E0385C61C32E4DA942C5005
310
B383CD288C2E619C5E0D89B034BB05B2039BD9E14D76BF9A4859BD91070F1BFFF992966DFD6FEA1E60AC2B3495E37FABA655BD49B438CD0E8FD56835F4FA821952A830BAA8972F7235242167A4891DEAC1088D26DAD73E765C300432D90CA0986C86DCA376A7F7D581CADF74A72D86E194A2BCD97B804C26E36BF3CCFA3067
310
1C8ED63B9C3DAF0C0FB58F375C5F95E94C6D861E6669AE6B0238DFBB9678E33712D1D9508AE9D6FFAE5BD9DFCCD7FAE85BCDFBD7E985D92D90084B8AACCA6135F7A8AAA99A9AB1582CD96FFFB5D6033CFC169A7D8C8548ABBC780E044C062E0FB06F07AD0DFCF8D9E914D0B324C392C1AC9FE899715631868563BBB28B5A27
310
C229BD5354D65FBDB70AFECBC3D8CCFCBBFF81746D0BC02226C29C789DF155FA73E80DE2EC96E941BF3A3B25983E6AD20BB221B7F54B9294D94E9E236B77C010757CE193BCE73877DDC857FE90F7DCC6A7DF4D4AE23FBD831A0FFEFA3C894BE444DA6435E4FC96850AAF4E1480C9FE4879A513C3C24B3613BD4869C97412BF
310
C2911425BD598BDA6E101361D22AD6557E9AD3923ABBCD62CB894F983E9A5216B4FEE5122D6E056BED016C36B5A1E1BEEF60B7124DF0956E5EBA446B0AB9857F192096E0C576E23B005055060767B3C54BF17926C0B1AE507943E97857489555FD9848EDFCD1EA66A228AF76EB3D36A5BA9C2B6F8619888F59E7CFDB0FE22A
310
A17BA850335D162926CF6E01834914500C2671DED1B86C373B735BBFA669D782216C972B5E676AFF4F07F8D3AFB3AF997270D939FD1B2A1D8853ECF73031408B9313E74014A9A9C92E16822CA753F35EB21C976DA5E6694FB9448EA662F3B97CB9F213FE0B8FB517B2F8452EDB510B5408A573F19FDE52EE38C8B71E01D8BF
310
83261FBF4AB1627C8AB5D41C1E8D65B740222C9911679542D3479DE654685EEB57555514C5EDE00594658D43209D0E939160840B7DB84AF8D693784B89A778DFEDECACA5A98A7207C6EC784655E9EBA3BD9DF676FAFA4CD7B54C6708F3F900FAFA94AAE9BC0219B678C5A6D7BBB19967729ABF99F8EC37B9FFBFD23B0270B8
310
954F3E3893AB6F59B263D7EC96454AA1E9FDFA4C76FC63329932998CAAAAEA361B2EAEB107B8D4CFA57E1E7D19E04B3F07F8E223C04A2BA0C8B27AFE82693229C5649CCEACEFA176DD7E5EB84C241209C41CFB6C91F35BE627F9EC19869EDBAA9B6F258ACAE4CC077F32C2F8148602DA455A5266B7804E1462B2A4134DB947
310
D594969ED1FCA4D3694DD3AE292DD01A080E444AAB4AA4984C389CCD91243594963455C60CBB63AFBCE24B7822B57106562C664378C751EA76726588AF3FB68AAB64557DE34D825D4B861A2752FCE019FA0B3093A522F2EC16D01B459D286A333D40767F2C122FB3783299CC6CEB7F53DB01808C96D19BE7DD74B23F5CAD86
310
62673A0022F9E2AF378BEF7F6B481F25B4CA7443996DA5D52B902A586251B6C171DC4ED2058C454BDCD6C8583CBBCDEE318A626AFE51BBABC4989C1C1C934C06ED86DDBACB81CAEDD6036C411C9A71BE00D0D32B342CCE3BBC054C0D4E4D84F364D05F1E935E6F5C431AE7AD455832A5D2819DDCB01B570161DC59A7074F18
310
4E98C9000011BA4944415493CBE7F7F8FC9E5830094832D99FE5F54E4014C4C3CD81DBF74E8D0422BED2294992DEEC3D00A02DD0B3C462D8A7DFB722ABA25D54B7D41CF6262729B3AB16A980F0F4ACA67FE4D2C4D895207A3D25D6921B6F0CB6F9B4918B5CB8201BD2381C49BD713CE330B9D0EC4C404A925CA5A52B96BC99
310
6C410F100F2EF44BCC68194197358785CBAD4ECA37BF526F26F27EFE0D065A5B815094944CA20017A174323DBBC560A0C499341874A7AE60B5E2744AA205A75328719D1EF3BE325677CB6D754F74D5A5D3E95070ACB95AA958EBA26AEBCE16F400192D63719A92E1B9773CD93F5556E79CEC9D5224D51011F12E1D0EB255D4
310
C312D9F1259BA038CB586A212D79C94C445B46335CC9177D61B3019F7890A37EFEFBAB0B1D707D6EE229A662784B199B02305A0DB35B924946C6B03E23A692CA79008BB92C32103494EB6B75FD7FFC1EF57D7FC17F7B3F6985B8C4F77E458D87C0F688325F9D0094D53ACC76D3F08579391EAA5ADC06B35E53B58C96898752
310
B9FE9E79898E277C7ECF5078AE10E94297FBD82E7A4F01A89BD52DB9A00C8C85DDAE6FBE83712EA634DA38E925B2A01A1765205C8A1444F325EEDD08F23ABDB5B7035FF8318F9FCC930BF10377F1D849348D7FFA031EFA339851F957EE76679500E9BA9686D0484F4D9575EABCC1ACF73697053A83669B09C9FAD96F49B114
310
DF7E4A361A8D2603C341CA9DAC8343F67A50A800DCFD0747C28198ABDA2E27D30DD7570982D0776674F0F500024D877C16A7293818911369D1280A3AA1A4DC327076B9E4A66A7AFE4C331A3578CB7C7E0FD991E53A7A8B78A014F22EC21D842190569361372F99654B900B0ECE344309F8C162E1C04DBCF4ECDC2105260B8E
310
27BE3A9E3FCBF367F3F40FC316DF91BB859113F4E8C9A6444F953AA9310D860C93292B3B7762753906C2A13A1F3E95C1413A83403296EA8D7ACC66737D7D3A2D8A715936EBCC3535A9FE6014366929ECE5295400E4643A3A9ED0E98492726B6C3269775BAD4E937787CB60D6F79E1A7656D9472E4DA4A2D3A39A5DC7EAAA5A
310
DC56A7B9F3C58539916DE5D6F86442342C549BF4BE3A3C973CA805C4D5C77D5BC095134993650CFA36F65BB36EAE102948C10478ED941BE7898D1ECA1635CA6C135A6D9CD74A2F76670D1F7F8017347E365F6EBFF993696FAE3FFC9BE93DE9718D683CBB251A6568489065CE9F471088C5244D0562E17899D5A3288A288AB2
310
2C67ED00D16874D316825F914205C0BBC3954EA62B5BDCD1B144598D43D001984A8C552D6EA0C46DED3E39988A4E37344DD5049D904E4D2708C8C5E7F70CB58F7B9B178D98350D9D6EDA13FF12F857FA701AA17A7E72910484AE89481A9D8E575F9DB74781B145A323FBFC382F4082FE95A4BD2AFF2A07B384A294391016A7
310
570C2F5CC9C35AA98F84C3D96DB6C2A2CB456F6FF6A8A5B23C3C12B397952831451084743A3DEB13BA398B7F1548A10230F8FA587030ACA9195389313818B1BBAD809C480F9D1F039C5576D1208A86B98CE1494FAD8D29DFA29488251EABCFEF7137944EF64DCD1B086517EB5D66654C1D54C3CC0A93C8300CBD0556FF0D85
310
D55AD0BA0AD1454B84986642BDB224A177D15A494E1665009DC744983FFA0AC6FD2BDF5F6C6E22248AFAB9F15F2C27BFB9A8D7015A46D30B82A228269369D62F7AE5A237914205C05169D354CD566691E269BBDB8A402A2A073AA7F3A68E5C9EF434B94ADCD3D9E80357827DA725AEBF9EF697F39636D13BA5A9F307CE9108
310
B5B50B05A0923995A806432BFCE76D09AAA6AD736AC455AD2B958B049DB9E5C0EE9C297E74E9856A72F096F2BD3FE1ABBDF43FB3C2999184C0D858C298DF749F750B15B485AD7FBB59820B1580C73FF7D2324735450B742CD25C26124BAD78BE202A200FA112DA620CAF32BDCF5620A9EA36CD0D9A9CEFEF60073F24ECCBAF
310
2D3536C5971E21D2B452E16565864418C81A70B294188D8199250BB2FB5559B398ACD74244984EA0BA9C120B55E5785D980C732B319B8D584C180DE4BC0A4C06CAA2C35454AC62B5E7EC34204B54205CCB5289B9B713568361BD5C21EEBB89BFF9088D7973DA5D3D5118F7125BE1032C08D4780B7085A8AA324727017349FE
310
28BEEC7E538931B7F5CBB2FC468D08331B79E11FE80F6035E371F2F5C748A579E5126985771CC561E3B54ECA1C9CEBC669A37F8CB7ECA773885BAEBBF4971E7FE044619FF1A1217C3EB2CB7146A3D4D5ADF5A15640D45155C6E0FA6915D72BD559730DCD359817AF53B65E783C0B97AD5EC42D7B69AA425BDE526BB3118F0B
310
B679795016309D2545272C8887CC64326FC888B094CCEB5D5C1942AF67FF0E1E7D99963AA2091A2BF99FDF637F33272F72A88513E7006C661A2A39D785CD8C69B88FFA7A0A59FB203B0DD8188EEF43567095F0D8497EFF2164653A8061052C96B94EC968A4BA7AE1092E97DADCACFEE007EB52C9323B2393C412EB52D81A49
310
2BF48ED2B3FC4CB5A181F676B9C905C8C939FD6FEE3A09D9FD72229D49A9B9AD3F9B1E74FB4484152A009AD5F6D00F1BA67F3C87A18481148E7A7E16406C26DC4859292726A775D59A891F4F60AAE0D20098C1642A48003612A70D9D8EAA32CA1DA455BEF80B1DA2404BCBBC93CC6616E82892C9B91C29B29CE7F369B1881D
310
1DE23A0D6AFB03740E319E7FE5E04DC266A66704CDB9F4190603E93420C5E5D96D965C6348767F329E2C3597A7E6C7C46C54D5D744C1AE10F178EE7FFFF5AD58927CFE83FCFBBFE2ADD7939208EBE84AF3E1FBF8CE532829CA1D681A8F5FCD14767292F27226AFDA2BA8B91983E13782AEDC41878ABA877FEC80DD1A9AB6E2
310
78606592494955D72537A8D5C447DFC1C90B7CF7D9954F5E0B361B052C3D3D30CE9D3730B44CBBD8B52BFBDEEC6E6B2410CF6EB3477267B7D9FD0EB75D9A9CCE079A9DFEBE51B5400BE81A666F237FF51D2EF6E173F3FC19EEBC91B35D3CF10AC1286F3DC8B79EA4AA80B8D285F4F6CE8D974647F1FB5727000E071E0F0B5E
310
F1952BA4D3E39AB65D6C8F4B909078F8B3D8AD68B18DF179A8A959B0464B5E2E0F707960E944C5339F7F2061B07B9B5545525D350EABD39496D426974B1E19B73A4D89B0A4486AF92D7B3DB7DE31F9B327B3239F6CEB7FA3DA0116303EC533AF4DFFFDAB53008FBD0CF0B31300177A01A6D6909D381EA7A1A1D0934D26AAAB
310
E72D851B893034B47018B3C1AC635688EE69F3D7C6AC11ADD773F5A19B3B7772715AB71A4A5BB8329DC4263408A05A92A16432346BAB99CC4887C405F190D7480FB035984C545565BD76012489E161129B3767B49951355232A525943B08C79888A08AE236B503AC3B59854FBE09CFC7EE2730C5E98E6446CFDB0FF3DD5F01
310
100A65DADB1555CD6DFDD7480FB049C462DC7D378904C1208024313232EB6DB2C954B8F8A3F77370176FFF236E6EE3DE9BF8FB9F30114154D5F59A046F208290B7E1AE8E9D3BE9EC5CBC5B10F094D2DA809C66709C5BAE9B1100D0C5E36A5595797CFC0D6F09DE3C7A7B6968986EE50303B4B4F0FAEB8B3DB1B60459A16380
310
1B779381477E4DC7F6F3CB5892A626BAAF3AE75ECE0400E0D8310E1EE4F4E98C406729AFC6917731A2E7C9E4CC14E2F87104C13C34941A18986DFDDB646DBC59B69F00E44E03348DC1C12D6BFD0D0D64935DEA74886200FEF8C599435967023F40C26854358D65FE53356D7AF09DC9E4FD826E068B35BCABA5B1919E9E797B
310
BEF29599B2CDBD25FB8D46632291A894E57FFBF2CC8AF3EDED1C3E9CB2D9CC2525A9582CDBFA0541104571FBA4C7DA7E02B0090802B5B5E8F558964DC5D8DB9B5DDC7CAE05E7C36836A755555A66D9439D6ECE1FC4BFEC3A50C9248AC276F2169EC36ACD3BDDD2EBF5FBF6ED7B4D92AC064328992C5DF4A2CC9393A9F2F2EC
310
975FA7D3699A6630188A025030B971026BC0EBA5B414C37C7F954C86FE7E14655DF4457A9D6E8595E2356DAEFECB5B1E2C1644318F90681A13136C6110495555AE87767979F9430F3DF4D5AF7ED566B3DD70C30DDDDDDD92C3517AFE0421A616553E158D9AEBEB95A1219D4E978D89290E8156E2D22576EFE6F26580EE6E9A
310
9A0A516063B55251314F2B0A8C8DD1D3C3BAAE4A9B9547837E03B28866BDA0170B894E87DBBD50302489D1D1D9B4DBCB515B3BED61B566CACA726B75F4E8D14C2673F8F0E1AEAEAED1D1D11D3B760C8C8FFFC3EFF3F12F3099EB2D72F468FA6D6F33FFE99F2AC1A0E070C8C160510B5418AA8A7EA66292C452FE8346233B76
310
CCF9EA24120402EBAE153DB6979BDB90159212FFF40BFEFE934C4CF1D7DFC36963772D2FE659407A03D034C6C6189B1F1266345255359D763B4B4F4FFEC77738AE4A00E6DBE345518CC7E3E7CE9D8BC7E3D931FDE8E828A2F87A17CD3E268787E744A5AB4B341A154511C6C7159FCF9C4814B54057875ECFEEDD733F65994B
310
97D641BBB72C0691F65EBA87B9B105878D5094BFFF29AA46284A55396CFE32A9B3C8F2420FABC6C6791DE052F2B05A2A2B733FFFAAAA3EF3CC5CB04C32993C70E0003ADD5FBEE647C73C65402A259D38E1F57A1545313536CAC9A4D7EB053A3AB651A2986DB464F13C5A5AE8EC9C9E7AB6B571F428A74F1389B0E9EFCEE7E6
310
702BDD430C4E20A7A9F1D0334A52C2692329212BD88D4645D3B6E3FA000D0D78BDDC720BCF3ECBE9D3ABBBD6EF9F6EF4656526BBE9F78F8CBC749E0A174F9FA6AD912B43ECAEE37C0F1623DE7293B9ECA0DD6E0F0402B5B5B55D5D5D2693E9CC99330B0BF47AC964B6721AB304DB55004C266A6BA787FEEB62C4592D5555D3
310
C330C70AD97A5D168BACAA7179A5CC13E9F45CA06320C08AE7AF170E074EE7AA8740B302E0F7EF89B55FF8069FFD0615654C8479EBF55CEAC76EE537EDB4D46132F0A1CF89994C46A7D3A9AAAAD7EBD34BCDB866CBDC4E6CD72150EED07FDD5BBF5E8FCB85D3B9E4EC02181999F69D5CA9E98856ABA8AA2CBFDC376030CC69
310
5D77ED5AF2A1824114653DBF94B5B56B6F76562BF178DF28EFFF0B26C2740F232BFCFA1CC393C869A4346905A70D5555451D8AA2014BB6FEEDCA761580F5C26EA7A666E17A7D8A4228C4C0C0CAAD761D49A7E79451E7979E3B9795A1D7D3DACA8248ABC1412291CDEE091B1B696FF754D052C7632FF31FEF6134C8F5BBF8E2
310
23ECACA17F941D3E5EEBE4F7EEC168E04C2719301B69AAE25F1ECF57DAE0203535CB25FED80AB6B100A4D30B6DEF2B62B5D2D8386F4F34CAE5CB6FA4857FB35E4F638B3224D6D4E0F3CD938A6492BEBE7570F05C0A830141C068EC0B717E88D7FA696AE0D93334D49382EE090403219988C22F5EA5BE92400455A3AD91C130
310
08E93CB21A0E170560350C0C505BBB82074B43C39C7368264332B9F9A3CCF54F8B9297C5EDC662A1B9794E5FAC28D396935C56FB05C925934192A8AF6FAAE2831FE5EE773312E4473D845CFCCD5FF1D1FFC5E0388C811D603C399DA26B382BB9D6E1FCC1376BF8A86D30DB580092C93CAE0A0E073EDFDC9066BD347D5781A2
310
692B5882378864725E8BD7EBE759CA24896814A773A1034FE1284AD673C99CE68881C7FB318CF19E6A3C63B4CA98FBE616995C0559B3E67652836E6FFC7E1A1AD8B56B7A6149BF9FDADA3C0B706F296EABD5B1CD527D00188D3CF0001FFBD81A2F9F6F75D68BE8C5E9F19720A09FF16CBAE320BF7B27D7EFE29FFF90A37EFE
310
EBEF6033D35A8FC5C8CD6D883AFEFD9DD47A004C063EF3306EE74ADE509BCE36EE010055E5D0219E7F9EC0C604495DC3C8323FFFF97A15A6E44C343299B99F9D83D478B09838DD495262670DBB6AB8F7089FFF01771C04E81DE5D01E8EB63119219EA2B18A89446229BFBA2D61BBDA01DE38B8AD565955239BA950DA0456D4
310
D9DBEDB3899BCC26D20AAA8AD988A460319248613692CA3175E8451415BD8892D1313ABA7D2C62DBBB077823B065AE101B4A4303D1E8728ED9D1E8AC84CC7AB7BDF5089F78907FFA05A56E2C261EB8997F7D9C3F7C2FCF9DE5A6565E38CB9FFECB86577CB514056065CC7ABDCF3E972B302ACB80DD389D85D965B1C4643998
310
4CCEEE017A743AADB27293EBB99E78BDD30AD9D520C9D82D54B8F037104970F78D180D242452125565B435AE5CC2E6531C0215CA91566E6E23962293E1A5F38822BDA3B43572A9EB5A1C02AD95ACDB4A76193E9D8E4C66DA1E90FBF7B6A2D803144A7D25B71DA0B20C83486909ADF56819BA8639D8C0379EDCEACA6D1BB24D
310
3CDBCE730786DB769058EC010AC5DF0060D0B3D3C72B9789C48925B9E726CE5DB68E478A3D4091372BDBD40E50A4C8E6601445FD36B3CD152952A4489122458A142952A4489122458A142952A4489122458A142952A4489122458A142952A4C89B8DFF1FBF6524DD0BFCD9460000000049454E44AE426082
  0
ENDSEC
  0
EOF
