  0
SECTION
  2
HEADER
  9
$ACADVER
  1
AC1015
  9
$ACADMAINTVER
 70
     6
  9
$DWGCODEPAGE
  3
ANSI_932
  9
$INSBASE
 10
0.0
 20
0.0
 30
0.0
  9
$EXTMIN
 10
12582.90606006176
 20
2634.340840325974
 30
0.0
  9
$EXTMAX
 10
12951.88146072661
 20
2949.562490733606
 30
137.5
  9
$LIMMIN
 10
0.0
 20
0.0
  9
$LIMMAX
 10
420.0
 20
297.0
  9
$ORTHOMODE
 70
     0
  9
$REGENMODE
 70
     1
  9
$FILLMODE
 70
     1
  9
$QTEXTMODE
 70
     0
  9
$MIRRTEXT
 70
     0
  9
$LTSCALE
 40
1.0
  9
$ATTMODE
 70
     1
  9
$TEXTSIZE
 40
2.5
  9
$TRACEWID
 40
1.0
  9
$TEXTSTYLE
  7
STANDARD
  9
$CLAYER
  8
0
  9
$CELTYPE
  6
BYLAYER
  9
$CECOLOR
 62
   256
  9
$CELTSCALE
 40
1.0
  9
$DISPSILH
 70
     0
  9
$DIMSCALE
 40
0.8
  9
$DIMASZ
 40
4.0
  9
$DIMEXO
 40
1.0
  9
$DIMDLI
 40
0.38
  9
$DIMRND
 40
0.0
  9
$DIMDLE
 40
0.0
  9
$DIMEXE
 40
1.0
  9
$DIMTP
 40
0.0
  9
$DIMTM
 40
0.0
  9
$DIMTXT
 40
5.0
  9
$DIMCEN
 40
0.0
  9
$DIMTSZ
 40
0.0
  9
$DIMTOL
 70
     0
  9
$DIMLIM
 70
     0
  9
$DIMTIH
 70
     0
  9
$DIMTOH
 70
     0
  9
$DIMSE1
 70
     0
  9
$DIMSE2
 70
     0
  9
$DIMTAD
 70
     3
  9
$DIMZIN
 70
     8
  9
$DIMBLK
  1
Open30
  9
$DIMASO
 70
     1
  9
$DIMSHO
 70
     1
  9
$DIMPOST
  1

  9
$DIMAPOST
  1

  9
$DIMALT
 70
     0
  9
$DIMALTD
 70
     2
  9
$DIMALTF
 40
25.4
  9
$DIMLFAC
 40
1.0
  9
$DIMTOFL
 70
     0
  9
$DIMTVP
 40
0.0
  9
$DIMTIX
 70
     0
  9
$DIMSOXD
 70
     0
  9
$DIMSAH
 70
     0
  9
$DIMBLK1
  1

  9
$DIMBLK2
  1

  9
$DIMSTYLE
  2
まこ-１／２
  9
$DIMCLRD
 70
     4
  9
$DIMCLRE
 70
     4
  9
$DIMCLRT
 70
   256
  9
$DIMTFAC
 40
1.0
  9
$DIMGAP
 40
1.0
  9
$DIMJUST
 70
     0
  9
$DIMSD1
 70
     0
  9
$DIMSD2
 70
     0
  9
$DIMTOLJ
 70
     1
  9
$DIMTZIN
 70
     0
  9
$DIMALTZ
 70
     0
  9
$DIMALTTZ
 70
     0
  9
$DIMUPT
 70
     0
  9
$DIMDEC
 70
     2
  9
$DIMTDEC
 70
     2
  9
$DIMALTU
 70
     2
  9
$DIMALTTD
 70
     2
  9
$DIMTXSTY
  7
MSｺﾞｼｯｸ-0
  9
$DIMAUNIT
 70
     0
  9
$DIMADEC
 70
     2
  9
$DIMALTRND
 40
0.0
  9
$DIMAZIN
 70
     2
  9
$DIMDSEP
 70
    46
  9
$DIMATFIT
 70
     1
  9
$DIMFRAC
 70
     0
  9
$DIMLDRBLK
  1
Open30
  9
$DIMLUNIT
 70
     2
  9
$DIMLWD
 70
    13
  9
$DIMLWE
 70
    13
  9
$DIMTMOVE
 70
     0
  9
$LUNITS
 70
     2
  9
$LUPREC
 70
     4
  9
$SKETCHINC
 40
1.0
  9
$FILLETRAD
 40
0.0
  9
$AUNITS
 70
     0
  9
$AUPREC
 70
     0
  9
$MENU
  1
.
  9
$ELEVATION
 40
0.0
  9
$PELEVATION
 40
0.0
  9
$THICKNESS
 40
0.0
  9
$LIMCHECK
 70
     0
  9
$CHAMFERA
 40
0.5
  9
$CHAMFERB
 40
0.5
  9
$CHAMFERC
 40
20.0
  9
$CHAMFERD
 40
0.0
  9
$SKPOLY
 70
     0
  9
$TDCREATE
 40
2452479.723123183
  9
$TDUCREATE
 40
2452479.348123183
  9
$TDUPDATE
 40
2457695.475550822
  9
$TDUUPDATE
 40
2457695.100550822
  9
$TDINDWG
 40
20.7643155671
  9
$TDUSRTIMER
 40
2457695.100404074
  9
$USRTIMER
 70
     1
  9
$ANGBASE
 50
0.0
  9
$ANGDIR
 70
     0
  9
$PDMODE
 70
     0
  9
$PDSIZE
 40
0.0
  9
$PLINEWID
 40
0.0
  9
$SPLFRAME
 70
     0
  9
$SPLINETYPE
 70
     6
  9
$SPLINESEGS
 70
     8
  9
$HANDSEED
  5
49C5C
  9
$SURFTAB1
 70
     6
  9
$SURFTAB2
 70
     6
  9
$SURFTYPE
 70
     6
  9
$SURFU
 70
     6
  9
$SURFV
 70
     6
  9
$UCSBASE
  2

  9
$UCSNAME
  2

  9
$UCSORG
 10
0.0
 20
0.0
 30
0.0
  9
$UCSXDIR
 10
1.0
 20
0.0
 30
0.0
  9
$UCSYDIR
 10
0.0
 20
1.0
 30
0.0
  9
$UCSORTHOREF
  2

  9
$UCSORTHOVIEW
 70
     0
  9
$UCSORGTOP
 10
0.0
 20
0.0
 30
0.0
  9
$UCSORGBOTTOM
 10
0.0
 20
0.0
 30
0.0
  9
$UCSORGLEFT
 10
0.0
 20
0.0
 30
0.0
  9
$UCSORGRIGHT
 10
0.0
 20
0.0
 30
0.0
  9
$UCSORGFRONT
 10
0.0
 20
0.0
 30
0.0
  9
$UCSORGBACK
 10
0.0
 20
0.0
 30
0.0
  9
$PUCSBASE
  2

  9
$PUCSNAME
  2

  9
$PUCSORG
 10
0.0
 20
0.0
 30
0.0
  9
$PUCSXDIR
 10
1.0
 20
0.0
 30
0.0
  9
$PUCSYDIR
 10
0.0
 20
1.0
 30
0.0
  9
$PUCSORTHOREF
  2

  9
$PUCSORTHOVIEW
 70
     0
  9
$PUCSORGTOP
 10
0.0
 20
0.0
 30
0.0
  9
$PUCSORGBOTTOM
 10
0.0
 20
0.0
 30
0.0
  9
$PUCSORGLEFT
 10
0.0
 20
0.0
 30
0.0
  9
$PUCSORGRIGHT
 10
0.0
 20
0.0
 30
0.0
  9
$PUCSORGFRONT
 10
0.0
 20
0.0
 30
0.0
  9
$PUCSORGBACK
 10
0.0
 20
0.0
 30
0.0
  9
$USERI1
 70
     0
  9
$USERI2
 70
     0
  9
$USERI3
 70
     0
  9
$USERI4
 70
     0
  9
$USERI5
 70
     0
  9
$USERR1
 40
0.0
  9
$USERR2
 40
0.0
  9
$USERR3
 40
0.0
  9
$USERR4
 40
0.0
  9
$USERR5
 40
0.0
  9
$WORLDVIEW
 70
     1
  9
$SHADEDGE
 70
     3
  9
$SHADEDIF
 70
    70
  9
$TILEMODE
 70
     1
  9
$MAXACTVP
 70
    48
  9
$PINSBASE
 10
0.0
 20
0.0
 30
0.0
  9
$PLIMCHECK
 70
     0
  9
$PEXTMIN
 10
1.05
 20
0.6999999999999997
 30
0.0
  9
$PEXTMAX
 10
9.45
 20
6.300000000000001
 30
0.0
  9
$PLIMMIN
 10
-0.25
 20
-0.7499999999999999
  9
$PLIMMAX
 10
10.75
 20
7.75
  9
$UNITMODE
 70
     0
  9
$VISRETAIN
 70
     1
  9
$PLINEGEN
 70
     0
  9
$PSLTSCALE
 70
     1
  9
$TREEDEPTH
 70
  3020
  9
$CMLSTYLE
  2
STANDARD
  9
$CMLJUST
 70
     0
  9
$CMLSCALE
 40
20.0
  9
$PROXYGRAPHICS
 70
     1
  9
$MEASUREMENT
 70
     0
  9
$CELWEIGHT
370
    -1
  9
$ENDCAPS
280
     0
  9
$JOINSTYLE
280
     0
  9
$LWDISPLAY
290
     0
  9
$INSUNITS
 70
     0
  9
$HYPERLINKBASE
  1

  9
$STYLESHEET
  1
monochrome.ctb
  9
$XEDIT
290
     1
  9
$CEPSNTYPE
380
     0
  9
$PSTYLEMODE
290
     1
  9
$FINGERPRINTGUID
  2
{6B368F64-F7EB-11D4-BFBA-00004C030E53}
  9
$VERSIONGUID
  2
{E2310C3E-8F20-4A04-98EF-304544A6DC19}
  9
$EXTNAMES
290
     1
  9
$PSVPSCALE
 40
0.0
  9
$OLESTARTUP
290
     0
  0
ENDSEC
  0
SECTION
  2
CLASSES
  0
CLASS
  1
HATCH
  2
AcDbHatch
  3
ObjectDBX Classes
 90
        0
280
     0
281
     1
  0
CLASS
  1
LWPOLYLINE
  2
AcDbPolyline
  3
ObjectDBX Classes
 90
        0
280
     0
281
     1
  0
CLASS
  1
ACDBDICTIONARYWDFLT
  2
AcDbDictionaryWithDefault
  3
ObjectDBX Classes
 90
        0
280
     0
281
     0
  0
CLASS
  1
ACDBPLACEHOLDER
  2
AcDbPlaceHolder
  3
ObjectDBX Classes
 90
        0
280
     0
281
     0
  0
CLASS
  1
LAYOUT
  2
AcDbLayout
  3
ObjectDBX Classes
 90
        0
280
     0
281
     0
  0
CLASS
  1
DICTIONARYVAR
  2
AcDbDictionaryVar
  3
ObjectDBX Classes
 90
        0
280
     0
281
     0
  0
CLASS
  1
VISUALSTYLE
  2
AcDbVisualStyle
  3
ObjectDBX Classes
 90
     4095
280
     0
281
     0
  0
CLASS
  1
SCALE
  2
AcDbScale
  3
ObjectDBX Classes
 90
     1153
280
     0
281
     0
  0
CLASS
  1
MATERIAL
  2
AcDbMaterial
  3
ObjectDBX Classes
 90
     1153
280
     0
281
     0
  0
CLASS
  1
TABLESTYLE
  2
AcDbTableStyle
  3
ObjectDBX Classes
 90
     4095
280
     0
281
     0
  0
CLASS
  1
MLEADERSTYLE
  2
AcDbMLeaderStyle
  3
ACDB_MLEADERSTYLE_CLASS
 90
     4095
280
     0
281
     0
  0
CLASS
  1
SUN
  2
AcDbSun
  3
SCENEOE
 90
     1153
280
     0
281
     0
  0
CLASS
  1
RASTERVARIABLES
  2
AcDbRasterVariables
  3
ISM
 90
        0
280
     0
281
     0
  0
ENDSEC
  0
SECTION
  2
TABLES
  0
TABLE
  2
VPORT
  5
8
330
0
100
AcDbSymbolTable
 70
     1
  0
VPORT
  5
49431
330
8
100
AcDbSymbolTableRecord
100
AcDbViewportTableRecord
  2
*Active
 70
     0
 10
0.0
 20
0.0
 11
1.0
 21
1.0
 12
12767.39376039418
 22
2791.95166552979
 13
0.0
 23
0.0
 14
10.0
 24
10.0
 15
10.0
 25
10.0
 16
0.0
 26
0.0
 36
1.0
 17
0.0
 27
0.0
 37
0.0
 40
321.5260834157854
 41
1.714902807775378
 42
50.0
 43
0.0
 44
0.0
 50
0.0
 51
0.0
 71
    16
 72
   100
 73
     1
 74
     0
 75
     0
 76
     0
 77
     0
 78
     0
281
     0
 65
     1
110
0.0
120
0.0
130
0.0
111
1.0
121
0.0
131
0.0
112
0.0
122
1.0
132
0.0
 79
     0
146
0.0
  0
ENDTAB
  0
TABLE
  2
LTYPE
  5
5
330
0
100
AcDbSymbolTable
 70
     5
  0
LTYPE
  5
12
330
5
100
AcDbSymbolTableRecord
100
AcDbLinetypeTableRecord
  2
BYBLOCK
 70
     0
  3

 72
    65
 73
     0
 40
0.0
  0
LTYPE
  5
13
330
5
100
AcDbSymbolTableRecord
100
AcDbLinetypeTableRecord
  2
BYLAYER
 70
     0
  3

 72
    65
 73
     0
 40
0.0
  0
LTYPE
  5
14
330
5
100
AcDbSymbolTableRecord
100
AcDbLinetypeTableRecord
  2
CONTINUOUS
 70
     0
  3
Solid line
 72
    65
 73
     0
 40
0.0
  0
LTYPE
  5
BB7
330
5
100
AcDbSymbolTableRecord
100
AcDbLinetypeTableRecord
  2
HIDDEN
 70
     0
  3
Hidden __ __ __ __ __ __ __ __ __ __ __ __ __ _
 72
    65
 73
     2
 40
0.375
 49
0.25
 74
     0
 49
-0.125
 74
     0
  0
LTYPE
  5
3306
330
5
100
AcDbSymbolTableRecord
100
AcDbLinetypeTableRecord
  2
CENTER
 70
     0
  3
Center ____ _ ____ _ ____ _ ____ _ ____ _ ____
 72
    65
 73
     4
 40
2.0
 49
1.25
 74
     0
 49
-0.25
 74
     0
 49
0.25
 74
     0
 49
-0.25
 74
     0
  0
LTYPE
  5
4214B
330
5
100
AcDbSymbolTableRecord
100
AcDbLinetypeTableRecord
  2
PHANTOMX2
 70
     0
  3
Phantom (2x) ____________    ____    ____   _
 72
    65
 73
     6
 40
5.0
 49
2.5
 74
     0
 49
-0.5
 74
     0
 49
0.5
 74
     0
 49
-0.5
 74
     0
 49
0.5
 74
     0
 49
-0.5
 74
     0
  0
ENDTAB
  0
TABLE
  2
LAYER
  5
2
102
{ACAD_XDICTIONARY
360
493F2
102
}
330
0
100
AcDbSymbolTable
 70
    28
  0
LAYER
  5
E
330
2
100
AcDbSymbolTableRecord
100
AcDbLayerTableRecord
  2
0
 70
     2
 62
     7
  6
CONTINUOUS
370
    -3
390
73E
  0
LAYER
  5
96A
330
2
100
AcDbSymbolTableRecord
100
AcDbLayerTableRecord
  2
中心線
 70
     0
 62
    13
  6
CENTER
370
    13
390
73E
  0
LAYER
  5
1521
330
2
100
AcDbSymbolTableRecord
100
AcDbLayerTableRecord
  2
実線
 70
     0
 62
     3
  6
CONTINUOUS
370
    40
390
73E
  0
LAYER
  5
1523
330
2
100
AcDbSymbolTableRecord
100
AcDbLayerTableRecord
  2
細線
 70
     0
 62
     7
  6
CONTINUOUS
370
    13
390
73E
  0
LAYER
  5
47F03
330
2
100
AcDbSymbolTableRecord
100
AcDbLayerTableRecord
  2
破線
 70
     0
 62
     8
  6
HIDDEN
370
    13
390
73E
  0
LAYER
  5
4891F
330
2
100
AcDbSymbolTableRecord
100
AcDbLayerTableRecord
  2
想像線
 70
     0
 62
    71
  6
PHANTOMX2
370
    13
390
73E
  0
ENDTAB
  0
TABLE
  2
STYLE
  5
3
330
0
100
AcDbSymbolTable
 70
     8
  0
STYLE
  5
F
330
3
100
AcDbSymbolTableRecord
100
AcDbTextStyleTableRecord
  2
STANDARD
 70
     0
 40
0.0
 41
1.0
 50
0.0
 71
     0
 42
2.5
  3
isocp.shx
  4
bigfont.shx
  0
STYLE
  5
34
330
3
100
AcDbSymbolTableRecord
100
AcDbTextStyleTableRecord
  2
TIMESNR
 70
     0
 40
0.0
 41
1.0
 50
0.0
 71
     0
 42
2.0
  3
TIMES.TTF
  4

1001
ACAD
1000
Times New Roman
1071
       18
  0
STYLE
  5
8D7
330
3
100
AcDbSymbolTableRecord
100
AcDbTextStyleTableRecord
  2
MSｺﾞｼｯｸ-0
 70
     0
 40
0.0
 41
1.0
 50
0.0
 71
     0
 42
4.0
  3
simplex.shx
  4
bigfont.shx
  0
STYLE
  5
1529
330
3
100
AcDbSymbolTableRecord
100
AcDbTextStyleTableRecord
  2
まこ
 70
     0
 40
0.0
 41
1.0
 50
0.0
 71
     0
 42
2.5
  3
simplex.shx
  4
bigfont.shx
  0
STYLE
  5
47594
330
3
100
AcDbSymbolTableRecord
100
AcDbTextStyleTableRecord
  2
MSｺﾞｼｯｸN
 70
     0
 40
0.0
 41
1.0
 50
0.0
 71
     0
 42
5.0
  3
MS Gothic.ttf
  4

1001
ACAD
1000
MS Gothic
1071
    32817
  0
ENDTAB
  0
TABLE
  2
VIEW
  5
6
330
0
100
AcDbSymbolTable
 70
     0
  0
ENDTAB
  0
TABLE
  2
UCS
  5
7
330
0
100
AcDbSymbolTable
 70
     0
  0
ENDTAB
  0
TABLE
  2
APPID
  5
9
330
0
100
AcDbSymbolTable
 70
     3
  0
APPID
  5
10
330
9
100
AcDbSymbolTableRecord
100
AcDbRegAppTableRecord
  2
ACAD
 70
     0
  0
APPID
  5
495B2
330
9
100
AcDbSymbolTableRecord
100
AcDbRegAppTableRecord
  2
PE_CLOUD
 70
     0
  0
APPID
  5
49AA5
330
9
100
AcDbSymbolTableRecord
100
AcDbRegAppTableRecord
  2
PLOTTRANSPARENCY
 70
     0
  0
ENDTAB
  0
TABLE
  2
DIMSTYLE
  5
A
330
0
100
AcDbSymbolTable
 70
     2
100
AcDbDimStyleTable
  0
DIMSTYLE
105
1D
330
A
100
AcDbSymbolTableRecord
100
AcDbDimStyleTableRecord
  2
STANDARD
 70
     0
 41
3.0
 42
0.8
 44
0.8
 73
     0
 74
     0
 77
     3
 78
     8
 79
     2
140
3.0
141
0.0
147
0.5
176
     4
177
     4
178
   256
340
8D7
341
89E
342
89E
371
    13
372
    13
  0
DIMSTYLE
105
1CE92
330
A
100
AcDbSymbolTableRecord
100
AcDbDimStyleTableRecord
  2
まこ-１／２
 70
     0
 40
0.8
 41
4.0
 42
1.0
 44
1.0
 73
     0
 74
     0
 77
     3
 78
     8
 79
     2
140
5.0
141
0.0
147
1.0
176
     4
177
     4
271
     2
178
   256
179
     2
271
     2
272
     2
289
     1
340
8D7
341
89E
342
89E
371
    13
372
    13
  0
ENDTAB
  0
TABLE
  2
BLOCK_RECORD
  5
1
330
0
100
AcDbSymbolTable
 70
     2
  0
BLOCK_RECORD
  5
18
330
1
100
AcDbSymbolTableRecord
100
AcDbBlockTableRecord
  2
*MODEL_SPACE
340
741
  0
BLOCK_RECORD
  5
49C44
330
1
100
AcDbSymbolTableRecord
100
AcDbBlockTableRecord
  2
*Paper_Space
340
49C45
  0
BLOCK_RECORD
  5
89E
330
1
100
AcDbSymbolTableRecord
100
AcDbBlockTableRecord
  2
_Open30
340
0
  0
ENDTAB
  0
ENDSEC
  0
SECTION
  2
BLOCKS
  0
BLOCK
  5
19
330
18
100
AcDbEntity
  8
0
100
AcDbBlockBegin
  2
*MODEL_SPACE
 70
     0
 10
0.0
 20
0.0
 30
0.0
  3
*MODEL_SPACE
  1
*MODEL_SPACE
  0
ENDBLK
  5
1A
330
18
100
AcDbEntity
  8
0
100
AcDbBlockEnd
  0
BLOCK
  5
49C46
330
49C44
100
AcDbEntity
 67
     1
  8
0
100
AcDbBlockBegin
  2
*Paper_Space
 70
     0
 10
0.0
 20
0.0
 30
0.0
  3
*Paper_Space
  1
*Paper_Space
  0
ENDBLK
  5
49C47
330
49C44
100
AcDbEntity
 67
     1
  8
0
100
AcDbBlockEnd
  0
BLOCK
  5
8A2
330
89E
100
AcDbEntity
  8
0
100
AcDbBlockBegin
  2
_Open30
 70
     0
 10
0.0
 20
0.0
 30
0.0
  3
_Open30
  1
_Open30
  0
LINE
  5
89F
330
89E
100
AcDbEntity
  8
0
  6
ByBlock
 62
     0
370
    -2
100
AcDbLine
 10
-1.0
 20
0.26794919
 30
0.0
 11
0.0
 21
0.0
 31
0.0
  0
LINE
  5
8A0
330
89E
100
AcDbEntity
  8
0
  6
ByBlock
 62
     0
370
    -2
100
AcDbLine
 10
0.0
 20
0.0
 30
0.0
 11
-1.0
 21
-0.26794919
 31
0.0
  0
LINE
  5
8A1
330
89E
100
AcDbEntity
  8
0
  6
ByBlock
 62
     0
370
    -2
100
AcDbLine
 10
0.0
 20
0.0
 30
0.0
 11
-1.0
 21
0.0
 31
0.0
  0
ENDBLK
  5
8A3
330
89E
100
AcDbEntity
  8
0
100
AcDbBlockEnd
  0
ENDSEC
  0
SECTION
  2
ENTITIES
  0
LINE
  5
463AA
330
18
100
AcDbEntity
  8
中心線
 48
10.0
100
AcDbLine
 10
12654.51238476212
 20
2875.086778297599
 30
0.0
 11
12848.51238476211
 21
2875.086778297599
 31
0.0
  0
ARC
  5
463AB
330
18
100
AcDbEntity
  8
実線
100
AcDbCircle
 10
12753.51238476212
 20
2003.086778297596
 30
0.0
 40
852.5
100
AcDbArc
 50
83.26357818522658
 51
96.73642181477368
  0
LINE
  5
463AC
330
18
100
AcDbEntity
  8
実線
100
AcDbLine
 10
12853.51238476212
 20
2885.086778297596
 30
0.0
 11
12653.51238476212
 21
2885.086778297596
 31
0.0
  0
ARC
  5
463B8
330
18
100
AcDbEntity
  8
実線
 48
10.0
100
AcDbCircle
 10
12753.51238476212
 20
2003.086778297596
 30
0.0
 40
789.0
100
AcDbArc
 50
83.29999999999613
 51
96.70000000000387
  0
LINE
  5
463C2
330
18
100
AcDbEntity
  8
実線
 48
10.0
100
AcDbLine
 10
12654.28392285913
 20
2847.778415730084
 30
0.0
 11
12661.45917319074
 21
2786.698420783462
 31
0.0
  0
LINE
  5
4644A
330
18
100
AcDbEntity
  8
想像線
 48
2.0
100
AcDbLine
 10
12639.51238476211
 20
2864.686760028858
 30
0.0
 11
12639.51238476212
 21
2847.986807316434
 31
0.0
  0
LINE
  5
4644C
330
18
100
AcDbEntity
  8
想像線
 48
2.0
100
AcDbLine
 10
12636.81238476212
 20
2854.736806523262
 30
0.0
 11
12636.81238476212
 21
2860.236806523262
 31
0.0
  0
LINE
  5
4644F
330
18
100
AcDbEntity
  8
想像線
 48
2.0
100
AcDbLine
 10
12636.81238476212
 20
2854.736806523262
 30
0.0
 11
12639.51238476212
 21
2854.736806523262
 31
0.0
  0
LINE
  5
46450
330
18
100
AcDbEntity
  8
想像線
 48
2.0
100
AcDbLine
 10
12636.81238476212
 20
2854.736806523262
 30
0.0
 11
12636.51238476212
 21
2855.036806523262
 31
0.0
  0
LINE
  5
46451
330
18
100
AcDbEntity
  8
想像線
 48
2.0
100
AcDbLine
 10
12653.51238476212
 20
2849.686760028857
 30
0.0
 11
12639.51238476212
 21
2847.986807316434
 31
0.0
  0
LWPOLYLINE
  5
46452
330
18
100
AcDbEntity
  8
想像線
 48
2.0
100
AcDbPolyline
 90
        4
 70
     0
 43
0.0
 10
12641.10649676561
 20
2848.180372675308
 10
12646.9906836087
 20
2801.799814224015
 10
12656.9111653883
 20
2803.058401233611
 10
12651.03372428016
 20
2849.385788199609
  0
LINE
  5
46453
330
18
100
AcDbEntity
  8
中心線
 48
10.0
100
AcDbLine
 10
12634.72806308655
 20
2857.486806523262
 30
0.0
 11
12655.51238476212
 21
2857.486806523262
 31
0.0
  0
CIRCLE
  5
46455
330
18
100
AcDbEntity
  8
実線
100
AcDbCircle
 10
12693.51238476212
 20
2875.086778297603
 30
0.0
 40
2.5
  0
LINE
  5
46463
330
18
100
AcDbEntity
  8
実線
100
AcDbLine
 10
12654.05058138494
 20
2849.764757029155
 30
0.0
 11
12654.28392285914
 21
2847.778415730086
 31
0.0
  0
LINE
  5
464E3
330
18
100
AcDbEntity
  8
実線
100
AcDbLine
 10
12653.51238476212
 20
2849.701360028858
 30
0.0
 11
12653.51238476212
 21
2885.086778297596
 31
0.0
  0
LINE
  5
464E4
330
18
100
AcDbEntity
  8
中心線
 48
5.0
100
AcDbLine
 10
12663.51238476212
 20
2868.208997318887
 30
0.0
 11
12663.51238476211
 21
2881.96455927631
 31
0.0
  0
LINE
  5
464E5
330
18
100
AcDbEntity
  8
中心線
 48
0.4
100
AcDbLine
 10
12693.51238476213
 20
2871.086778297601
 30
0.0
 11
12693.51238476213
 21
2879.086778297595
 31
0.0
  0
LINE
  5
464EF
330
18
100
AcDbEntity
  8
実線
100
AcDbLine
 10
12905.27002964031
 20
2853.786778297586
 30
0.0
 11
12905.27002964031
 21
2793.086778297596
 31
0.0
  0
LINE
  5
464F0
330
18
100
AcDbEntity
  8
実線
100
AcDbLine
 10
12899.87002964031
 20
2853.786778297586
 30
0.0
 11
12899.87002964031
 21
2793.086778297596
 31
0.0
  0
LINE
  5
464FC
330
18
100
AcDbEntity
  8
実線
 48
10.0
100
AcDbLine
 10
12852.7408466651
 20
2847.778415730086
 30
0.0
 11
12845.56559633349
 21
2786.698420783463
 31
0.0
  0
LINE
  5
4657B
330
18
100
AcDbEntity
  8
実線
100
AcDbLine
 10
12900.87002964031
 20
2792.086778297596
 30
0.0
 11
12904.27002964031
 21
2792.086778297596
 31
0.0
  0
ARC
  5
4657C
330
18
100
AcDbEntity
  8
実線
100
AcDbCircle
 10
12900.87002964031
 20
2793.086778297597
 30
0.0
 40
1.0
100
AcDbArc
 50
180.0
 51
270.0
  0
ARC
  5
4657D
330
18
100
AcDbEntity
  8
実線
100
AcDbCircle
 10
12904.27002964031
 20
2793.086778297597
 30
0.0
 40
1.0
100
AcDbArc
 50
270.0
 51
0.0
  0
CIRCLE
  5
4658D
330
18
100
AcDbEntity
  8
実線
100
AcDbCircle
 10
12813.51238476211
 20
2875.086778297602
 30
0.0
 40
2.5
  0
LINE
  5
46593
330
18
100
AcDbEntity
  8
実線
100
AcDbLine
 10
12852.9741881393
 20
2849.764757029156
 30
0.0
 11
12852.7408466651
 21
2847.778415730086
 31
0.0
  0
LINE
  5
46624
330
18
100
AcDbEntity
  8
中心線
 48
0.4
100
AcDbLine
 10
12813.51238476211
 20
2871.086778297599
 30
0.0
 11
12813.51238476211
 21
2879.086778297597
 31
0.0
  0
LINE
  5
46625
330
18
100
AcDbEntity
  8
実線
100
AcDbLine
 10
12853.51238476212
 20
2849.701360028859
 30
0.0
 11
12853.51238476212
 21
2885.086778297596
 31
0.0
  0
LINE
  5
46638
330
18
100
AcDbEntity
  8
実線
100
AcDbLine
 10
12917.07002964031
 20
2885.086778297596
 30
0.0
 11
12888.07002964031
 21
2885.086778297595
 31
0.0
  0
LINE
  5
46643
330
18
100
AcDbEntity
  8
実線
100
AcDbLine
 10
12905.27002964031
 20
2853.786778297588
 30
0.0
 11
12907.07002964031
 21
2855.586778297587
 31
0.0
  0
LINE
  5
46644
330
18
100
AcDbEntity
  8
実線
100
AcDbLine
 10
12899.87002964031
 20
2853.786778297588
 30
0.0
 11
12898.07002964031
 21
2855.586778297587
 31
0.0
  0
LINE
  5
46645
330
18
100
AcDbEntity
  8
実線
100
AcDbLine
 10
12888.07002964031
 20
2855.586778297588
 30
0.0
 11
12898.37002964031
 21
2855.586778297588
 31
0.0
  0
LINE
  5
46650
330
18
100
AcDbEntity
  8
実線
100
AcDbLine
 10
12887.57002964031
 20
2856.086778297588
 30
0.0
 11
12887.57002964031
 21
2884.586778297595
 31
0.0
  0
LINE
  5
46651
330
18
100
AcDbEntity
  8
実線
100
AcDbLine
 10
12917.57002964031
 20
2856.086778297588
 30
0.0
 11
12917.57002964031
 21
2884.586778297596
 31
0.0
  0
LINE
  5
46BE8
330
18
100
AcDbEntity
  8
想像線
100
AcDbLine
 10
12613.487252869
 20
2795.325260563208
 30
0.0
 11
12613.487252869
 21
2804.325260563208
 31
0.0
  0
LINE
  5
46BE9
330
18
100
AcDbEntity
  8
想像線
 48
2.0
100
AcDbLine
 10
12606.60610516323
 20
2793.825260563207
 30
0.0
 11
12606.60610516323
 21
2805.825260563208
 31
0.0
  0
LINE
  5
46BEA
330
18
100
AcDbEntity
  8
想像線
 48
2.0
100
AcDbLine
 10
12613.487252869
 20
2795.325260563208
 30
0.0
 11
12624.00610516323
 21
2795.325260563208
 31
0.0
  0
LINE
  5
46BEB
330
18
100
AcDbEntity
  8
想像線
100
AcDbLine
 10
12606.60610516323
 20
2796.325260563208
 30
0.0
 11
12613.487252869
 21
2796.325260563208
 31
0.0
  0
LINE
  5
46BEC
330
18
100
AcDbEntity
  8
想像線
100
AcDbLine
 10
12606.60610516323
 20
2797.125260563208
 30
0.0
 11
12613.487252869
 21
2797.125260563208
 31
0.0
  0
LINE
  5
46BED
330
18
100
AcDbEntity
  8
想像線
 48
2.0
100
AcDbLine
 10
12605.50610516323
 20
2794.825254510165
 30
0.0
 11
12592.40606006176
 21
2794.825254510165
 31
0.0
  0
LINE
  5
46BEE
330
18
100
AcDbEntity
  8
想像線
 48
2.0
100
AcDbLine
 10
12605.50610516323
 20
2793.825260563207
 30
0.0
 11
12605.50610516323
 21
2794.825254510165
 31
0.0
  0
LINE
  5
46BEF
330
18
100
AcDbEntity
  8
想像線
 48
2.0
100
AcDbLine
 10
12606.60610516323
 20
2793.825260563207
 30
0.0
 11
12605.50610516323
 21
2793.825260563207
 31
0.0
  0
LINE
  5
46BF0
330
18
100
AcDbEntity
  8
想像線
 48
2.0
100
AcDbLine
 10
12613.487252869
 20
2804.325260563208
 30
0.0
 11
12624.00610516323
 21
2804.325260563208
 31
0.0
  0
LINE
  5
46BF1
330
18
100
AcDbEntity
  8
想像線
100
AcDbLine
 10
12606.60610516323
 20
2802.525260563208
 30
0.0
 11
12613.487252869
 21
2802.525260563208
 31
0.0
  0
LINE
  5
46BF2
330
18
100
AcDbEntity
  8
想像線
100
AcDbLine
 10
12606.60610516323
 20
2799.425260563208
 30
0.0
 11
12613.487252869
 21
2799.425260563209
 31
0.0
  0
LINE
  5
46BF3
330
18
100
AcDbEntity
  8
想像線
100
AcDbLine
 10
12606.60610516323
 20
2800.225260563207
 30
0.0
 11
12613.487252869
 21
2800.225260563207
 31
0.0
  0
LINE
  5
46BF4
330
18
100
AcDbEntity
  8
想像線
100
AcDbLine
 10
12606.60610516323
 20
2803.325260563208
 30
0.0
 11
12613.487252869
 21
2803.325260563208
 31
0.0
  0
LINE
  5
46BF5
330
18
100
AcDbEntity
  8
想像線
 48
2.0
100
AcDbLine
 10
12605.50610516323
 20
2804.825254510165
 30
0.0
 11
12592.40606006176
 21
2804.825254510165
 31
0.0
  0
LINE
  5
46BF6
330
18
100
AcDbEntity
  8
想像線
 48
2.0
100
AcDbLine
 10
12594.01863149033
 20
2805.310968795879
 30
0.0
 11
12594.01863149033
 21
2805.811677296213
 31
0.0
  0
ARC
  5
46BF7
330
18
100
AcDbEntity
  8
想像線
 48
2.0
100
AcDbCircle
 10
12594.50434577604
 20
2805.310968795879
 30
0.0
 40
0.4857142857142857
100
AcDbArc
 50
180.0
 51
270.0
  0
ARC
  5
46BF8
330
18
100
AcDbEntity
  8
想像線
 48
2.0
100
AcDbCircle
 10
12594.50434577604
 20
2805.811677296214
 30
0.0
 40
0.4857142857142857
100
AcDbArc
 50
99.99999999988856
 51
180.0
  0
LINE
  5
46BF9
330
18
100
AcDbEntity
  8
想像線
 48
2.0
100
AcDbLine
 10
12589.52091720461
 20
2808.642968795879
 30
0.0
 11
12599.88606006176
 21
2808.642968795879
 31
0.0
  0
LINE
  5
46BFA
330
18
100
AcDbEntity
  8
想像線
 48
2.0
100
AcDbLine
 10
12587.64606006176
 20
2808.225254510165
 30
0.0
 11
12598.91463149033
 21
2808.225254510166
 31
0.0
  0
LINE
  5
46BFB
330
18
100
AcDbEntity
  8
想像線
 48
2.0
100
AcDbLine
 10
12598.91463149033
 20
2808.225254510166
 30
0.0
 11
12598.91463149033
 21
2808.642968795879
 31
0.0
  0
LINE
  5
46BFC
330
18
100
AcDbEntity
  8
想像線
 48
2.0
100
AcDbLine
 10
12599.88606006176
 20
2807.253825938737
 30
0.0
 11
12599.88606006176
 21
2808.642968795879
 31
0.0
  0
LINE
  5
46BFD
330
18
100
AcDbEntity
  8
想像線
 48
2.0
100
AcDbLine
 10
12594.42000237546
 20
2806.290012490534
 30
0.0
 11
12599.88606006176
 21
2807.253825938737
 31
0.0
  0
LINE
  5
46BFE
330
18
100
AcDbEntity
  8
想像線
 48
2.0
100
AcDbLine
 10
12605.50610516323
 20
2804.825254510165
 30
0.0
 11
12605.50610516323
 21
2805.825260563208
 31
0.0
  0
LINE
  5
46BFF
330
18
100
AcDbEntity
  8
想像線
 48
2.0
100
AcDbLine
 10
12606.60610516323
 20
2805.825260563208
 30
0.0
 11
12605.50610516323
 21
2805.825260563208
 31
0.0
  0
LINE
  5
46C00
330
18
100
AcDbEntity
  8
想像線
100
AcDbLine
 10
12582.90606006176
 20
2796.300254510165
 30
0.0
 11
12582.90606006176
 21
2799.750254510165
 31
0.0
  0
LINE
  5
46C01
330
18
100
AcDbEntity
  8
想像線
 48
2.0
100
AcDbLine
 10
12592.40606006176
 20
2794.825254510165
 30
0.0
 11
12592.40606006176
 21
2804.825254510165
 31
0.0
  0
LINE
  5
46C02
330
18
100
AcDbEntity
  8
想像線
100
AcDbLine
 10
12582.90606006176
 20
2796.300254510165
 30
0.0
 11
12592.40606006176
 21
2796.300254510165
 31
0.0
  0
LINE
  5
46C03
330
18
100
AcDbEntity
  8
想像線
100
AcDbLine
 10
12582.90606006176
 20
2803.850254510165
 30
0.0
 11
12592.40606006176
 21
2803.850254510165
 31
0.0
  0
LINE
  5
46C04
330
18
100
AcDbEntity
  8
想像線
100
AcDbLine
 10
12582.90606006176
 20
2800.400254510165
 30
0.0
 11
12592.40606006176
 21
2800.400254510165
 31
0.0
  0
LINE
  5
46C05
330
18
100
AcDbEntity
  8
想像線
100
AcDbLine
 10
12582.90606006176
 20
2799.750254510165
 30
0.0
 11
12592.40606006176
 21
2799.750254510165
 31
0.0
  0
LINE
  5
46C06
330
18
100
AcDbEntity
  8
想像線
100
AcDbLine
 10
12582.90606006176
 20
2800.400254510165
 30
0.0
 11
12582.90606006176
 21
2803.850254510165
 31
0.0
  0
LINE
  5
46C07
330
18
100
AcDbEntity
  8
想像線
 48
2.0
100
AcDbLine
 10
12592.40606006176
 20
2804.825254510165
 30
0.0
 11
12592.40606006176
 21
2808.642968795879
 31
0.0
  0
LINE
  5
46C08
330
18
100
AcDbEntity
  8
想像線
 48
2.0
100
AcDbLine
 10
12589.1032029189
 20
2805.019540224451
 30
0.0
 11
12589.00606006175
 21
2806.088111653022
 31
0.0
  0
LINE
  5
46C09
330
18
100
AcDbEntity
  8
想像線
 48
2.0
100
AcDbLine
 10
12586.67463149033
 20
2805.990968795879
 30
0.0
 11
12587.64606006176
 21
2805.019540224451
 31
0.0
  0
LINE
  5
46C0A
330
18
100
AcDbEntity
  8
想像線
 48
2.0
100
AcDbLine
 10
12587.64606006176
 20
2805.019540224451
 30
0.0
 11
12589.1032029189
 21
2805.019540224451
 31
0.0
  0
LINE
  5
46C0B
330
18
100
AcDbEntity
  8
想像線
 48
2.0
100
AcDbLine
 10
12589.1032029189
 20
2807.253825938737
 30
0.0
 11
12589.1032029189
 21
2808.225254510165
 31
0.0
  0
LINE
  5
46C0C
330
18
100
AcDbEntity
  8
想像線
 48
2.0
100
AcDbLine
 10
12587.64606006176
 20
2808.225254510165
 30
0.0
 11
12586.67463149033
 21
2807.253825938737
 31
0.0
  0
LINE
  5
46C0D
330
18
100
AcDbEntity
  8
想像線
 48
2.0
100
AcDbLine
 10
12586.67463149033
 20
2805.990968795879
 30
0.0
 11
12586.67463149033
 21
2807.253825938737
 31
0.0
  0
LINE
  5
46C0E
330
18
100
AcDbEntity
  8
想像線
 48
2.0
100
AcDbLine
 10
12589.1032029189
 20
2808.225254510165
 30
0.0
 11
12589.52091720461
 21
2808.642968795879
 31
0.0
  0
LINE
  5
46C0F
330
18
100
AcDbEntity
  8
想像線
 48
2.0
100
AcDbLine
 10
12589.1032029189
 20
2807.253825938737
 30
0.0
 11
12592.40606006176
 21
2807.253825938737
 31
0.0
  0
LINE
  5
46C10
330
18
100
AcDbEntity
  8
想像線
100
AcDbLine
 10
12589.00606006175
 20
2806.088111653022
 30
0.0
 11
12592.40606006176
 21
2806.088111653022
 31
0.0
  0
LINE
  5
46C11
330
18
100
AcDbEntity
  8
実線
100
AcDbLine
 10
12605.50610516323
 20
2861.501977535683
 30
0.0
 11
12592.40606006176
 21
2861.501977535683
 31
0.0
  0
LINE
  5
46C15
330
18
100
AcDbEntity
  8
実線
100
AcDbLine
 10
12618.1802063708
 20
2868.314001120985
 30
0.0
 11
12606.62066018646
 21
2871.067423571999
 31
0.0
  0
LINE
  5
46C16
330
18
100
AcDbEntity
  8
実線
100
AcDbLine
 10
12618.1743506487
 20
2865.914008264638
 30
0.0
 11
12606.61480446436
 21
2868.667430715651
 31
0.0
  0
LINE
  5
46C17
330
18
100
AcDbEntity
  8
実線
100
AcDbLine
 10
12618.17532660239
 20
2866.314007074029
 30
0.0
 11
12606.61578041804
 21
2869.067429525042
 31
0.0
  0
LINE
  5
46C18
330
18
100
AcDbEntity
  8
実線
100
AcDbLine
 10
12618.16947088029
 20
2863.914014217682
 30
0.0
 11
12606.60992469594
 21
2866.667436668695
 31
0.0
  0
LINE
  5
46C19
330
18
100
AcDbEntity
  8
実線
100
AcDbLine
 10
12606.60610516323
 20
2872.501983588726
 30
0.0
 11
12605.50610516323
 21
2872.501983588726
 31
0.0
  0
LINE
  5
46C1B
330
18
100
AcDbEntity
  8
実線
100
AcDbLine
 10
12605.50610516323
 20
2871.501977535683
 30
0.0
 11
12605.50610516323
 21
2872.501983588726
 31
0.0
  0
LINE
  5
46C1C
330
18
100
AcDbEntity
  8
実線
100
AcDbLine
 10
12594.42000237546
 20
2872.966735516052
 30
0.0
 11
12599.88606006176
 21
2873.930548964254
 31
0.0
  0
LINE
  5
46C1D
330
18
100
AcDbEntity
  8
実線
100
AcDbLine
 10
12599.88606006176
 20
2873.930548964254
 30
0.0
 11
12599.88606006176
 21
2875.319691821397
 31
0.0
  0
LINE
  5
46C1E
330
18
100
AcDbEntity
  8
実線
100
AcDbLine
 10
12598.91463149033
 20
2874.901977535683
 30
0.0
 11
12598.91463149033
 21
2875.319691821397
 31
0.0
  0
LINE
  5
46C1F
330
18
100
AcDbEntity
  8
実線
100
AcDbLine
 10
12589.00606006175
 20
2872.76483467854
 30
0.0
 11
12592.40606006176
 21
2872.76483467854
 31
0.0
  0
LINE
  5
46C20
330
18
100
AcDbEntity
  8
実線
100
AcDbLine
 10
12589.1032029189
 20
2873.930548964254
 30
0.0
 11
12592.40606006176
 21
2873.930548964254
 31
0.0
  0
LINE
  5
46C21
330
18
100
AcDbEntity
  8
実線
100
AcDbLine
 10
12589.1032029189
 20
2874.901977535683
 30
0.0
 11
12589.52091720461
 21
2875.319691821397
 31
0.0
  0
LINE
  5
46C22
330
18
100
AcDbEntity
  8
実線
100
AcDbLine
 10
12586.67463149033
 20
2872.667691821397
 30
0.0
 11
12586.67463149033
 21
2873.930548964254
 31
0.0
  0
LINE
  5
46C23
330
18
100
AcDbEntity
  8
実線
100
AcDbLine
 10
12587.64606006176
 20
2874.901977535683
 30
0.0
 11
12586.67463149033
 21
2873.930548964254
 31
0.0
  0
LINE
  5
46C24
330
18
100
AcDbEntity
  8
実線
100
AcDbLine
 10
12589.1032029189
 20
2873.930548964254
 30
0.0
 11
12589.1032029189
 21
2874.901977535683
 31
0.0
  0
LINE
  5
46C25
330
18
100
AcDbEntity
  8
実線
100
AcDbLine
 10
12587.64606006176
 20
2874.901977535683
 30
0.0
 11
12598.91463149033
 21
2874.901977535683
 31
0.0
  0
LINE
  5
46C26
330
18
100
AcDbEntity
  8
実線
100
AcDbLine
 10
12589.52091720461
 20
2875.319691821397
 30
0.0
 11
12599.88606006176
 21
2875.319691821397
 31
0.0
  0
ARC
  5
46C27
330
18
100
AcDbEntity
  8
実線
100
AcDbCircle
 10
12594.50434577604
 20
2872.488400321732
 30
0.0
 40
0.4857142857142857
100
AcDbArc
 50
99.99999999988856
 51
180.0
  0
LINE
  5
46C28
330
18
100
AcDbEntity
  8
実線
100
AcDbLine
 10
12587.64606006176
 20
2871.696263249969
 30
0.0
 11
12589.1032029189
 21
2871.696263249969
 31
0.0
  0
ARC
  5
46C29
330
18
100
AcDbEntity
  8
実線
100
AcDbCircle
 10
12594.50434577604
 20
2871.987691821397
 30
0.0
 40
0.4857142857142857
100
AcDbArc
 50
180.0
 51
270.0
  0
LINE
  5
46C2A
330
18
100
AcDbEntity
  8
実線
100
AcDbLine
 10
12586.67463149033
 20
2872.667691821397
 30
0.0
 11
12587.64606006176
 21
2871.696263249969
 31
0.0
  0
LINE
  5
46C2B
330
18
100
AcDbEntity
  8
実線
100
AcDbLine
 10
12589.1032029189
 20
2871.696263249969
 30
0.0
 11
12589.00606006175
 21
2872.76483467854
 31
0.0
  0
LINE
  5
46C2C
330
18
100
AcDbEntity
  8
実線
100
AcDbLine
 10
12592.40606006176
 20
2871.501977535683
 30
0.0
 11
12592.40606006176
 21
2875.319691821397
 31
0.0
  0
LINE
  5
46C2D
330
18
100
AcDbEntity
  8
実線
100
AcDbLine
 10
12594.01863149033
 20
2871.987691821397
 30
0.0
 11
12594.01863149033
 21
2872.488400321731
 31
0.0
  0
LINE
  5
46C2E
330
18
100
AcDbEntity
  8
実線
100
AcDbLine
 10
12605.50610516323
 20
2871.501977535683
 30
0.0
 11
12592.40606006176
 21
2871.501977535683
 31
0.0
  0
LINE
  5
46C2F
330
18
100
AcDbEntity
  8
実線
100
AcDbLine
 10
12606.60610516323
 20
2860.501983588725
 30
0.0
 11
12605.50610516323
 21
2860.501983588725
 31
0.0
  0
LINE
  5
46C30
330
18
100
AcDbEntity
  8
実線
100
AcDbLine
 10
12605.50610516323
 20
2860.501983588725
 30
0.0
 11
12605.50610516323
 21
2861.501977535683
 31
0.0
  0
LINE
  5
46C31
330
18
100
AcDbEntity
  8
実線
100
AcDbLine
 10
12592.40606006176
 20
2861.501977535683
 30
0.0
 11
12592.40606006176
 21
2871.501977535683
 31
0.0
  0
LINE
  5
46C32
330
18
100
AcDbEntity
  8
実線
100
AcDbLine
 10
12606.60610516323
 20
2860.501983588725
 30
0.0
 11
12606.60610516323
 21
2872.501983588726
 31
0.0
  0
LINE
  5
46C33
330
18
100
AcDbEntity
  8
実線
100
AcDbLine
 10
12582.90606006176
 20
2867.076977535683
 30
0.0
 11
12582.90606006176
 21
2870.526977535683
 31
0.0
  0
LINE
  5
46C34
330
18
100
AcDbEntity
  8
実線
100
AcDbLine
 10
12582.90606006176
 20
2862.976977535683
 30
0.0
 11
12582.90606006176
 21
2866.426977535683
 31
0.0
  0
LINE
  5
46C35
330
18
100
AcDbEntity
  8
実線
100
AcDbLine
 10
12582.90606006176
 20
2862.976977535683
 30
0.0
 11
12592.40606006176
 21
2862.976977535683
 31
0.0
  0
LINE
  5
46C36
330
18
100
AcDbEntity
  8
実線
100
AcDbLine
 10
12582.90606006176
 20
2866.426977535683
 30
0.0
 11
12592.40606006176
 21
2866.426977535683
 31
0.0
  0
LINE
  5
46C37
330
18
100
AcDbEntity
  8
実線
100
AcDbLine
 10
12582.90606006176
 20
2867.076977535683
 30
0.0
 11
12592.40606006176
 21
2867.076977535683
 31
0.0
  0
LINE
  5
46C38
330
18
100
AcDbEntity
  8
実線
100
AcDbLine
 10
12582.90606006176
 20
2870.526977535683
 30
0.0
 11
12592.40606006176
 21
2870.526977535683
 31
0.0
  0
LINE
  5
46C39
330
18
100
AcDbEntity
  8
実線
100
AcDbLine
 10
12618.15589181075
 20
2863.586778300896
 30
0.0
 11
12618.15589181075
 21
2868.586778294296
 31
0.0
  0
LINE
  5
46C3A
330
18
100
AcDbEntity
  8
実線
100
AcDbLine
 10
12618.15589181074
 20
2862.586778297596
 30
0.0
 11
12618.15589181075
 21
2869.586778297596
 31
0.0
  0
LINE
  5
46C67
330
18
100
AcDbEntity
  8
細線
  6
PHANTOMX2
 48
5.0
100
AcDbLine
 10
12621.20723995744
 20
2859.485022964847
 30
0.0
 11
12632.65598185422
 21
2794.390205881473
 31
0.0
  0
LINE
  5
46C6E
330
18
100
AcDbEntity
  8
想像線
 48
2.0
100
AcDbLine
 10
12628.49434484071
 20
2796.825260563208
 30
0.0
 11
12632.22770946934
 21
2796.825260563208
 31
0.0
  0
LINE
  5
46C6F
330
18
100
AcDbEntity
  8
想像線
 48
2.0
100
AcDbLine
 10
12631.17244186957
 20
2802.825260563209
 30
0.0
 11
12628.49434484071
 21
2802.825260563208
 31
0.0
  0
LINE
  5
46C71
330
18
100
AcDbEntity
  8
想像線
 48
2.0
100
AcDbLine
 10
12625.00610516323
 20
2796.525260563209
 30
0.0
 11
12624.00610516323
 21
2795.325260563208
 31
0.0
  0
LINE
  5
46C73
330
18
100
AcDbEntity
  8
想像線
 48
2.0
100
AcDbLine
 10
12624.00610516323
 20
2804.325260563208
 30
0.0
 11
12625.00610516323
 21
2803.125260563209
 31
0.0
  0
LINE
  5
47068
330
18
100
AcDbEntity
  8
想像線
 48
2.0
100
AcDbLine
 10
12636.51238476212
 20
2857.086778297593
 30
0.0
 11
12621.62903827305
 21
2857.086778297602
 31
0.0
  0
LINE
  5
47070
330
18
100
AcDbEntity
  8
想像線
 48
2.0
100
AcDbLine
 10
12622.68430587282
 20
2851.0867782976
 30
0.0
 11
12639.51238476212
 21
2851.086778297597
 31
0.0
  0
LINE
  5
47071
330
18
100
AcDbEntity
  8
実線
100
AcDbLine
 10
12618.15589181074
 20
2862.586778297599
 30
0.0
 11
12639.51238476212
 21
2862.586778297596
 31
0.0
  0
LINE
  5
47072
330
18
100
AcDbEntity
  8
実線
100
AcDbLine
 10
12618.15589181075
 20
2869.586778297597
 30
0.0
 11
12653.51238476212
 21
2869.586778297595
 31
0.0
  0
LINE
  5
47392
330
18
100
AcDbEntity
  8
実線
100
AcDbLine
 10
12906.77002964031
 20
2870.086778297595
 30
0.0
 11
12898.37002964031
 21
2870.086778297595
 31
0.0
  0
LINE
  5
473A1
330
18
100
AcDbEntity
  8
実線
100
AcDbLine
 10
12906.77002964031
 20
2855.586778297588
 30
0.0
 11
12906.77002964031
 21
2870.086778297595
 31
0.0
  0
LINE
  5
473A2
330
18
100
AcDbEntity
  8
実線
100
AcDbLine
 10
12898.37002964031
 20
2855.586778297588
 30
0.0
 11
12898.37002964031
 21
2870.086778297595
 31
0.0
  0
SPLINE
  5
47712
330
18
100
AcDbEntity
  8
細線
100
AcDbSpline
210
0.0
220
0.0
230
1.0
 70
  1064
 71
     3
 72
    12
 73
     8
 74
     6
 42
0.000000001
 43
0.0000000001
 44
0.0000000001
 40
0.0
 40
0.0
 40
0.0
 40
0.0
 40
2.812153702321121
 40
6.927195075884932
 40
10.29658125758725
 40
13.40171693196099
 40
15.49498562802008
 40
15.49498562802008
 40
15.49498562802008
 40
15.49498562802008
 10
12624.14848527602
 20
2940.044517505656
 30
0.0
 10
12623.54162571285
 20
2939.326043423416
 30
0.0
 10
12622.0467449123
 20
2937.556221908845
 30
0.0
 10
12621.49839152554
 20
2933.729832481354
 30
0.0
 10
12623.57554091298
 20
2930.815296387573
 30
0.0
 10
12623.80785136428
 20
2927.592901355265
 30
0.0
 10
12622.53536395947
 20
2926.333424262746
 30
0.0
 10
12622.02296479604
 20
2925.826264029854
 30
0.0
 11
12624.14848527602
 21
2940.044517505656
 31
0.0
 11
12622.51346854008
 21
2937.75652084511
 31
0.0
 11
12622.02296479604
 21
2933.670817529495
 31
0.0
 11
12623.33097690805
 21
2930.565681855121
 31
0.0
 11
12623.33097690805
 21
2927.460546180747
 31
0.0
 11
12622.02296479604
 21
2925.826264029854
 31
0.0
  0
LINE
  5
47713
330
18
100
AcDbEntity
  8
実線
100
AcDbLine
 10
12656.28970204979
 20
2918.198724413914
 30
0.0
 11
12656.28970204979
 21
2948.198724413914
 31
0.0
  0
LINE
  5
47717
330
18
100
AcDbEntity
  8
実線
100
AcDbLine
 10
12623.54601833483
 20
2929.698724413914
 30
0.0
 11
12656.28970204979
 21
2929.698724413914
 31
0.0
  0
LINE
  5
47718
330
18
100
AcDbEntity
  8
実線
100
AcDbLine
 10
12622.10519579024
 20
2936.698724413913
 30
0.0
 11
12656.28970204979
 21
2936.698724413914
 31
0.0
  0
TEXT
  5
4786A
330
18
100
AcDbEntity
  8
0
 62
     7
100
AcDbText
 10
12696.66804165524
 20
2938.564019050489
 30
137.5
 40
1.5
  1
MADE IN JAPAN
 50
180.0
  7
MSｺﾞｼｯｸN
 11
12696.66804165524
 21
2938.838026862988
 31
137.5
100
AcDbText
 73
     1
  0
TEXT
  5
4786B
330
18
100
AcDbEntity
  8
0
 62
     7
100
AcDbText
 10
12696.66804165524
 20
2936.694233000102
 30
137.5
 40
1.5
  1
SN-16140
 50
180.0
  7
MSｺﾞｼｯｸN
 11
12696.66804165524
 21
2936.968240812602
 31
137.5
100
AcDbText
 73
     1
  0
LINE
  5
47872
330
18
100
AcDbEntity
  8
実線
100
AcDbLine
 10
12656.28970204979
 20
2918.198724413914
 30
0.0
 11
12656.28970204979
 21
2948.198724413914
 31
0.0
  0
HATCH
  5
47875
330
18
100
AcDbEntity
  8
0
 62
     4
100
AcDbHatch
 10
0.0
 20
0.0
 30
0.0
210
0.0
220
0.0
230
1.0
  2
SOLID
 70
     1
 71
     1
 91
        2
 92
       17
 93
        1
 72
     2
 10
12672.62962864817
 20
2935.498480333301
 40
0.6007500000000001
 50
0.0
 51
360.0
 73
     1
 97
        1
330
47893
 92
        1
 93
        8
 72
     2
 10
12672.62869725283
 20
2935.496617542603
 40
1.003113223100251
 50
293.5897772726021
 51
449.9468005914187
 73
     1
 72
     2
 10
12672.62962864817
 20
2935.698730333301
 40
0.801
 50
90.0
 51
270.0
 73
     1
 72
     1
 10
12672.62962864817
 20
2934.8977303333
 11
12670.38682864817
 21
2934.8977303333
 72
     1
 10
12670.38682864817
 20
2934.8977303333
 11
12670.62712864817
 21
2936.9002303333
 72
     1
 10
12670.62712864817
 20
2936.9002303333
 11
12675.03262864817
 21
2936.9002303333
 72
     1
 10
12675.03262864817
 20
2936.9002303333
 11
12674.63212864817
 21
2933.6962303333
 72
     1
 10
12674.63212864817
 20
2933.6962303333
 11
12670.22662864817
 21
2933.6962303333
 72
     1
 10
12670.22662864817
 20
2933.6962303333
 11
12673.03012864817
 21
2934.577330333301
 97
        8
330
47894
330
47895
330
4788A
330
47896
330
47880
330
47898
330
4788D
330
47889
 75
     0
 76
     1
 98
        1
 10
12874.10733874241
 20
2933.01900551754
  0
HATCH
  5
47876
330
18
100
AcDbEntity
  8
0
 62
     2
100
AcDbHatch
 10
0.0
 20
0.0
 30
0.0
210
0.0
220
0.0
230
1.0
  2
SOLID
 70
     1
 71
     1
 91
        2
 92
       17
 93
        1
 72
     2
 10
12711.34065554871
 20
2936.943450995911
 40
0.6007500000000001
 50
0.0
 51
360.0
 73
     1
 97
        1
330
4787E
 92
        1
 93
        8
 72
     2
 10
12711.33972415336
 20
2936.941588205214
 40
1.003113223100251
 50
293.5897772726021
 51
449.9468005914187
 73
     1
 72
     2
 10
12711.34065554871
 20
2937.143700995911
 40
0.801
 50
90.0
 51
270.0
 73
     1
 72
     1
 10
12711.34065554871
 20
2936.342700995911
 11
12709.09785554871
 21
2936.342700995911
 72
     1
 10
12709.09785554871
 20
2936.342700995911
 11
12709.33815554871
 21
2938.345200995911
 72
     1
 10
12709.33815554871
 20
2938.345200995911
 11
12713.74365554871
 21
2938.345200995911
 72
     1
 10
12713.74365554871
 20
2938.345200995911
 11
12713.34315554871
 21
2935.141200995912
 72
     1
 10
12713.34315554871
 20
2935.141200995912
 11
12708.93765554871
 21
2935.141200995912
 72
     1
 10
12708.93765554871
 20
2935.141200995912
 11
12711.74115554871
 21
2936.022300995911
 97
        8
330
4787D
330
4787A
330
47878
330
47879
330
4787F
330
47890
330
47887
330
47892
 75
     0
 76
     1
 98
        1
 10
12912.81836564295
 20
2934.463976180152
  0
LINE
  5
47877
330
18
100
AcDbEntity
  8
0
 62
     2
100
AcDbLine
 10
12715.78970204979
 20
2939.198724413913
 30
0.0
 11
12681.78970204979
 21
2939.198724413913
 31
0.0
  0
LINE
  5
47878
102
{ACAD_REACTORS
330
47876
102
}
330
18
100
AcDbEntity
  8
0
 62
     2
100
AcDbLine
 10
12711.34065554871
 20
2936.342700995911
 30
0.0
 11
12709.09785554871
 21
2936.342700995911
 31
0.0
  0
LINE
  5
47879
102
{ACAD_REACTORS
330
47876
102
}
330
18
100
AcDbEntity
  8
0
 62
     2
100
AcDbLine
 10
12709.33815554871
 20
2938.345200995911
 30
0.0
 11
12709.09785554871
 21
2936.342700995911
 31
0.0
  0
ARC
  5
4787A
102
{ACAD_REACTORS
330
47876
102
}
330
18
100
AcDbEntity
  8
0
 62
     2
100
AcDbCircle
 10
12711.34065554871
 20
2937.143700995911
 30
0.0
 40
0.801
100
AcDbArc
 50
90.0
 51
270.0
  0
TEXT
  5
4787B
330
18
100
AcDbEntity
  8
0
 62
     2
100
AcDbText
 10
12708.12155632433
 20
2938.297466857327
 30
0.0
 40
1.44
  1
DENSO
 50
180.0
 41
1.3
  7
TIMESNR
100
AcDbText
  0
ARC
  5
4787C
330
18
100
AcDbEntity
  8
0
 62
     2
100
AcDbCircle
 10
12715.78970204979
 20
2938.698724413913
 30
0.0
 40
0.5
100
AcDbArc
 50
0.0
 51
90.0
  0
ARC
  5
4787D
102
{ACAD_REACTORS
330
47876
102
}
330
18
100
AcDbEntity
  8
0
 62
     2
100
AcDbCircle
 10
12711.33972415336
 20
2936.941588205214
 30
0.0
 40
1.003113223100251
100
AcDbArc
 50
293.5897772726021
 51
89.94680059141875
  0
CIRCLE
  5
4787E
102
{ACAD_REACTORS
330
47876
102
}
330
18
100
AcDbEntity
  8
0
 62
     2
100
AcDbCircle
 10
12711.34065554871
 20
2936.943450995911
 30
0.0
 40
0.6007500000000001
  0
LINE
  5
4787F
102
{ACAD_REACTORS
330
47876
102
}
330
18
100
AcDbEntity
  8
0
 62
     2
100
AcDbLine
 10
12713.74365554871
 20
2938.345200995911
 30
0.0
 11
12709.33815554871
 21
2938.345200995911
 31
0.0
  0
LINE
  5
47880
102
{ACAD_REACTORS
330
47875
102
}
330
18
100
AcDbEntity
  8
0
 62
     4
100
AcDbLine
 10
12675.03262864817
 20
2936.9002303333
 30
0.0
 11
12670.62712864817
 21
2936.9002303333
 31
0.0
  0
ARC
  5
47881
330
18
100
AcDbEntity
  8
0
 62
     2
100
AcDbCircle
 10
12681.78970204979
 20
2938.698724413913
 30
0.0
 40
0.5
100
AcDbArc
 50
90.0
 51
180.0
  0
LINE
  5
47882
330
18
100
AcDbEntity
  8
0
 62
     2
100
AcDbLine
 10
12716.28970204979
 20
2934.198724413913
 30
0.0
 11
12681.28970204979
 21
2934.198724413913
 31
0.0
  0
LINE
  5
47883
330
18
100
AcDbEntity
  8
0
 62
     2
100
AcDbLine
 10
12681.78970204979
 20
2927.198724413913
 30
0.0
 11
12715.78970204979
 21
2927.198724413913
 31
0.0
  0
TEXT
  5
47884
330
18
100
AcDbEntity
  8
0
 62
     2
100
AcDbText
 10
12714.46573201893
 20
2930.815992294788
 30
0.0
 40
2.6
  1
MODEL:CLV-CM***
 50
180.0
 41
1.2
  7
MSｺﾞｼｯｸN
 11
12714.46573201893
 21
2931.290939169788
 31
0.0
100
AcDbText
 73
     1
  0
ARC
  5
47885
330
18
100
AcDbEntity
  8
0
 62
     2
100
AcDbCircle
 10
12715.78970204979
 20
2927.698724413913
 30
0.0
 40
0.5
100
AcDbArc
 50
270.0
 51
0.0
  0
TEXT
  5
47886
330
18
100
AcDbEntity
  8
0
 62
     2
100
AcDbText
 10
12714.49285859174
 20
2933.639984098168
 30
0.0
 40
2.0
  1
SER No.******
 50
180.0
 41
1.2
  7
MSｺﾞｼｯｸN
 11
12714.49285859174
 21
2934.005327848169
 31
0.0
100
AcDbText
 73
     1
  0
LINE
  5
47887
102
{ACAD_REACTORS
330
47876
102
}
330
18
100
AcDbEntity
  8
0
 62
     2
100
AcDbLine
 10
12713.34315554871
 20
2935.141200995912
 30
0.0
 11
12708.93765554871
 21
2935.141200995912
 31
0.0
  0
LINE
  5
47888
330
18
100
AcDbEntity
  8
0
 62
     4
100
AcDbLine
 10
12676.28970204979
 20
2932.198724413913
 30
0.0
 11
12661.28970204979
 21
2932.198724413913
 31
0.0
  0
LINE
  5
47889
102
{ACAD_REACTORS
330
47875
102
}
330
18
100
AcDbEntity
  8
0
 62
     4
100
AcDbLine
 10
12670.22662864817
 20
2933.6962303333
 30
0.0
 11
12673.03012864817
 21
2934.577330333301
 31
0.0
  0
LINE
  5
4788A
102
{ACAD_REACTORS
330
47875
102
}
330
18
100
AcDbEntity
  8
0
 62
     4
100
AcDbLine
 10
12672.62962864817
 20
2934.8977303333
 30
0.0
 11
12670.38682864817
 21
2934.8977303333
 31
0.0
  0
TEXT
  5
4788B
330
18
100
AcDbEntity
  8
0
 62
     4
100
AcDbText
 10
12669.28911631365
 20
2935.155733785731
 30
0.0
 40
1.44
  1
NIKKI
 50
180.0
  7
TIMESNR
100
AcDbText
  0
TEXT
  5
4788C
330
18
100
AcDbEntity
  8
0
 62
     4
100
AcDbText
 10
12675.07498357058
 20
2931.239597428185
 30
0.0
 40
2.0
  1
Certificate
 50
180.0
  7
TIMESNR
 11
12675.07498357058
 21
2931.878953715689
 31
0.0
100
AcDbText
 73
     1
  0
LINE
  5
4788D
102
{ACAD_REACTORS
330
47875
102
}
330
18
100
AcDbEntity
  8
0
 62
     4
100
AcDbLine
 10
12674.63212864817
 20
2933.6962303333
 30
0.0
 11
12670.22662864817
 21
2933.6962303333
 31
0.0
  0
ARC
  5
4788E
330
18
100
AcDbEntity
  8
0
 62
     2
100
AcDbCircle
 10
12681.78970204979
 20
2927.698724413913
 30
0.0
 40
0.5
100
AcDbArc
 50
180.0
 51
270.0
  0
TEXT
  5
4788F
330
18
100
AcDbEntity
  8
0
 62
     2
100
AcDbText
 10
12708.00014321419
 20
2936.600704448342
 30
0.0
 40
1.44
  1
NIKKI
 50
180.0
 41
1.25
  7
TIMESNR
100
AcDbText
  0
LINE
  5
47890
102
{ACAD_REACTORS
330
47876
102
}
330
18
100
AcDbEntity
  8
0
 62
     2
100
AcDbLine
 10
12713.74365554871
 20
2938.345200995911
 30
0.0
 11
12713.34315554871
 21
2935.141200995912
 31
0.0
  0
LINE
  5
47891
330
18
100
AcDbEntity
  8
0
 62
     2
100
AcDbLine
 10
12716.28970204979
 20
2927.698724413913
 30
0.0
 11
12716.28970204979
 21
2938.698724413913
 31
0.0
  0
LINE
  5
47892
102
{ACAD_REACTORS
330
47876
102
}
330
18
100
AcDbEntity
  8
0
 62
     2
100
AcDbLine
 10
12708.93765554871
 20
2935.141200995912
 30
0.0
 11
12711.74115554871
 21
2936.022300995911
 31
0.0
  0
CIRCLE
  5
47893
102
{ACAD_REACTORS
330
47875
102
}
330
18
100
AcDbEntity
  8
0
 62
     4
100
AcDbCircle
 10
12672.62962864817
 20
2935.498480333301
 30
0.0
 40
0.6007500000000001
  0
ARC
  5
47894
102
{ACAD_REACTORS
330
47875
102
}
330
18
100
AcDbEntity
  8
0
 62
     4
100
AcDbCircle
 10
12672.62869725283
 20
2935.496617542603
 30
0.0
 40
1.003113223100251
100
AcDbArc
 50
293.5897772726021
 51
89.94680059141875
  0
ARC
  5
47895
102
{ACAD_REACTORS
330
47875
102
}
330
18
100
AcDbEntity
  8
0
 62
     4
100
AcDbCircle
 10
12672.62962864817
 20
2935.698730333301
 30
0.0
 40
0.801
100
AcDbArc
 50
90.0
 51
270.0
  0
LINE
  5
47896
102
{ACAD_REACTORS
330
47875
102
}
330
18
100
AcDbEntity
  8
0
 62
     4
100
AcDbLine
 10
12670.62712864817
 20
2936.9002303333
 30
0.0
 11
12670.38682864817
 21
2934.8977303333
 31
0.0
  0
TEXT
  5
47897
330
18
100
AcDbEntity
  8
0
 62
     4
100
AcDbText
 10
12669.41052942379
 20
2936.852496194717
 30
0.0
 40
1.44
  1
DENSO
 50
180.0
  7
TIMESNR
100
AcDbText
  0
LINE
  5
47898
102
{ACAD_REACTORS
330
47875
102
}
330
18
100
AcDbEntity
  8
0
 62
     4
100
AcDbLine
 10
12675.03262864817
 20
2936.9002303333
 30
0.0
 11
12674.63212864817
 21
2933.6962303333
 31
0.0
  0
LWPOLYLINE
  5
47899
330
18
100
AcDbEntity
  8
0
 62
     4
100
AcDbPolyline
 90
        8
 70
     1
 43
0.0
 10
12675.78970204979
 20
2938.198724413913
 10
12661.78970204979
 20
2938.198724413914
 42
0.414213562373095
 10
12661.28970204979
 20
2937.698724413914
 10
12661.28970204979
 20
2928.698724413914
 42
0.414213562373095
 10
12661.78970204979
 20
2928.198724413914
 10
12675.78970204979
 20
2928.198724413914
 42
0.4142135623730996
 10
12676.28970204979
 20
2928.698724413914
 10
12676.28970204979
 20
2937.698724413913
 42
0.4142135623730904
  0
LINE
  5
4789A
330
18
100
AcDbEntity
  8
0
 62
     2
100
AcDbLine
 10
12681.28970204979
 20
2938.698724413913
 30
0.0
 11
12681.28970204979
 21
2927.698724413913
 31
0.0
  0
LINE
  5
4795B
330
18
100
AcDbEntity
  8
実線
100
AcDbLine
 10
12656.28970204979
 20
2948.198724413914
 30
0.0
 11
12726.7681561523
 21
2948.198724413914
 31
0.0
  0
LINE
  5
4795C
330
18
100
AcDbEntity
  8
実線
100
AcDbLine
 10
12656.28970204979
 20
2918.198724413914
 30
0.0
 11
12727.25856160287
 21
2918.198724413914
 31
0.0
  0
SPLINE
  5
4795D
330
18
100
AcDbEntity
  8
細線
100
AcDbSpline
210
0.0
220
0.0
230
1.0
 70
  1064
 71
     3
 72
    12
 73
     8
 74
     6
 42
0.000000001
 43
0.0000000001
 44
0.0000000001
 40
0.0
 40
0.0
 40
0.0
 40
0.0
 40
4.383795587126982
 40
13.45854892844399
 40
21.01024344967502
 40
28.52568817667342
 40
37.45023787551234
 40
37.45023787551234
 40
37.45023787551234
 40
37.45023787551234
 10
12728.00892060732
 20
2949.562490733606
 30
0.0
 10
12727.02222515656
 20
2948.505370615035
 30
0.0
 10
12723.99300339255
 20
2945.259940358018
 30
0.0
 10
12722.22246060989
 20
2936.731052400743
 30
0.0
 10
12730.03246270722
 20
2931.998444786251
 30
0.0
 10
12730.55095379453
 20
2922.991876525216
 30
0.0
 10
12727.43065747017
 20
2918.396111796147
 30
0.0
 10
12725.73678587262
 20
2915.901273314675
 30
0.0
 11
12728.00892060732
 21
2949.562490733606
 31
0.0
 11
12725.24989529826
 21
2946.155814480466
 31
0.0
 11
12724.11382793091
 21
2937.152454044352
 31
0.0
 11
12728.90154587933
 21
2931.312432898126
 31
0.0
 11
12729.79417115135
 21
2923.850185946415
 31
0.0
 11
12725.73678587262
 21
2915.901273314675
 31
0.0
  0
LINE
  5
47C93
330
18
100
AcDbEntity
  8
想像線
 48
2.0
100
AcDbLine
 10
12653.51238476212
 20
2864.686760028857
 30
0.0
 11
12639.51238476212
 21
2864.686760028857
 31
0.0
  0
LINE
  5
47C94
330
18
100
AcDbEntity
  8
想像線
 48
2.0
100
AcDbLine
 10
12636.51238476211
 20
2859.936806523261
 30
0.0
 11
12636.51238476213
 21
2855.03680652325
 31
0.0
  0
LINE
  5
47C96
330
18
100
AcDbEntity
  8
想像線
 48
2.0
100
AcDbLine
 10
12636.81238476211
 20
2860.236806523262
 30
0.0
 11
12636.51238476211
 21
2859.936806523261
 31
0.0
  0
LINE
  5
47C97
330
18
100
AcDbEntity
  8
想像線
 48
2.0
100
AcDbLine
 10
12636.81238476211
 20
2860.236806523262
 30
0.0
 11
12639.51238476211
 21
2860.23680652327
 31
0.0
  0
LINE
  5
47D1E
330
18
100
AcDbEntity
  8
実線
100
AcDbLine
 10
12906.77002964031
 20
2855.586778297588
 30
0.0
 11
12917.07002964031
 21
2855.586778297588
 31
0.0
  0
LINE
  5
47DA7
330
18
100
AcDbEntity
  8
中心線
 48
5.0
100
AcDbLine
 10
12614.82067051228
 20
2933.198724413914
 30
0.0
 11
12735.55180891236
 21
2933.198724413914
 31
0.0
  0
LINE
  5
482B5
330
18
100
AcDbEntity
  8
実線
100
AcDbLine
 10
12917.07002964031
 20
2885.086778297596
 30
0.0
 11
12917.57002964031
 21
2884.586778297596
 31
0.0
  0
LINE
  5
482B6
330
18
100
AcDbEntity
  8
実線
100
AcDbLine
 10
12888.07002964031
 20
2885.086778297595
 30
0.0
 11
12887.57002964031
 21
2884.586778297595
 31
0.0
  0
LINE
  5
482B7
330
18
100
AcDbEntity
  8
実線
100
AcDbLine
 10
12887.57002964031
 20
2856.086778297588
 30
0.0
 11
12888.07002964031
 21
2855.586778297588
 31
0.0
  0
LINE
  5
482B8
330
18
100
AcDbEntity
  8
実線
100
AcDbLine
 10
12917.07002964031
 20
2855.586778297588
 30
0.0
 11
12917.57002964031
 21
2856.086778297588
 31
0.0
  0
LINE
  5
482BA
330
18
100
AcDbEntity
  8
想像線
 48
5.0
100
AcDbLine
 10
12916.07002964031
 20
2753.086778297587
 30
0.0
 11
12916.07002964031
 21
2853.586778297597
 31
0.0
  0
LINE
  5
482BB
330
18
100
AcDbEntity
  8
想像線
 48
5.0
100
AcDbLine
 10
12916.07002964031
 20
2753.086778297587
 30
0.0
 11
12916.07002964031
 21
2790.086778297591
 31
0.0
  0
LINE
  5
482BC
330
18
100
AcDbEntity
  8
想像線
 48
5.0
100
AcDbLine
 10
12921.97002964031
 20
2853.586778297597
 30
0.0
 11
12921.97002964031
 21
2753.086778297587
 31
0.0
  0
LINE
  5
482BD
330
18
100
AcDbEntity
  8
想像線
 48
5.0
100
AcDbLine
 10
12883.17002964031
 20
2753.086778297587
 30
0.0
 11
12921.97002964031
 21
2753.086778297587
 31
0.0
  0
LINE
  5
482C2
330
18
100
AcDbEntity
  8
想像線
 48
2.0
100
AcDbLine
 10
12905.97002964031
 20
2803.176904775477
 30
0.0
 11
12916.07002964031
 21
2803.176904775476
 31
0.0
  0
LINE
  5
482C3
330
18
100
AcDbEntity
  8
想像線
 48
2.0
100
AcDbLine
 10
12889.07002964031
 20
2790.086778297591
 30
0.0
 11
12916.07002964031
 21
2790.086778297591
 31
0.0
  0
LINE
  5
482C6
330
18
100
AcDbEntity
  8
想像線
 48
2.0
100
AcDbLine
 10
12905.97002964031
 20
2853.176904775476
 30
0.0
 11
12916.07002964031
 21
2853.176904775476
 31
0.0
  0
LINE
  5
482C7
330
18
100
AcDbEntity
  8
想像線
 48
2.0
100
AcDbLine
 10
12916.07002964031
 20
2853.586778297597
 30
0.0
 11
12921.97002964031
 21
2853.586778297597
 31
0.0
  0
LINE
  5
482C8
330
18
100
AcDbEntity
  8
想像線
 48
5.0
100
AcDbLine
 10
12883.17002964031
 20
2853.586778297597
 30
0.0
 11
12883.17002964031
 21
2753.086778297587
 31
0.0
  0
LINE
  5
482C9
330
18
100
AcDbEntity
  8
想像線
 48
5.0
100
AcDbLine
 10
12889.07002964031
 20
2753.086778297587
 30
0.0
 11
12889.07002964031
 21
2853.586778297597
 31
0.0
  0
LINE
  5
482CB
330
18
100
AcDbEntity
  8
想像線
 48
2.0
100
AcDbLine
 10
12899.17002964031
 20
2803.176904775476
 30
0.0
 11
12889.07002964031
 21
2803.176904775476
 31
0.0
  0
LINE
  5
482CC
330
18
100
AcDbEntity
  8
想像線
 48
2.0
100
AcDbLine
 10
12883.17002964031
 20
2853.586778297597
 30
0.0
 11
12889.07002964031
 21
2853.586778297597
 31
0.0
  0
LINE
  5
482CD
330
18
100
AcDbEntity
  8
想像線
 48
2.0
100
AcDbLine
 10
12899.17002964031
 20
2853.176904775476
 30
0.0
 11
12889.07002964031
 21
2853.176904775476
 31
0.0
  0
LINE
  5
482CE
330
18
100
AcDbEntity
  8
想像線
 48
5.0
100
AcDbLine
 10
12899.17002964031
 20
2803.176904775476
 30
0.0
 11
12899.17002964031
 21
2853.17114091729
 31
0.0
  0
LINE
  5
482CF
330
18
100
AcDbEntity
  8
想像線
 48
5.0
100
AcDbLine
 10
12905.97002964031
 20
2803.176904775477
 30
0.0
 11
12905.97002964031
 21
2853.17114091729
 31
0.0
  0
LINE
  5
48312
330
18
100
AcDbEntity
  8
中心線
 48
10.0
100
AcDbLine
 10
12902.57002964031
 20
2888.047522392106
 30
0.0
 11
12902.57002964031
 21
2750.587871265535
 31
0.0
  0
LINE
  5
4877B
330
18
100
AcDbEntity
  8
実線
100
AcDbLine
 10
12617.38615485636
 20
2866.501983588725
 30
0.0
 11
12616.54602007757
 21
2866.30186795054
 31
0.0
  0
LINE
  5
4877C
330
18
100
AcDbEntity
  8
実線
100
AcDbLine
 10
12616.54602007757
 20
2866.70209922691
 30
0.0
 11
12615.70588529877
 21
2866.501983588726
 31
0.0
  0
LINE
  5
4877D
330
18
100
AcDbEntity
  8
実線
100
AcDbLine
 10
12616.54602007757
 20
2864.300711568688
 30
0.0
 11
12606.62066018646
 21
2861.936543605452
 31
0.0
  0
LINE
  5
4877E
330
18
100
AcDbEntity
  8
実線
100
AcDbLine
 10
12607.30453751082
 20
2866.501983588726
 30
0.0
 11
12606.60992469594
 21
2866.336530508756
 31
0.0
  0
LINE
  5
4877F
330
18
100
AcDbEntity
  8
実線
100
AcDbLine
 10
12611.5052114048
 20
2865.501405397799
 30
0.0
 11
12606.61480446436
 21
2864.3365364618
 31
0.0
  0
LINE
  5
48780
330
18
100
AcDbEntity
  8
実線
100
AcDbLine
 10
12612.34534618359
 20
2865.301289759614
 30
0.0
 11
12606.61578041804
 21
2863.936537652409
 31
0.0
  0
LINE
  5
48781
330
18
100
AcDbEntity
  8
実線
100
AcDbLine
 10
12612.34534618359
 20
2867.702677417837
 30
0.0
 11
12611.5052114048
 21
2867.502561779652
 31
0.0
  0
CIRCLE
  5
48843
330
18
100
AcDbEntity
  8
実線
100
AcDbCircle
 10
12663.51238476212
 20
2875.086778297599
 30
0.0
 40
3.3
  0
CIRCLE
  5
48844
330
18
100
AcDbEntity
  8
実線
100
AcDbCircle
 10
12663.51238476211
 20
2875.086778297599
 30
0.0
 40
5.5
  0
CIRCLE
  5
48845
330
18
100
AcDbEntity
  8
実線
100
AcDbCircle
 10
12723.51238476211
 20
2875.086778297599
 30
0.0
 40
5.5
  0
CIRCLE
  5
48846
330
18
100
AcDbEntity
  8
実線
100
AcDbCircle
 10
12723.51238476212
 20
2875.086778297599
 30
0.0
 40
3.3
  0
CIRCLE
  5
48847
330
18
100
AcDbEntity
  8
実線
100
AcDbCircle
 10
12783.51238476213
 20
2875.086778297599
 30
0.0
 40
3.3
  0
CIRCLE
  5
48848
330
18
100
AcDbEntity
  8
実線
100
AcDbCircle
 10
12783.51238476213
 20
2875.086778297599
 30
0.0
 40
5.5
  0
CIRCLE
  5
48849
330
18
100
AcDbEntity
  8
実線
100
AcDbCircle
 10
12843.51238476211
 20
2875.086778297599
 30
0.0
 40
5.5
  0
CIRCLE
  5
4884A
330
18
100
AcDbEntity
  8
実線
100
AcDbCircle
 10
12843.51238476211
 20
2875.086778297599
 30
0.0
 40
3.3
  0
LINE
  5
4887D
330
18
100
AcDbEntity
  8
中心線
 48
5.0
100
AcDbLine
 10
12723.51238476212
 20
2868.208997318887
 30
0.0
 11
12723.51238476211
 21
2881.96455927631
 31
0.0
  0
LINE
  5
4887E
330
18
100
AcDbEntity
  8
中心線
 48
5.0
100
AcDbLine
 10
12783.51238476213
 20
2868.208997318887
 30
0.0
 11
12783.51238476213
 21
2881.96455927631
 31
0.0
  0
LINE
  5
4887F
330
18
100
AcDbEntity
  8
中心線
 48
5.0
100
AcDbLine
 10
12843.51238476212
 20
2868.208997318887
 30
0.0
 11
12843.51238476211
 21
2881.96455927631
 31
0.0
  0
LINE
  5
48910
330
18
100
AcDbEntity
  8
破線
 48
10.0
100
AcDbLine
 10
12887.57002964031
 20
2880.586778297599
 30
0.0
 11
12894.07002964031
 21
2880.586778297599
 31
0.0
  0
LINE
  5
48911
330
18
100
AcDbEntity
  8
破線
 48
10.0
100
AcDbLine
 10
12887.57002964031
 20
2869.586778297599
 30
0.0
 11
12894.07002964031
 21
2869.586778297599
 31
0.0
  0
LINE
  5
48912
330
18
100
AcDbEntity
  8
破線
 48
10.0
100
AcDbLine
 10
12894.07002964031
 20
2878.386778297599
 30
0.0
 11
12911.07002964031
 21
2878.386778297599
 31
0.0
  0
LINE
  5
48913
330
18
100
AcDbEntity
  8
破線
 48
10.0
100
AcDbLine
 10
12894.07002964031
 20
2871.786778297599
 30
0.0
 11
12911.07002964031
 21
2871.786778297599
 31
0.0
  0
LINE
  5
48916
330
18
100
AcDbEntity
  8
破線
 48
10.0
100
AcDbLine
 10
12894.07002964031
 20
2869.586778297599
 30
0.0
 11
12894.07002964031
 21
2880.586778297599
 31
0.0
  0
LINE
  5
48919
330
18
100
AcDbEntity
  8
破線
 48
10.0
100
AcDbLine
 10
12911.07002964031
 20
2880.586778297599
 30
0.0
 11
12911.07002964031
 21
2869.586778297599
 31
0.0
  0
LINE
  5
4891A
330
18
100
AcDbEntity
  8
破線
 48
10.0
100
AcDbLine
 10
12911.07002964031
 20
2869.586778297599
 30
0.0
 11
12917.57002964031
 21
2869.586778297599
 31
0.0
  0
LINE
  5
4891B
330
18
100
AcDbEntity
  8
破線
 48
10.0
100
AcDbLine
 10
12911.07002964031
 20
2880.586778297599
 30
0.0
 11
12917.57002964031
 21
2880.586778297599
 31
0.0
  0
LINE
  5
4891C
330
18
100
AcDbEntity
  8
中心線
 48
5.0
100
AcDbLine
 10
12884.92381410328
 20
2875.086778297599
 30
0.0
 11
12920.21624517734
 21
2875.086778297599
 31
0.0
  0
LINE
  5
493B5
330
18
100
AcDbEntity
  8
想像線
100
AcDbLine
 10
12628.49434484071
 20
2796.525260563209
 30
0.0
 11
12628.49434484071
 21
2803.125260563209
 31
0.0
  0
LINE
  5
493B6
330
18
100
AcDbEntity
  8
想像線
100
AcDbLine
 10
12628.49434484071
 20
2803.125260563209
 30
0.0
 11
12625.00610516323
 21
2803.125260563209
 31
0.0
  0
LINE
  5
493B7
330
18
100
AcDbEntity
  8
想像線
100
AcDbLine
 10
12628.49434484071
 20
2796.525260563209
 30
0.0
 11
12625.00610516323
 21
2796.525260563209
 31
0.0
  0
LINE
  5
494AA
330
18
100
AcDbEntity
  8
細線
100
AcDbLine
 10
12921.97002964031
 20
2853.586778297597
 30
0.0
 11
12941.97002964031
 21
2853.586778297597
 31
0.0
  0
LINE
  5
494AD
330
18
100
AcDbEntity
  8
細線
100
AcDbLine
 10
12921.97002964031
 20
2733.086778297587
 30
0.0
 11
12941.97002964031
 21
2733.086778297587
 31
0.0
  0
LINE
  5
494B0
330
18
100
AcDbEntity
  8
細線
100
AcDbLine
 10
12921.97002964031
 20
2733.086778297587
 30
0.0
 11
12921.97002964031
 21
2753.086778297587
 31
0.0
  0
HATCH
  5
494B2
330
18
100
AcDbEntity
  8
細線
100
AcDbHatch
 10
0.0
 20
0.0
 30
0.0
210
0.0
220
0.0
230
1.0
  2
ANSI31
 70
     0
 71
     0
 91
        1
 92
        9
 93
        4
 72
     1
 10
12906.93555002473
 20
2808.08017024551
 11
12922.13555002473
 21
2808.08017024551
 72
     1
 10
12922.13555002473
 20
2808.08017024551
 11
12922.13555002473
 21
2803.58017024551
 72
     1
 10
12922.13555002473
 20
2803.58017024551
 11
12906.93555002473
 21
2803.58017024551
 72
     1
 10
12906.93555002473
 20
2803.58017024551
 11
12906.93555002473
 21
2808.08017024551
 97
        0
 75
     0
 76
     1
 52
0.0
 41
20.0
 77
     0
 78
     1
 53
45.0
 43
12932.58450641395
 44
2784.94322589202
 45
-1.767766952966369
 46
1.767766952966369
 79
     0
 98
        1
 10
12931.08469286211
 20
2795.616890959014
1001
ACAD
1010
12932.58450641395
1020
2784.94322589202
1030
0.0
  0
TEXT
  5
49BDE
330
18
100
AcDbEntity
  8
0
100
AcDbText
 10
12881.0908464409
 20
2633.524173659307
 30
0.0
 40
7.0
  1
ＳＥ－４２２０１Ａ
 41
0.953
  7
まこ
100
AcDbText
  0
TEXT
  5
49C0F
330
18
100
AcDbEntity
  8
0
100
AcDbText
 10
12882.64741310756
 20
2645.009803234972
 30
0.0
 40
5.0
  1
CLユニット外形図（150N：ザグリ取付型）
 41
0.58
  7
まこ
100
AcDbText
  0
TEXT
  5
49C40
330
18
100
AcDbEntity
  8
0
100
AcDbText
 10
12882.23706838029
 20
2656.191410022766
 30
0.0
 40
4.0
  1
NVA-C サーボコンパス CLユニット CLV-CMC850A2B (150N)
 41
0.42
  7
まこ
100
AcDbText
  0
HATCH
  5
49C4E
330
18
100
AcDbEntity
  8
細線
100
AcDbHatch
 10
0.0
 20
0.0
 30
0.0
210
0.0
220
0.0
230
1.0
  2
ANSI31
 70
     0
 71
     0
 91
        3
 92
        7
 72
     0
 73
     1
 93
        5
 10
12941.97002964031
 20
2733.086778297587
 10
12941.97002964031
 20
2853.586778297597
 10
12921.97002964031
 20
2853.586778297597
 10
12921.97002964031
 20
2753.086778297587
 10
12921.97002964031
 20
2733.086778297587
 97
        0
 92
       24
 93
        4
 72
     1
 10
12923.25167305701
 20
2790.07899874252
 11
12931.19363734273
 21
2790.07899874252
 72
     1
 10
12931.19363734273
 20
2790.07899874252
 11
12931.19363734273
 21
2785.57899874252
 72
     1
 10
12931.19363734273
 20
2785.57899874252
 11
12923.25167305701
 21
2785.57899874252
 72
     1
 10
12923.25167305701
 20
2785.57899874252
 11
12923.25167305701
 21
2790.07899874252
 97
        0
 92
       24
 93
        4
 72
     1
 10
12924.22002964031
 20
2844.836778297597
 11
12924.22002964031
 21
2848.336778297597
 72
     1
 10
12924.22002964031
 20
2848.336778297597
 11
12928.72002964031
 21
2848.336778297597
 72
     1
 10
12928.72002964031
 20
2848.336778297597
 11
12928.72002964031
 21
2844.836778297597
 72
     1
 10
12928.72002964031
 20
2844.836778297597
 11
12924.22002964031
 21
2844.836778297597
 97
        0
 75
     2
 76
     1
 52
0.0
 41
20.0
 77
     0
 78
     1
 53
45.0
 43
12932.58450641395
 44
2784.94322589202
 45
-1.767766952966369
 46
1.767766952966369
 79
     0
 47
0.0
 98
        1
 10
12931.08469286211
 20
2795.616890959014
1001
ACAD
1010
12932.58450641395
1020
2784.94322589202
1030
0.0
  0
VIEWPORT
  5
49C48
330
49C44
100
AcDbEntity
 67
     1
  8
0
100
AcDbViewport
 10
5.25
 20
3.5
 30
0.0
 40
12.6
 41
8.4
 68
     1
 69
     1
 12
5.25
 22
3.5
 13
0.0
 23
0.0
 14
0.5
 24
0.5
 15
0.0
 25
0.0
 16
0.0
 26
0.0
 36
1.0
 17
0.0
 27
0.0
 37
0.0
 42
50.0
 43
0.0
 44
0.0
 45
8.4
 50
0.0
 51
0.0
 72
   100
 90
   557152
  1

281
     0
 71
     1
 74
     0
110
0.0
120
0.0
130
0.0
111
1.0
121
0.0
131
0.0
112
0.0
122
1.0
132
0.0
 79
     0
146
0.0
  0
VIEWPORT
  5
49C49
330
49C44
100
AcDbEntity
 67
     1
  8
0
100
AcDbViewport
 10
5.25
 20
3.5
 30
0.0
 40
8.4
 41
5.600000000000001
 68
     2
 69
     2
 12
12767.39376039418
 22
2791.95166552979
 13
0.0
 23
0.0
 14
0.5
 24
0.5
 15
0.0
 25
0.0
 16
0.0
 26
0.0
 36
1.0
 17
0.0
 27
0.0
 37
0.0
 42
50.0
 43
0.0
 44
0.0
 45
321.5260834157854
 50
0.0
 51
0.0
 72
   100
341
E
 90
   557152
  1

281
     0
 71
     1
 74
     0
110
0.0
120
0.0
130
0.0
111
1.0
121
0.0
131
0.0
112
0.0
122
1.0
132
0.0
 79
     0
146
0.0
  0
ENDSEC
  0
SECTION
  2
OBJECTS
  0
DICTIONARY
  5
C
330
0
100
AcDbDictionary
281
     1
  3
ACAD_DETAILVIEWSTYLE
350
49485
  3
ACAD_GROUP
350
D
  3
ACAD_IMAGE_VARS
350
49480
  3
ACAD_LAYOUT
350
73F
  3
ACAD_MLINESTYLE
350
1B
  3
ACAD_PLOTSETTINGS
350
740
  3
ACAD_PLOTSTYLENAME
350
73D
  3
ACAD_SCALELIST
350
49454
  3
ACAD_SECTIONVIEWSTYLE
350
49486
  3
AcadDim
350
4905B
  3
AcDbVariableDictionary
350
11AC
  3
AcDsDecomposeData
350
49C53
  3
APPDATA
350
4947E
  3
CLOUDSETTINGS
350
49A6E
  3
DWGPROPS
350
49C50
  3
FX_DICT_DIMENSION_PALETTE
350
49493
  0
DICTIONARY
  5
493F2
330
2
100
AcDbDictionary
280
     1
281
     1
  3
ACAD_LAYERFILTERS
360
493F3
  3
ACAD_LAYERSTATES
360
493FF
  0
DICTIONARY
  5
49485
102
{ACAD_REACTORS
330
C
102
}
330
C
100
AcDbDictionary
281
     1
  0
DICTIONARY
  5
D
102
{ACAD_REACTORS
330
C
102
}
330
C
100
AcDbDictionary
281
     1
  3
*A1
350
49C4F
  0
RASTERVARIABLES
  5
49480
102
{ACAD_REACTORS
330
C
102
}
330
C
100
AcDbRasterVariables
 90
        0
 70
     1
 71
     1
 72
     0
  0
DICTIONARY
  5
73F
102
{ACAD_REACTORS
330
C
102
}
330
C
100
AcDbDictionary
281
     1
  3
Model
350
741
  3
Sheet1
350
49C45
  0
DICTIONARY
  5
1B
102
{ACAD_REACTORS
330
C
102
}
330
C
100
AcDbDictionary
281
     1
  3
STANDARD
350
1C
  0
DICTIONARY
  5
740
102
{ACAD_REACTORS
330
C
102
}
330
C
100
AcDbDictionary
281
     1
  0
ACDBDICTIONARYWDFLT
  5
73D
102
{ACAD_REACTORS
330
C
102
}
330
C
100
AcDbDictionary
281
     1
  3
Normal
350
73E
100
AcDbDictionaryWithDefault
340
73E
  0
DICTIONARY
  5
49454
102
{ACAD_REACTORS
330
C
102
}
330
C
100
AcDbDictionary
281
     1
  3
*A1
350
49AAD
  3
A0
350
49455
  3
A1
350
49456
  3
A2
350
49457
  3
A3
350
49458
  3
A4
350
49459
  3
A5
350
4945A
  3
A6
350
4945B
  3
A7
350
4945C
  3
A8
350
4945D
  3
A9
350
4945E
  3
B0
350
4945F
  3
B1
350
49460
  3
B2
350
49461
  3
B3
350
49462
  3
B4
350
49463
  3
B5
350
49464
  3
B6
350
49465
  3
B7
350
49466
  3
B8
350
49467
  3
B9
350
49468
  3
C0
350
49469
  3
C1
350
4946A
  3
C2
350
4946B
  3
C3
350
4946C
  3
C4
350
4946D
  3
C5
350
4946E
  3
C6
350
4946F
  3
C7
350
49470
  3
C8
350
49471
  3
C9
350
49472
  3
D0
350
49473
  3
D1
350
49474
  3
D2
350
49475
  0
DICTIONARY
  5
49486
102
{ACAD_REACTORS
330
C
102
}
330
C
100
AcDbDictionary
281
     1
  0
XRECORD
  5
4905B
102
{ACAD_REACTORS
330
C
102
}
330
C
100
AcDbXrecord
280
     1
 90
   990106
  3

 60
     0
 61
     0
 62
     1
 63
     3
 64
     0
 65
     0
 66
     0
 67
     3
 68
     1
 69
     0
 70
     0
 71
     0
 72
     0
 40
9.84025031298188
170
     0
  0
DICTIONARY
  5
11AC
102
{ACAD_REACTORS
330
C
102
}
330
C
100
AcDbDictionary
281
     1
  3
DIMASSOC
350
11AD
  0
DICTIONARY
  5
49C53
102
{ACAD_REACTORS
330
C
102
}
330
C
100
AcDbDictionary
281
     1
  3
AcDsRecords
350
49C54
  3
AcDsSchemas
350
49C55
1001
ACAD
1070
     2
  0
DICTIONARY
  5
4947E
102
{ACAD_REACTORS
330
C
102
}
330
C
100
AcDbDictionary
281
     1
  0
XRECORD
  5
49A6E
102
{ACAD_REACTORS
330
C
102
}
330
C
100
AcDbXrecord
280
     1
 40
0.5
  0
XRECORD
  5
49C50
102
{ACAD_REACTORS
330
C
102
}
330
C
100
AcDbXrecord
280
     1
  1
DWGPROPS COOKIE
  2

  3

  4

  6

  7

  8
a-okamoto
  9

300
=
301
=
302
=
303
=
304
=
305
=
306
=
307
=
308
=
309
=
 40
0.0
 41
2452479.348123183
 42
2457695.100550822
  1

 90
        0
  0
DICTIONARY
  5
49493
102
{ACAD_REACTORS
330
C
102
}
330
C
100
AcDbDictionary
281
     1
  0
DICTIONARY
  5
493F3
102
{ACAD_REACTORS
330
493F2
102
}
330
493F2
100
AcDbDictionary
280
     1
281
     1
  3
0
360
493F4
  3
11
360
493F5
  3
150_
360
493F6
  3
160_
360
493F7
  3
170_
360
493F8
  3
171_
360
493F9
  3
350_
360
493FA
  3
4
360
493FB
  3
5
360
493FC
  3
7
360
493FD
  3
kiseki
360
493FE
  0
DICTIONARY
  5
493FF
102
{ACAD_REACTORS
330
493F2
102
}
330
493F2
100
AcDbDictionary
281
     1
  3
ARGON_LAYERP_2
350
49C42
  0
GROUP
  5
49C4F
102
{ACAD_REACTORS
330
D
102
}
330
D
100
AcDbGroup
300

 70
     1
 71
     1
340
49C4E
  0
LAYOUT
  5
741
102
{ACAD_REACTORS
330
73F
102
}
102
{ACAD_XDICTIONARY
360
49C51
102
}
330
73F
100
AcDbPlotSettings
  1

  2
IBM Infoprint 1316J RPCS(A4-裏).pc3
  4
A4
  6

 40
5.873749732971191
 41
5.873747825622559
 42
5.873748779296875
 43
5.873748779296875
 44
209.9733276367188
 45
296.9259948730469
 46
0.41
 47
-11.43
 48
13416.23128996639
 49
2655.088218907811
140
13613.63024313527
141
2963.119120173293
142
1.0
143
1.0
 70
 11956
 72
     1
 73
     0
 74
     4
  7
monochrome.ctb
 75
    16
147
1.0
148
-13416.23128996639
149
-2655.088218907811
100
AcDbLayout
  1
Model
 70
     1
 71
     0
 10
0.0
 20
0.0
 11
12.0
 21
9.0
 12
0.0
 22
0.0
 32
0.0
 14
12582.90606006176
 24
2634.340840325974
 34
0.0
 15
12951.88146072661
 25
2949.562490733606
 35
137.5
146
0.0
 13
0.0
 23
0.0
 33
0.0
 16
1.0
 26
0.0
 36
0.0
 17
0.0
 27
1.0
 37
0.0
 76
     0
330
18
331
49431
  0
LAYOUT
  5
49C45
102
{ACAD_REACTORS
330
73F
102
}
330
73F
100
AcDbPlotSettings
  1

  2
none_device
  4
ANSI_A_(11.00_x_8.50_Inches)
  6

 40
6.35
 41
19.05
 42
6.35
 43
19.05
 44
279.4
 45
215.9
 46
0.0
 47
0.0
 48
0.0
 49
0.0
140
0.0
141
0.0
142
1.0
143
1.0
 70
   688
 72
     0
 73
     0
 74
     5
  7

 75
    16
147
1.0
148
0.0
149
0.0
100
AcDbLayout
  1
Sheet1
 70
     1
 71
     1
 10
0.0
 20
0.0
 11
0.0
 21
0.0
 12
0.0
 22
0.0
 32
0.0
 14
1.05
 24
0.6999999999999997
 34
0.0
 15
9.45
 25
6.300000000000001
 35
0.0
146
0.0
 13
0.0
 23
0.0
 33
0.0
 16
1.0
 26
0.0
 36
0.0
 17
0.0
 27
1.0
 37
0.0
 76
     0
330
49C44
331
49C48
  0
MLINESTYLE
  5
1C
102
{ACAD_REACTORS
330
1B
102
}
330
1B
100
AcDbMlineStyle
  2
STANDARD
 70
     0
  3

 62
   256
 51
90.0
 52
90.0
 71
     2
 49
0.5
 62
   256
  6
BYLAYER
 49
-0.5
 62
   256
  6
BYLAYER
  0
ACDBPLACEHOLDER
  5
73E
102
{ACAD_REACTORS
330
73D
102
}
330
73D
  0
SCALE
  5
49AAD
102
{ACAD_REACTORS
330
49454
102
}
330
49454
100
AcDbScale
 70
     0
300
1:1_XREF_XREF
140
1.0
141
1.0
290
     0
  0
SCALE
  5
49455
102
{ACAD_REACTORS
330
49454
102
}
330
49454
100
AcDbScale
 70
     0
300
1:1
140
1.0
141
1.0
290
     1
  0
SCALE
  5
49456
102
{ACAD_REACTORS
330
49454
102
}
330
49454
100
AcDbScale
 70
     0
300
1:2
140
1.0
141
2.0
290
     0
  0
SCALE
  5
49457
102
{ACAD_REACTORS
330
49454
102
}
330
49454
100
AcDbScale
 70
     0
300
1:4
140
1.0
141
4.0
290
     0
  0
SCALE
  5
49458
102
{ACAD_REACTORS
330
49454
102
}
330
49454
100
AcDbScale
 70
     0
300
1:5
140
1.0
141
5.0
290
     0
  0
SCALE
  5
49459
102
{ACAD_REACTORS
330
49454
102
}
330
49454
100
AcDbScale
 70
     0
300
1:8
140
1.0
141
8.0
290
     0
  0
SCALE
  5
4945A
102
{ACAD_REACTORS
330
49454
102
}
330
49454
100
AcDbScale
 70
     0
300
1:10
140
1.0
141
10.0
290
     0
  0
SCALE
  5
4945B
102
{ACAD_REACTORS
330
49454
102
}
330
49454
100
AcDbScale
 70
     0
300
1:16
140
1.0
141
16.0
290
     0
  0
SCALE
  5
4945C
102
{ACAD_REACTORS
330
49454
102
}
330
49454
100
AcDbScale
 70
     0
300
1:20
140
1.0
141
20.0
290
     0
  0
SCALE
  5
4945D
102
{ACAD_REACTORS
330
49454
102
}
330
49454
100
AcDbScale
 70
     0
300
1:30
140
1.0
141
30.0
290
     0
  0
SCALE
  5
4945E
102
{ACAD_REACTORS
330
49454
102
}
330
49454
100
AcDbScale
 70
     0
300
1:40
140
1.0
141
40.0
290
     0
  0
SCALE
  5
4945F
102
{ACAD_REACTORS
330
49454
102
}
330
49454
100
AcDbScale
 70
     0
300
1:50
140
1.0
141
50.0
290
     0
  0
SCALE
  5
49460
102
{ACAD_REACTORS
330
49454
102
}
330
49454
100
AcDbScale
 70
     0
300
1:100
140
1.0
141
100.0
290
     0
  0
SCALE
  5
49461
102
{ACAD_REACTORS
330
49454
102
}
330
49454
100
AcDbScale
 70
     0
300
2:1
140
2.0
141
1.0
290
     0
  0
SCALE
  5
49462
102
{ACAD_REACTORS
330
49454
102
}
330
49454
100
AcDbScale
 70
     0
300
4:1
140
4.0
141
1.0
290
     0
  0
SCALE
  5
49463
102
{ACAD_REACTORS
330
49454
102
}
330
49454
100
AcDbScale
 70
     0
300
8:1
140
8.0
141
1.0
290
     0
  0
SCALE
  5
49464
102
{ACAD_REACTORS
330
49454
102
}
330
49454
100
AcDbScale
 70
     0
300
10:1
140
10.0
141
1.0
290
     0
  0
SCALE
  5
49465
102
{ACAD_REACTORS
330
49454
102
}
330
49454
100
AcDbScale
 70
     0
300
100:1
140
100.0
141
1.0
290
     0
  0
SCALE
  5
49466
102
{ACAD_REACTORS
330
49454
102
}
330
49454
100
AcDbScale
 70
     0
300
1/128" = 1'-0"
140
0.0078125
141
12.0
290
     0
  0
SCALE
  5
49467
102
{ACAD_REACTORS
330
49454
102
}
330
49454
100
AcDbScale
 70
     0
300
1/64" = 1'-0"
140
0.015625
141
12.0
290
     0
  0
SCALE
  5
49468
102
{ACAD_REACTORS
330
49454
102
}
330
49454
100
AcDbScale
 70
     0
300
1/32" = 1'-0"
140
0.03125
141
12.0
290
     0
  0
SCALE
  5
49469
102
{ACAD_REACTORS
330
49454
102
}
330
49454
100
AcDbScale
 70
     0
300
1/16" = 1'-0"
140
0.0625
141
12.0
290
     0
  0
SCALE
  5
4946A
102
{ACAD_REACTORS
330
49454
102
}
330
49454
100
AcDbScale
 70
     0
300
3/32" = 1'-0"
140
0.09375
141
12.0
290
     0
  0
SCALE
  5
4946B
102
{ACAD_REACTORS
330
49454
102
}
330
49454
100
AcDbScale
 70
     0
300
1/8" = 1'-0"
140
0.125
141
12.0
290
     0
  0
SCALE
  5
4946C
102
{ACAD_REACTORS
330
49454
102
}
330
49454
100
AcDbScale
 70
     0
300
3/16" = 1'-0"
140
0.1875
141
12.0
290
     0
  0
SCALE
  5
4946D
102
{ACAD_REACTORS
330
49454
102
}
330
49454
100
AcDbScale
 70
     0
300
1/4" = 1'-0"
140
0.25
141
12.0
290
     0
  0
SCALE
  5
4946E
102
{ACAD_REACTORS
330
49454
102
}
330
49454
100
AcDbScale
 70
     0
300
3/8" = 1'-0"
140
0.375
141
12.0
290
     0
  0
SCALE
  5
4946F
102
{ACAD_REACTORS
330
49454
102
}
330
49454
100
AcDbScale
 70
     0
300
1/2" = 1'-0"
140
0.5
141
12.0
290
     0
  0
SCALE
  5
49470
102
{ACAD_REACTORS
330
49454
102
}
330
49454
100
AcDbScale
 70
     0
300
3/4" = 1'-0"
140
0.75
141
12.0
290
     0
  0
SCALE
  5
49471
102
{ACAD_REACTORS
330
49454
102
}
330
49454
100
AcDbScale
 70
     0
300
1" = 1'-0"
140
1.0
141
12.0
290
     0
  0
SCALE
  5
49472
102
{ACAD_REACTORS
330
49454
102
}
330
49454
100
AcDbScale
 70
     0
300
1-1/2" = 1'-0"
140
1.5
141
12.0
290
     0
  0
SCALE
  5
49473
102
{ACAD_REACTORS
330
49454
102
}
330
49454
100
AcDbScale
 70
     0
300
3" = 1'-0"
140
3.0
141
12.0
290
     0
  0
SCALE
  5
49474
102
{ACAD_REACTORS
330
49454
102
}
330
49454
100
AcDbScale
 70
     0
300
6" = 1'-0"
140
6.0
141
12.0
290
     0
  0
SCALE
  5
49475
102
{ACAD_REACTORS
330
49454
102
}
330
49454
100
AcDbScale
 70
     0
300
1'-0" = 1'-0"
140
12.0
141
12.0
290
     0
  0
DICTIONARYVAR
  5
11AD
102
{ACAD_REACTORS
330
11AC
102
}
330
11AC
100
DictionaryVariables
280
     0
  1
1
  0
DICTIONARY
  5
49C54
102
{ACAD_REACTORS
330
49C53
102
}
330
49C53
100
AcDbDictionary
281
     1
  0
DICTIONARY
  5
49C55
102
{ACAD_REACTORS
330
49C53
102
}
330
49C53
100
AcDbDictionary
281
     1
  3
8796077903480
350
49C56
  3
8796077903496
350
49C57
  3
8796077903512
350
49C58
  3
8796077903528
350
49C59
  3
8796077903544
350
49C5A
  3
8796077903560
350
49C5B
  0
XRECORD
  5
493F4
102
{ACAD_REACTORS
330
493F3
102
}
330
493F3
100
AcDbXrecord
280
     1
  1
0
  1
*0
  1
*
  1
*
 70
     0
  1
*
  1
*
  0
XRECORD
  5
493F5
102
{ACAD_REACTORS
330
493F3
102
}
330
493F3
100
AcDbXrecord
280
     1
  1
11
  1
*11
  1
*
  1
*
 70
     0
  1
*
  1
*
  0
XRECORD
  5
493F6
102
{ACAD_REACTORS
330
493F3
102
}
330
493F3
100
AcDbXrecord
280
     1
  1
150_
  1
150_*
  1
*
  1
*
 70
     0
  1
*
  1
*
  0
XRECORD
  5
493F7
102
{ACAD_REACTORS
330
493F3
102
}
330
493F3
100
AcDbXrecord
280
     1
  1
160_
  1
160_*
  1
*
  1
*
 70
     0
  1
*
  1
*
  0
XRECORD
  5
493F8
102
{ACAD_REACTORS
330
493F3
102
}
330
493F3
100
AcDbXrecord
280
     1
  1
170_
  1
170_*
  1
*
  1
*
 70
     0
  1
*
  1
*
  0
XRECORD
  5
493F9
102
{ACAD_REACTORS
330
493F3
102
}
330
493F3
100
AcDbXrecord
280
     1
  1
171_
  1
171_*
  1
*
  1
*
 70
     0
  1
*
  1
*
  0
XRECORD
  5
493FA
102
{ACAD_REACTORS
330
493F3
102
}
330
493F3
100
AcDbXrecord
280
     1
  1
350_
  1
350_*
  1
*
  1
*
 70
     0
  1
*
  1
*
  0
XRECORD
  5
493FB
102
{ACAD_REACTORS
330
493F3
102
}
330
493F3
100
AcDbXrecord
280
     1
  1
4
  1
*4
  1
*
  1
*
 70
     0
  1
*
  1
*
  0
XRECORD
  5
493FC
102
{ACAD_REACTORS
330
493F3
102
}
330
493F3
100
AcDbXrecord
280
     1
  1
5
  1
*5
  1
*
  1
*
 70
     0
  1
*
  1
*
  0
XRECORD
  5
493FD
102
{ACAD_REACTORS
330
493F3
102
}
330
493F3
100
AcDbXrecord
280
     1
  1
7
  1
*7
  1
*
  1
*
 70
     0
  1
*
  1
*
  0
XRECORD
  5
493FE
102
{ACAD_REACTORS
330
493F3
102
}
330
493F3
100
AcDbXrecord
280
     1
  1
kiseki
  1
kiseki*
  1
*
  1
*
 70
     0
  1
*
  1
*
  0
XRECORD
  5
49C42
102
{ACAD_REACTORS
330
493FF
102
}
330
493FF
100
AcDbXrecord
280
     1
 91
     1023
301

290
     0
302
0
330
E
 90
       24
 62
     7
370
    -3
331
14
  1
Color_7
330
96A
 90
        8
 62
    13
370
    13
331
3306
  1
Color_13
330
1521
 90
        8
 62
     3
370
    40
331
14
  1
Color_3
330
1523
 90
        8
 62
     7
370
    13
331
14
  1
Color_7
330
0
 90
        9
 62
    30
370
    30
331
14
  1
Color_30
330
47F03
 90
        8
 62
     8
370
    13
331
BB7
  1
Color_8
330
4891F
 90
        8
 62
    71
370
    13
331
4214B
  1
Color_71
  0
DICTIONARY
  5
49C51
330
741
100
AcDbDictionary
280
     1
281
     1
  3
ADSK_XREC_LAYOUTTHUMBNAIL
360
49C52
  0
XRECORD
  5
49C56
102
{ACAD_REACTORS
330
49C55
102
}
330
49C55
100
AcDbXrecord
280
     1
  1
AcDb_Thumbnail_Schema
102
{ATTRRECORD
341
49C58
  2
AcDbDs::TreatedAsObjectData
280
     1
291
     1
102
ATTRRECORD}
102
{ATTRRECORD
341
49C59
  2
AcDbDs::Legacy
280
     1
291
     1
102
ATTRRECORD}
  2
AcDbDs::ID
280
    10
 91
        8
102
{ATTRRECORD
341
49C5A
  2
AcDs:Indexable
280
     1
291
     1
102
ATTRRECORD}
102
{ATTRRECORD
341
49C5B
  2
AcDbDs::HandleAttribute
280
     7
282
     1
102
ATTRRECORD}
  2
Thumbnail_Data
280
    15
 91
        0
  0
XRECORD
  5
49C57
102
{ACAD_REACTORS
330
49C55
102
}
330
49C55
100
AcDbXrecord
280
     1
  1
AcDb3DSolid_ASM_Data
102
{ATTRRECORD
341
49C58
  2
AcDbDs::TreatedAsObjectData
280
     1
291
     1
102
ATTRRECORD}
102
{ATTRRECORD
341
49C59
  2
AcDbDs::Legacy
280
     1
291
     1
102
ATTRRECORD}
  2
AcDbDs::ID
280
    10
 91
        8
102
{ATTRRECORD
341
49C5A
  2
AcDs:Indexable
280
     1
291
     1
102
ATTRRECORD}
102
{ATTRRECORD
341
49C5B
  2
AcDbDs::HandleAttribute
280
     7
282
     1
102
ATTRRECORD}
  2
ASM_Data
280
    15
 91
        0
  0
XRECORD
  5
49C58
102
{ACAD_REACTORS
330
49C55
102
}
330
49C55
100
AcDbXrecord
280
     1
  1
AcDbDs::TreatedAsObjectDataSchema
  2
AcDbDs::TreatedAsObjectData
280
     1
 91
        0
  0
XRECORD
  5
49C59
102
{ACAD_REACTORS
330
49C55
102
}
330
49C55
100
AcDbXrecord
280
     1
  1
AcDbDs::LegacySchema
  2
AcDbDs::Legacy
280
     1
 91
        0
  0
XRECORD
  5
49C5A
102
{ACAD_REACTORS
330
49C55
102
}
330
49C55
100
AcDbXrecord
280
     1
  1
AcDbDs::IndexedPropertySchema
  2
AcDs:Indexable
280
     1
 91
        0
  0
XRECORD
  5
49C5B
102
{ACAD_REACTORS
330
49C55
102
}
330
49C55
100
AcDbXrecord
280
     1
  1
AcDbDs::HandleAttributeSchema
  2
AcDbDs::HandleAttribute
280
     7
 91
        1
284
     1
  0
XRECORD
  5
49C52
102
{ACAD_REACTORS
330
49C51
102
}
330
49C51
100
AcDbXrecord
280
     1
310
89504E470D0A1A0A0000000D49484452000001000000008508020000003B1AB1EE000000097048597300000EC400000EC401952B0E1B0000200049444154789CEDBD797024D799D8F9CBA3B2EEBB5085FB68000D34D0074975F3144991A224D2A319530A79460E7376B5119A5885C7617B66C3F6C6C64CD831AB88FD6B7776
310
46B2C31ECB9A09D913D6C1D14989B47889DAA14891149B47A3D1B81AF7555528D45D95595599FB47A1800250B8BAD18D2259BFE8C806B25EBE7C59785FBEEF7DEFFBBE070D1A3468D0A04183060D1A3468D0A04183060D1A3468D0A04183060D1A3468D0A04183060D1A3468D0A0C1071CE9A41BF011C06CA65DE197451CD0
310
0CE720010EF827F01E944EBA791F6D84936EC0AD670006E102FC0644F89944A9D2E94E83E9F86FE833FBE405391C0E039C3A8528323BC5B04114800CAC83080E481EFFDD1B1C09F9A41B70EBC9C32C7443167C70EA142B2BA45200261839E6BB298AE2EFF24F8427F07A696DE5FA7572398077B697D31BBDBFC149D1D94920
310
00307CFC750F0D0D098AC2F0302D2DC75F7B83E3E6233002EC666E8E6090F6765838F6BA8560D028951839EE91A5C1ADA1EE04E0F1C71F7FEBADB78AC5E2C58B17AF5EBD0A0C0E0E663299F9F9F9FEFEFE575E79E5C01A868686CA17EE47388CDBCD1D835C1D2318C462D9F6692A452C76EA147EBFF5DCB973168B259BCDA5
310
52C9F6F6F637DF7CD36A4D2A0ABA8E2491CD62B3118BB1B2C24CD2474B0B8502636337FEFC0D6E2F7527007373739AA6E5F3F99595154096E5E5E56520168B4D4F4F1F78795F678B233B33DC74985B25A696D3F97FFC8F912406063099B87E9DB3670904F8EBBFE6E73FB75A999AB23EF1C4E3A552E9C9271F9E9898F8D4A7
310
3EF57BBFF77B8F3E7AF90FFE00C3606E8E175EE05FFE4BBEF21552E7EEE3AAC8ABAF6AFDFD8AA2689A7693DF4383DB431D5981821EFADA70785A4D26D3CCCC6C4F0BD3CB1B1FDD79E79DEFBEFB8EAE1B40B38F17DFDE79AD2C8A16592EEAFA99336726C6C680A2AEEB86A14812A01B866E18A2208882601846C930CA977086
310
E2B8C47DF7C97FFEE7E87AF1F9E739774EBEFF7E9E7C52FBE52F2F5D144A05113029CAF0D9B36A2E2708C2ECDC9C242587CF192E9BE4F670E5AAFEE0C779F925717E9ED77EAD97AB3D73E6CCFB2323E59FB552492B352C9DF54B1D8D00A2C8EC2A5EC36632C9534B9815A696363E1ABCB3756AE91D5D07506A355912049BC9
310
942F1697E7E7074E9D9A9F9FCF178B255DB7CAB22008855249370C49146551D40DA3502A0166594622AF1771B92C7FF117284ABE50E0CA15CBDFFE2D0E872E8A46519CBA260982A0958A23EF5D564CE2EF7C567CE06E5D364B9264FCFCA7A63FFC673CFDBDE23FFD5F99B8224F8FA34845C022CBB39393E78686C6C6C62CB2
310
6C18464300EA993A1200A0C58F20C6BC2E4F3240C84322B0715E2AAE9C6A33E77279C0E3AC71A15A2A85331920A9AA7DDD81265BA6F24961EFBBA95325F22AACAF27CF9F2712A1AB0B4D4B168B4C4F532824F26405FEF44FF178181AA250E0AB5FE58E075014AE5CC116D4BCED7CF90F594BD336A0C65E24A9526E00A0C462
310
82C5124E248EEDAB69706BA82F01309B101543CD252C0A66131665E37C414D1AA57CF957D3BE4D1645714D358D460E77BF2000B3B33CFDF4B6F3F138904CD2DDCD7FFDAFC0864D3F1CE67BDF439651556231BEFE75340D8783F575CAA3D3260B0B0BC3C3C3898600D43DF52500D7E6D025FAFB7B4766D68091998DF317EEBF
310
A44D33313171600D8AA28C8E8E1EEDAE3333354FCFCFD738596DDEBC7265CF2A65592E168BFBDDD40A06E40170820C46C531C5801C4890DEBFDDFBE20505A2700A26C0026DA0C263A0C2397817DE86042890FCE8AECAD597000C766248253333C3DDF4B76D9DB794A6CCC5C9E16E80B6A62DC1D84D3E9FBFC56D3C143D3D3D
310
07D8AC1E8412CCC23DB00019F040277C1692300D3DF0A59B6881198640070D146885D3300922C890858BD00C02C4E037C7BF22FE41A1BE04E0DA1CA1F6762DA34DCE84A91A017ACF87AE4C1B27D8B0A3728025D46E67B51B09CC300D05708109AEC112E4C101BF80F35002A9E23067010D2C90ADD42308B587A14B97208B06
310
79B002108615B0C02A386106B295F1C702C924D41AEF3E02D49119543131D841A9A24C9B640AB594886289B1E3FA63DDB1EF24F946E96AEF5A7B752D9DDE5783F923B0C2BDF0A760C000FC1AFC505E917B1C7E022E90A10524B043187E0DF7C1B31007BF1F938995959D357776B2BE4E2A850DCEC317610A5260821F8208FF
310
16DE8075781FAE1FE9C1200CB98AFE66831418B0AFAE57E7D491007C68686A6A8A440E9A86074082B3F00E68E0827550AABCA3CD108500C8208113725080105C066078B8B6C3C5E67911CE403F8C81005698060DCE4311D2B004F1433F951D3E067DF0027C1ADC300B0978070E6972A84B3EB0023008D7C009A9936EC989D0
310
D1413CBEE1D3BA83BD04A3269F8729D0601DCA63493F2C821BBC43DC771FF155AE55263321D8346BA9951F3635D3A121DADB79F159DEBB76E4C73939EA2B20E6AB5FFDEAA54B97FEE44FFEA45028A4D3E9818181A79E7A2A12890C0C0C7CE10B5F28168B4EA7F3B77FFBB7DF71BFC3EF421602B0080A9C023F1B11276B0038
310
4003110621034578106270E23E0ADDE02AF7B0A3BC80AB91249A9B595AAAF15128442A45365BE3A31AF5C09760B032DA78611DFE19DC53364345B870199B097D842722A42388117E2F82164189F04884A723FC8B080B11DA22B4452809A83F66398A0354288254F92BD4317524008A8C8D99E8F2E8E2CCE52B975FB29B125A
310
6669FEFA6F5CD6BC22C4C38B5752ED8B7220BCEA995931E77919DE87658992411798A017DCD0031224E17310030B0CC21930C35720069BB61949C2388989750B0CC269C843AD3E7C3083838C8FD76E7C7737B3B3075CBEF9E077C1733006AF801BB29086CBF03ACC820F3448055989908604C42101CBB0084B300F3E588018
310
2C801E241F4185EBD00351F80C3C015990EA77A0AE2315A8D947A1484BE7594992DE7DF7DDE1EE0D2BD0273FF9C9818181F1F1F1177EF1022586EF66C40ABF00E0CB4FB196617C1C0F50B199D47CAD6E9ABB8A20CB3CFC303E1F2FBCC0FAFAAD7EAE9DB841A8BC206F60A1CC66C3EB6571B1F6A7FDFDECBF5AE2F3F1D9C7F8
310
37FF16E03C14CE1010514068A1B0CC1AF4B6B0B44C16B25982D378CE707D947BE105688120AC820956E1224CC02A3C062FC04367C88C7219EE8569C8C28360879F830352A0810D666F6E7DE3B8A92F33E860271647D466B316ABD6015CD27C6A25E6B768C3ED006D3A239BB3AED72EEFD477DB200D2E88800A065821B7EB4E
310
57AED0DFCFB5E3D356CF810AEB159D58060FDC58F5439029BF7DC10ACD90AE1AB8868779F3CDDA17BADD24122C1C14E4108B6DFCE0838848ACF205F68E3002E74119210FE77E87B39FE7ED5F1281BF030F5C853074410C0AF03CE86087EF831D664A5C051BCCC355E887B7610E82B05259E8188127E0D91BFA5A6E0DF52500
310
D7E650EC82CBA58CCD40651D4070283E9F53D7F59119384BB8197679836EF19FE05568836BF01370C263F08DE378EB98CDA86AED8FACF06978079E802948801FCC7B0B802401ECE524F77198812630C328B48003964085E6E61A76CFCD86B5B71F2D10C7219134131A2607960E807E2875A083034647F9F18F191EDE1851CB
310
D38A2274821B7E56A9240D6633519590890C64E0B3B00EF743BE2C63608105288FB56F431BEC3180DD7EEA4B00063BD1F4B8CF27CAEAD60820E6AE9EE9BC6F6A6A6A6325B8C8CF6B7E7D81006743FC0DAC4313AC80130CB80C97601D0ADC54A0567F079F789C575ED9E9F753E6E700BC50F9B5FC92AD197269B7F3E8A3E83A
310
2FBF5C7BB6FA2B00962A8349D949A1AFDC867E2626686EDE2AFCE083BCF706BFDAE795B007A7C0E9C23647224A09DE1DE1024CC3E8C8361DF2E239CE9C61D3BB4480F7B73F5A20C0273EC1D34F3334C4430F31F54B54688719B8081AC820C7292D0258C05DA9A13EA82F0188A7114C1643F2ACA7161359D65300922CE8A227
310
96643D0529BC7B5D1C8D128BD20BCF431F582105F7C39B6082047877F5C721306072DFE5B02EF0420E0C335FFFFA313CA4049E598A25DE8BB2C788529BBE3E7EF633762C308F8C303C0CE074624DD10354E94B3BEEDB55596803EE0645644E22033A84E04DF0558CA19BBCF5FEC16F8D6874A3CCD8088FC2EFC2F7C00B7DB0
310
0ECD300CADA0C0FDF035B042E6802A6F1BF52500790DABC57665F47A4E43D5C869001F3B7BC1ED0D9DBB706971E57F689AA6EDB3EEF81EBC07C06F2A67AA2D223B444751D0253A4AAC5B4989681A855A72700F5861AA3282EF8FA220CB18C64626889AB8E15118AD4C54F6C26A4510B6AA329910C59DBDBF9A8E0EC451EE80
310
C55D02A028582CE4F3F8348625DE5300A6C000B562352E3FDD4DF6CB22BC082F82042294C0003B94408312FC4768B925A9686E98FA1280661F26AB3AD8D3353A7A2DE821910108B80A66216616D65A7C7AA1503B1EE046F8ECA778C9C65C8A27EEA6AD8D575FA59CC967079BAFBFFEFE83EB3C7F9EB636A6A6181FDFAFD84F
310
DCE83AC1D0863F764D8686E8ED251AE5B5D7004E9D626666E365BF8372C3FAFB991028DF7647A950887BEE211CE6F5D71977F1F94F72F93219B01DFC40472604FF373C03B37017C4611556E0DD4A01F347D6EDE8209A7DF85DB4B4B4F4F6F602658D1F78EAA9A7BEF8C52F3EF5D45366B3B9FA3C50BB43EC457561496270F0
310
68F51CF25E8728E6B15B5C56F311AAF2F9F64BB2323C8CCD464FCF615BB5F9B3DF4F288408FF3B48F0D8411702508E32AD51A67C34C325F0430002D00603EC27E7274D7D8D00839D148C84DB8DA5B435094EADBCD6DADAFAC61B6FF4B5A81CE40E7D04F632E9DC7A445DE0484B702D2D0728E25D5D474845B1F9E0FDFD64B3
310
8456E9842F410E06A0084EB8BAE70A6E87CB35B5CFE2890A7B1869EB93FA12806B73B476F526D6B4B199652A66507F679BBEEE6E1F78FC99679E29DD4C7C6DA180C95451F44BF44D6FE90087D06E0E55E670C54A165D0F045838C81658AEAAAD87F5E9FD7278F50322622DDB54CD56B54F926FC7EDC661251EC607FF0E7CB0
310
0626E88371F838FC7D79E96A64E7AD6D55FED8650255C279279420003AA4C00905C882137E09A65BE27E7B33D4910024320CB4A367472C8230DC8DCDBCA1EDAC2FFC7FA91559D30A831D00C20D2F5EAB2A8AB235D39DDFB2D3BBD79612BBCCEB35388411F530554956519012740D3339B9CF4054A9CAC6C8BEBE3DE518CD7D
310
17DD76B66A61818505565670CAACC1BF81EF4237FC23F85BB8175E83B6CA82EE8EA7F6EEB2076C4A4859E99F83BF86EF810BFE27F83E58E105F83C9C826FC359786EBFD6DE4EEA4800722AEF4C01BBDF64C6F1BC3766676B784A76801B7BA898F0C368AD9B5770C56207840DFAA08540904408E60EB21A158B8C8CD0D7C7DA
310
5A0D770C33F411F093F8832FF1D7DFDDFFB6AE279E487EED6BFB95B89B8099440862BB26A03A745B58EB25045658852650E0810CAFCF001EAB4777E966B359519472BA5FC56C36994CA2281A86D1D5D5B5B8B86877D923657B560A6C02A707191131810CE36001051C13D83416C0D8771DF3B6534702700208E003093D6CA0
310
C199BDDFF1369AFAF24927EC63DD69050BF9C52276683D9CD974729296165A5A585E0636EC9E401F18E423455EFF21EEEC7E191C2FD0F4F67793C6DEF6CB0148934F17B1826397E5C7804C9E7F3F820DE2F04A2548F2775AD06D908DE7E2E595B8969616499200C9649224499224C330C2E170369BCD26B35BB5394F931BE3
310
3B3AAB7037FC053481898DAE7F50C2BEDB4F7D0980DDC485106A89DF2C6F3B7FB689DFBF402CC74C1C49A450E27BE5AF7275EE86EF15B2DBCDE7E49253B74CCB3EC32A778BABE974BBC7B59C4E87EC765914374B2654551D2C0667ECABDE4C3060172AD310AD545A4EA7BBDCEED944A2C3E32AB90DA36434A71D4240881AD9
310
90DB9E54559324391565B3AAB4A6A9A592CD644A6B5AAFD70B90CF173D1EE1CE3BE7A7A6DA7A7A96DF7FBFC3EDD6DC25A065C66176E4C256C5E636E905C3300C4F550AC792612CA7524D76BBE9ED64FB1D2EF3E89671663593719BCD294DB39B4C925F2C576589C88907D4A8AF898003010C181C241A2516E029376F5F2691
310
C30033F8E0B9653A87BBF38B924D48D93501DA6C365B3E5F320C6BA9E49165BBC904583D1E73B1E8B429789902F453AC4EB0AE638110BC030148401AFC3008A370B6B1125C8B56274FF4912B107410CBD1E723ADF1D3090051A0D5C5F7AED2E2A0D9C16A866B114EFB705BC8175337FC65AE66325C830BD04C5AD656573248
310
4CC7E3C0ECEE742697095FCCA457B47474A771A46C12998EC5373C089A59584B226F55524E58548D28089B1702ACAF63B3F1E49373F3F3E8FAF5F57562A02374305F48A2924E6CDC746DD7FADA4224D9DBE35DF8D54EED2CAD6994931445404768665E48320593B39CAA0C7486812CF3FE08DE8798F1B0BCBDF2D9D919BF9F
310
EC6C7975CC5A2AC54A25401084AC286A826018861E8B2532997036C33ADC7D37AFBC427EBB1259FE4EDA40802F56D6FE1A02B01B45E24A18770BA5142F2ED0EC63D806F0F10ED6F32C2601922ACF4D6EBBEA7383E8064051673E49870B59DC557515AA0F73396DA8C444110D58842E30830DF64E7382C1FCDBC90376735984
310
36144942867D6D9289DDA92BB2597EF2932D5BFE245C40D125848332584F302FED3B3799807E1449220BF12AC7D8419056599501C2E11A8B80E934F7DEEB315BF4F965B3D99C4AA592BE24765C66929E64599FE9EBEB2B140A76B723F2E4FD2C2C50332547800DF5F27F814B7BFBE79E10F5220080CBCCC212ED210256D40C
310
820DA0C9BE950B5112286C7FBF283267830082C040804886D7164092F674B40C56BC0F24364208A21025AB140E0C5C3A38C3611CE28495CC8155B9CC66DD30123BEC3F86C1E6C85384DF1CAAAA43356CA25655E53441B5D6BEB7F8E52FE31F0F91AC0858338C9050F2681B969FC9C949209B3613BE82B96A69AFB515AF1707
310
F8FDCCAE012CC3C7FC44D690544E4F6E2D0C9F347524002D4E7C6E02369A2DD8CC1BE6CEA51453154DA1CBBDF312596020C8BB2B4CAD73DA8F2482C5C29D776EB80F54D139E8172531D3E1D6630E9BCB2C99C5452D56A8BCD253C797CCF9305509C2A16CB9B7B655C5CA2B601F348DD59D7E0B4EB379676D469ECF7C665B8C
310
4E5F1FBFF811E7213A8C798414B4406698B3238487772E239C287524006351EEFC18B3535CCFE19771CA002583907DA38053C1BC7D193E53E0DB5700748357E719F0337C573B13AFB13D3DBA2A234BC6B59108253FE1DCDA721AE9D00B5B1F56D41B8A4703ABBCABCFE839BEF94D7A7BB79998DBCCC4C06C2665C606533064
310
E6553301917DD5D4DB4C1D09C0A5362253F4567C364501E0ADAAA8D9A08D76D7D6AF1E0BD7A255D161B0207ACC82AE6E77B1F406EDA17677A99C6F2895C2E92CA7FEFCA8133DD63F7E2EB715A31C0C3231414707403181D84E112CB094C0DD4E62B69E3A5DDDB46526CED7DF38A04C384B78FFD1B3ADED8C558C88BE825A2C
310
167459114D8AFCD083FD13AF2FC926D3B428B6D9EDB39D9D5D57AF4A8A587095E63FB21931814938132428B3BA7ACC357FE2137CF7BB4C4D0198E142A59735411A2CB0BCEFE5B7977A118063C0E723162B06FCE1F9846118868E200A82C0FBE34B45A79E4DE68ABA3E3B3E8E20CC1A0612F88FE9BE8E8A326D8143B8780219
310
5933E44EF2DB17A55A6D0C7888387696562B390CE3C7945BA18F8D75804B77F1FACEC9D24E4C559E0ECD3055F9B9DAC1B35980A12D77F172CABAB2CB890A07BDD74E960F9100B4B430321297249BC5519D97FCCAABF37697D9DB5CE958874985224000CCB06BDABD937FF8BBFCB7EF6E58BB231C32C24B36897A208FA26F4B
310
6132EB60DC5F23A989B922575ED8251D35C854B622DE2772A8ACAB5BAD287BC6049C3A1FD24BBACB654BAE653349B5A096DCBA35715F36F756912106736D2935572AEA268BE42D3892840309411545B7DB2D0A426268C86EB7CBB29CC9642449BA7AF5EA0189224F8E0F8B0054A2C52391C85D1F1F5C5E592AA81B161E9359
310
DA3C6E2299C4925DDF73A36C03A2903AC8066F36936E665EB891FC429108160BA74F1F103A03A815B93AA4BE66073BF4EEF1B72D876895999E66F78CB6825ED2674622DDC34D339569563C9CE93EDFB4A62604895C525D9CDCC82E2149E2CC48441445A5E09D9D9DCDDE7B6F209F5F5D5D9524C96AB5E6F6098EAB033E2C02
310
E0F7974D10AAAA26578A3323911D9FDFF94477F77053412DE5339A2768B7B9CCEF9BE778EFE6BCEC5495175FBC81DE6F94E3DDD369A6A7191E6674B476A0FD8D511E01F631F0D70C7C39346E8B255D6B794216954C2693CC260393EF2712890F44EFE74322005D5D07A6435B2514997CAB3C2CC456D29D67020827E69B6E91
310
65DD30F2C522850223239C39B3D7261DB784C3CD41C37389CD6335EBBBFA74B98C9AD293723A7131616DCA54F77E93C954B7FA0FD49549F64854AB2E0E07555F71CD8D6496E6D26D7DBEF2CF8641513BBE37EECD333A4A7333A1D049B7631BDE907DF3584DB363E74464A38C52089942CDEF364BAFC6AA7BBF61188E5D97D4
310
0FF52D002EF80A74423BFCCFF00FA01786A01F2EC2BF02B14632C0FE3DA2D7376705F5C8F4346E2701D7C1256F1789686EF3789892F1D55C32999424C9A2AAD5BDBF9E5FFFD4BB0A9491786B90721A8851102B696DDC908197E10CA8EA8E6421D7AE5D134551DFA555978ADBCF18156B609D90CAE03F2ED3EC31E0F45AD2F1
310
7CF9789892DEA0B390162C164B7997AACDDEEFF57ACB2E43F5497D0B40A9C45B47CEE56618C6E9D3A7AFEDCAFB6932CB553F4B1BE9694F627793F226DE5BBF9F022F149659BEF5A9C4E5C33E7226A96E1E0F53329BCE392DBEDDBD5FD77587C351B7E3407DAB403784AEEBD7AFEFDAFA2797939C5B366F2D5F6401DA6F6BC3
310
36C9178BEA8E3D244F55B229DE6A7687B4EF81D5AE6C1E37595FCD0086B1F1437549C52AD5ECFD75BE57EC875000A8390DB87E3D13D8EAEFD99446A6CA227E7BB1CAB2A5DA007F1D7E7AD3E97BCFC2A387C8DED5B12B2CF83474D46AA453D93C6E2208CC251280200A3B4A3A9C766AF57EA7D359B7AF7F3EAC0250135DD737
310
FF6CC9B56C73F781DEC08740D35094838B6D27A56999EA348CDDF04F0EB7CABB0FA7C16DAF9DDDB1261294A7DC77C2BE39B5AA51ACA60EB71B01B365B7F26CD4ECFD6515E8B037B8ED7C8404409444D9B4F1BC7AC9B0D88F234565B1C8DD121F3FDA451E8BC5551D3E62824938B21CED6809ACED1D09B49B272B19A797E0E0
310
0DC837C867B4C56412835C66A7A415B462CDDE7F53A99C6E3D1F4E01181F1F3F7DFAF48E93D1C554CBA93D734BDF3866B8C974A57188DFB400CC03C1DAE94D6BF24625F79BEF08AAA0CD656E713A11B0397736D7A4986AF67E5114EB793DF8C329008542C164DAF982374A7AA92AA432BD7E1C7BCA97030C6E72552D029761
310
4ADDDABBE50678045AF7DEC26337CD9585F0426D27563557DC3C6E925ECF4B82804126A1EE2CA9AA5EAFD7308C1DBDDF64322947D7126F1B1F4E0100E6E66A644CD1F25B7FCE52E9381683A351BC4D87F4823E8042A1F6B6A787E4FF3962B685F68AAF6BACB29BFC76926BD9CDE3268136272008F85B1D3B4AC62319C330E2
310
F1B8D3E9340C63B3F797FD828EFA34B78D0FAD0084767B16A86A75E0B63B60433B8E5CF5B6FDF2C9D52F3FA878EA3F0EBD353EF704ED9BC7FD29970934F9367B7FB158DCECFD2E97AB61053A016AECD51E8BD97BB6928C1BBA21146F5AF306A68E9C0F3991CFA74E2437B5A396B1F5BF573665DA4E6C39BD79DC9F7299C84A
310
EDDE6F32991A56A013C06EB79BCDDB559358ACE0D88A70517345615EA0EBA6EF6481078EB6A4EE329B1D27A216BB6BED219BAFBD314C59DB291FAB895727FFE9874E028F3B69C5D564AAD9FBD7D6D68EF3118E9BFA7685B8099696967C3E9FBAFD455B2AEAA224E8250308CF27DC7EDBBA70D3BB55FD7CFAA8793E8E31DFC9
310
D1F0D4DA9EF142ED4970783EB979DCC26C367A9A8C6652EE3662EFD39CC7CCCAA240DC962BE98A5C14046147EFB7DBEDF5BC185C1702208A82AC4880CDA9F4DFD5522AEA575EDD58AED4F24541A0FFAE96073F37188F64AFBFB7EA6B7188A2F8FC7F7BEFC06A9D4E676CBB5D25935015B39CCF1600BD6438BC96F59BDFAEAD
310
E64E8FFBE25014DD309227B743C736A6E0AE1AA75B7A3C332391F271EBAC6CC26EC7DD15F39BE8B4B32EB14EF359FF7CDB823FE44CCF941445D9D1FBAD56AB2449C5E249385D1D82BA10805317423D6783D984EAF05AD2EB797BD07CFFEF0C14F2C550B7FBFB7FF90682E0F259FFFE8763817667E799C0C2786CEABDD5B63E
310
9F3764CFA5B5A977F74C6AB05BF5CC24D5B64ED7FCB58D4159DA3F91E22D43BCF13D0E6E01AD1C90F2B19A4C9A2B2BE4F39C2DD13EC5AFE06E922DEB4C65F33D92B2E42CDB40CBBDDF66B3D96CB668346A3299D43A91F65DD4850014B5D2C4DBCBC10EB7962FAEADA463ABE95C5A6BEBF3ADAF66CE3DD8998AE596A7E326B3
310
948CE65EFDE146D2CD7838B338197BFC4B77740E06004337C6DFDE8874325B4DB249542CB2C766D991EE5C2FEA922406DA9C26B32C8A82280A1F4803CEF1A2EF17CB2F4A42F770D34650BCDF9ACF14BC164BCC304EAF6433615FC9A29BC625F39C293199B534D9228984D3E95414A5DCFB1D0E47241231994CC964FDA69FA9
310
0B01C8A5B5EEE1A66C52F3B73AED2EB3D5A16453AA9A2D2816D9DFECB039946C4AB339951D8B32C0FC58B4EC8B2B88C2D2D43A36DBA642D27EDA6F2472822018D58EC7BAAE16F4E45AAEA016374E1F6597BDBAA6EAD98F8679BF11402F19D541F188F4E2C530C65F9ED92CD33DDC0418796347EF0F87C38AA2381C8E7A9E07
310
D7850088A2204AA2A11BB2220A227A491725419244D924CD8E461626D6F492214A4253DBCE80295112366B00686A229B25120124498846A37EBF3F1A8D6E5D904C2E674AE4EB541FBD29B6C7851E8DE34837A469AAA2B8CB7ABFCD668B4422E5DE9FCD661545D14E6ADE7F10752100669B29BE9A294F0024595A0F677269AD
310
F742A8582801C10E77412D99CC92AFD911594CE925BD54D465932488425BBF5FCD16805249CF670A90E26C874975934858ED8A206A76A9699B002C2F3330B02D3562D929FAF66E5CAE168BFA0D6452D91F8BE5004F8ABDC2DF5468AD717A6526BE79DC9F7299F45A412F6CCC7ACB7A7FB9F7178BC57AF687AB0B013029D2C0
310
C5D6C45AD61BB4E7D25ACFD9A020904D692D3D9E97BFB3A5C5AF2DA5EC6E73512D69F9A2D96672076CD7DE58DC99016532C6D01057374E3A1CDBDDB0741D71FBC4B7BC93E1ED1500E35644627676B2BFAA1DDC952B656080749ABED59A19879ADA5CF3E36BE563F579B55482D5DD25DD019B9A103667BDE5DE5F2814BC5E15
310
DF50440000117B49444154EFB677509D514FE688E34210387386AB7BEC47B57B9FBCE1436DFFB8851DBA6FB46D00584DB26EB4A8C52A8DCE0F7BEF845D9BE9ED72FBC52FF2B39FED2703A76076BBBA6F55989B251C63709089891DAED436E7C6D42B9BAAD25E1EEC3725A60ABE5E7E31B1BB64577B6F79D6BBD9FB7D3E5F34
310
1ACDE7F375EB0D511723C03163182C2ED2DECEC2FE89DD6A21413748FBFA08658E2830BB91C158A2B433F5FED1E8D9BEE3DDCB5F2359F5862F400996B6EFC57294667B438E6C2AD6DCEDD175834A4E0DCDDE7426AF8F5A9A685F05EC6E33209BA4C977565A3B5AAE39AE2982A215B456476B2151F0FBFDE170D86AB5666F6C
310
767E5BF8300A00904860B110087098C1D7E760B8F27E2AC22C146F6DB0BCD564D20D43BD49CD787AFBAF23DBF51B196468ADF2F4F4D5F404DA9344340B84E7931B59217C3EBABB29C8D165D5705909F6110E4712001D037EDAE58CDBE7F638D3A1B825CB52A63858E9FD0E8763696969DF5B9D241F3401380D0234C31C44C1
310
0C169040872528413FE4CABFAE72FA3489C4C15182B1AE9D4AD18780B20C57E70618EE3AD210B0332D4A3E4F3E4F46EA92E5997018B379D3795BC85848A5C8CBC168933D55D40B05B7AF2512992EF7FE582C66B3D91A2AD031D10D0F4217FC1708401234E8ACF839BA40000B74C0128C8F3334C4E8E8B6F49DE510969BF1BC
310
AFE661780B2EC1E88E99E1071EB3CDB47904C866CBD32AC9EBDD91C8514C2924126E3CA9A5A58D59EFF4B4C56229F77E4110EAD60F820F9E00BCDFC2A20FA01BDCE08233300DABD0097EC8830D962B2B5C9284C3B1ADBB2712B8DDC726005D3021332B1083D33DEC0A43ABC1C73E5672B9F46F7EF3781A503788C88542AE3C
310
EB359BCD4EA7331A8D8AA2E8F178EAD90AF4411380E5E58D4DD5011FBC078B20C30A7C0EBE0F165076E9C7D5241247981FFBFD048315CBA95AC36DF237E02C6218F4C0F4F4A19232ACAC48D9AC70ECEB00274D564BFAFD81482462369BDD6E7724121104C1EBF5A65229ABD5DA50818E9B4D6D76D3D3F63FDF6855E130FFFC
310
9FB3B8C8AE6472ACAD31367653B9CB9DD00483F01A3C082FC3DA5A4CBAED2919AD566E7164BA45B185E7C256ABD5E974967BBFDFEF4F2693AAAA1A752CED1F5801384652299E7F9E787C6B6C39460C0777B830C1C7007082138FD552328C547E970F5A367BAB36F00B1E25610400B9B4B679AC6661D75243B94CA9A89767BD
310
6B6B6B8220F87CBE6432A9695A2010181BDB77DFF013A5210090CF238A07F77E9F0F59A6A9E980623B48A77979678F49ECF532B6D9686BDBFAD552D91D6C1F22118A451289033202D9ED076EA1B083F2FAD7B65530005A9CCE99ED525A4E3716598E35073ACAB3DEB2E6A3699ADFEFCF643276BBBDA102D537160BF7DC4322
310
C13EF90BD6D628950E36982AD0090B60831CDC052B557BCB01E0B55A75C3D8165B58667D9DA39ACC9B9A5014FAFBF76C7926432874848C71151C1E4B2A962B1FB7B57197F496B7FDF6783DE5DEEFF178D2E9B4AAAA81402093C9D4F32A180D01D8C0E7C36C6662E2A632F394E900012E4000D6C0A89D74E4D828C7FEAFACEC
310
59C0EFE7EC592C16DE7EFB4815D74C8B02584DA6C4F6E816BDA803A97856124C5EAF379D4EE772B95028944AA5B2D96C43053A063EF1894FA8AAFAFBBFFFFB3FFAD18F3A3A3ABEF18D6FDC54758B8BB4B5B158151EFBFCF337D9C22D66A10BE683C42B59E83AA00092442510AC64B1E88681AA522AEDB1C598463C7B3C3BF8
310
AEADF1CC330C1F39EEC1D364CF989C1E8F5E9D030BB0EF32F59693E35ADC82CBB431EB0D8542C964329FCFFBFDFE442251CFE9D13F1802B0BEBEEEF7FB55552D168B0B37E0E1B38374FA08FB11592C343703D86C1C3E9431B1CAE6AE10E5FF757DB3AF4B56AB6018E4F3FB695C5EEF617BAD6190CD92CFEF370E1C9DD86A9A
310
81F3B1B18363AFCB14B34252D898F5A652A97C3E5F9E07D773562CEA5600DADBDB038140A1A2B97A3C9EF6F6F66F7CE31B6EB7DB62B10C57F58CB60029CDD5DDDD1D8D46575757AD4A499688A7E9ECEC8C46A33D3D3D232323ADADADCF57BFE38B456479E3955C5EA4F47AB1DB71D7DA163897DB781367B337B21DEAFEEC33
310
738D460FE5C8040802361B164B6D81098508856A58780F22743A34138F873ADDBBB7DCAC8937E4585BC89667BDD96CB66C039524C962B12C2EEECE45512FD4A900582C96D1D1D1CD48EA7BEFBDB7ADADED5BDFFAD6C58B17DBDADA7EFAD39F6E15ED46709C1D1E1E2E954A3FF8C10F26C6DE339B588EF15BBFF55BB95CEE91
310
471EF9FCE73F5FE306172EF0852FF0DC731B5154B118A9D48D788FDE10194D3B4E49320C321932196A461E46A38C8D71030159BDBD7CEF158602872C5E28A97EBF3F9BCD96F5FE7246448BC5A2AA6A3DAB40751A0FD0D7D37C6F7FB4A4EB021886A1288A2449B95C5E9665C3D00B852DDF928E20F3611445713A1DB95C5E34
310
B22699F5147EBF1FC8E773994CB6B56BF8CFFF66BBF5469639390715A7A2E8869139BA65E656512B1EC0F7E9FB5C8B93EE80ADEC160A2C4CC4DAFB7DE6A8A10684C5C95853BB4BB1C8803B608B5A9A061579FC9DC51DEF7E555573B99CAAAA752B00753A022039E6F2A71F7BEC31ABD53A3C3C1C0E87AF5FBFBEB0B0100E87
310
9F79E699EA82C3DD8CCC70FFFD172D05CB4B2FBDE473521E012E5D3AF5C8238FBCF8A31F8D8D8DD5500D4ED43D6BE71E61278ED98CC542A62ABEC6E188C9DED82EE567662412B4DBC3AB1960696A7DE3ACDFCFDD43C185959ABDBF6105BA210CCDAB2C4D5FF9492C161B7B3BD8D414B876ED9AD96C36D2A9E1EE6D05FBDB00
310
4CDA782EAD0E77E3716092F1B990F2A3F14553D01E96BBE96DBBDDFECE0E45F159B7993FD39AA61B862C8A5AA9D4EA741A8691AB08E19AA06582B57629BA6D3C742FF91C63E35B67F6DE7B3C9CD9153FDADCCCB3CF1A77DCB1A3F7E7F3F9402090CFE7EB5905AA5701101467F3BDC377DC313939F9E52F7F796161C1D336B6
310
BCBC5C5C5818F9C5CE3FCCC80C0FB40D886646DE7B757304F8F4A7EF2F286D924B1979FB17B77F2FB08CA6E5B70F32D5AFFC582E57BD1056C220B38FFBDEADE73F5EA778B371EBC56231954A55F7FE726ACABAEDFA65EA55000C2DB5F2DAD8E5EBD94CE65FFFE1F7ED7687AAE653A9542E97DB3D024892D813CC4E4D4D558F
310
0064AEC86A4ACA4F3F7A4FB0ADD37D9B4700038A6517BA7BE00CB8E0D7D001CBF01EC5A2AE1B46B1DAC74EAF9BF900D0DACAD212ADBB7245B821043A2C4310B2B05A290C26934914C56ACD4755D5542AE5F178A6A6A66ADCA53EA857011064C1D2D937741F02D1175F72F87C522E777DF14A24B2D38FDF6963694DBCCF3770
310
A9E5DCB7BFFDED6C5E534CACC410AD52A8B329A9AEDD75D79DAA7A721A7F18DC5082128C43099CB07EF0752789D75B5B00CE41085CF00E74C37558AD1406A0BAF79703E13D1E4F4305BA210CBD908F8D5E79637D7D3D935C2B69F16C36EBB01AF95D6E05760B768B211A99B7DF7CDD2C17EC561419A795D6904B167226319F
310
8A2F4BF22DF546D897E95AC10927D79C233030C01D77F0CE3B5B6772B00A51B0C21A08708769C37BAFB3531B18509F7E7A77EF3FA9E61F927A1500F4DEAE405353604EC898255B5353532C165B58481576EDB4E0B4E271087673E1E107EE7836B96435692619B580D35AF23A05AF53300AEB166BDD3EE62DE61C5C01270895
310
C0096FD92F031220810076C85536CC03BABB999E06F8FEF70FAE7F7090E79E2BFB082A2B2B357BBFC964AADBD73FF52B008232B96CC61E8C64F39FFBDDAF4C4F4F972C2BBE0E4992A4BFFCCBBFDC51F6DABCD1312F0B42E9F278C1EBD89804AFA6A34FB67DFCE537FE3E9B9D1D3EBA27CC2D25AD69B72346C4047F05FF1734
310
4133FC00BCD0096FC0255887CBD00C40060AF0183C0D76FB11728C4A5B1BB31A8671CF3DF7A4D3E9743A7DE6CC996432691886DD6E5755359BCD868F188D70DBA857013034B73C2FAB45B7BC367EF9FBB26C5263B39D9D9D0B0B0BB526C146AB3B164F24CEF78A0E4BA93C09F6FB0D3BD3C3DD46367B0266D0FDD16E4FAA40
310
5DE29F0EA2C36C25954601AE8105AE83026D5000032C60A94CD30FBF99C5F6AC33EF6532A32FBE58FE7964FBD75DB78941A95F01109464A9F363FD8F34F7EA8542E1F5D75F1F1959BBFEDDDA7B718DCCE88E101E4FD7BB93239B66D04F749F8B17DA15EF5D6F5E7DF5F69B41EB825289CB958EF8C720C175B0C22218D00121
310
F87F6B5D18844C25ED5C3971AAB9560AF550A8FABDA22B4ADD6E02B00FF52A0086A6AD5FBEF69B98AE97CE9F3FEF96E79B9D516B778D82E585303DF57EAE68A936837A9545299F6DB2C5864F6221ACEEF836B8A1EC2B14062F842BFB0457F31844E11CE42B0A5201E66110C6C1040FC3DF00208A37152A5D37D4AB00088ABF
310
F3FEA14B771B8671EF030FF45D78F28FFEE88F26666A27BE1C99E1CC99F642C9363213D91C01FC9D2DE7071F79FF673F1B9939C24EE81F5A96A03AD46C7D0F53ECC22092C432E420083A58E11264E04EB80E6FC2674181A09D9FBFC51918BD4D4F708BA8570130B45CF4CD9991483299F8E6D7FE3740811DDA7F99F2081072
310
AD1946B47A04B0EAD7D598BB947CB731021C81B2D7F445F0830326E11CF4C11BD00C3F81DECA6A467967B1E913482E7FBCD4AB0020B475F40D0E9D5514E597AFBEB54FB97C819CC6F0B98B3667F07BDFF91BB3464927A761B6BADBBBFAD4E2F3390DB57EE76075C977200F0110E01715C5A9EC376C8149330F3C806B154D60
310
FDCAD65527B2F1EB4D53AF0220C8E333E9D5F5D18E8E8EFFE3DF7D6D7C7CFC073FF8C1FC7C0D7F7DAF83A528D19462A492D1A429AF16CC264A52D3439FFAE2777EF0E3073FF9C5BFFBBBA723F5BB4B675D525EBCAA8EC6F1401C64F081592433C3E9EBC43FB31521E476F3D5AFF2E8A3B7BDAD374BBD0A805168F5E59C4ED9
310
262EE76242D0A9F634EB4A2DE3614713859274A65B999C9CEA6C2A386D98640493EEB3AEB77AB31D01F5540BA1268E1610DEA09A6EF817F09F21003A4806CDBD2C5949AD6ED32CBFF4A5936AE0CD50AF0220282BA9806E0D5AE4D0DB63B1B9B9B9D584CF1A68D534ADADADEDD9679FAD2E6BD806D6B5B6A6EE8EF64C53369B
310
9D9E9EBEF3CE3B7F734D4DE95D056520D8939EBA7E7DAFFB343898203C0D11484210C43C3F7A7ECB9BC35AD982606EEEC45A7813D46B44586FE7C521972008E575C4542A258A622E9773B95CB95CBE7ADBCDFE3656928EF6F6F64422198D461413A562C117680D85428964D26EB35FBB36DAD17DFAC73F6FCC828F8376E885
310
2498C1040950A17EC35D0EA67E470067F37DA74F9FBE78F162241229168B7FFCC77FBCB2B25E3355DAC84C9AF73782BECB66D0B7C696BEF4A54F7FE693975E78E185CBE3EF6987C8D9DCE0502CC06D0A9CBE4DD469CA0A9FD7616446B3F199E9F15FDB4DD9179FFBEFA7DA1D418F30DC1F30110F7AD8FCD7DF862471C7506B
310
93DBF0D8B48E20412F0E2B6D416576F24D9B9C2E64977A7B826353874A6DD0E0A346FD8E00C1EE07426D6D9D9D9D17EFBDB7A09C2E168B655FF3675EFE3F77941D99A16876FA7C5D23575E2B8F00AB71F1E17F7069727232140A8DCCBCD558086BB017F52A0086965CFE95556FCE8495E8EC2BD3D3D7C7C7C7CBAE26356382
310
7B5A55AB35BEB910E677EB527E747DE17587D0F1E9075A2D764646B0582C9AA689A2288AA2A228E974DA62B148925416AD1378C6067540BD0A00B4B6B60E0F9F4DA5920F3DF450387CEE3FFC877F9F4EEFB9E4A8AA6A7506B26030D8D3732A994CF6F5F5CDCDCDAD4412C05FFDD55FBDF4D24BF1787C6060E0939FFCE49FFD
310
D99F75747488A2E876BB5B5B5BBFF5AD6F8D8F8FEF557F830F2BF56A05EAEB6B6969F1FBFD4EA7F3E1871F7EF1C517CD66732A95F27ABDB22C9B4CA67C3E9F4AA57EF5AB5F39C5B99119CE9E3D9B4AA5666767CB2AD0CABAF0C4134FC4E3F16030F8C31FFE707878786464E4DCB973D96C361A8D4A92343434240882D3E98C
310
C7E382208C8D8D25128942FD24EA6970BBA8D3114053D3A7DB34972BE3F52A527EF454285B2AA57A9BEDAA1A3D75EAD4F8F8786BC863E9B2E7D7CC6A02A0C9B67AB627E41070DA9025FC6EC36F59B17B720EA530DC4D872F3902DDDDDDE974DAE974767676AAAAFAE4934FAEACAC2412896432F9EAABAF9EF4133768D0A041
310
83060D1A3468D0A04183060D1A3468D0A04183060D1A3468D0A04183060D1A34687093FCFFBA069ADF9B61BD9B0000000049454E44AE426082
  0
ENDSEC
  0
EOF
