  0
SECTION
  2
HEADER
  9
$ACADVER
  1
AC1014
  9
$ACADMAINTVER
 70
     9
  9
$DWGCODEPAGE
  3
ANSI_932
  9
$INSBASE
 10
0.0
 20
0.0
 30
0.0
  9
$EXTMIN
 10
581.5110516041711
 20
1791.083615201362
 30
0.0
  9
$EXTMAX
 10
1180.729644975176
 20
2219.080142774746
 30
0.0
  9
$LIMMIN
 10
0.0
 20
0.0
  9
$LIMMAX
 10
420.0
 20
297.0
  9
$ORTHOMODE
 70
     0
  9
$REGENMODE
 70
     1
  9
$FILLMODE
 70
     1
  9
$QTEXTMODE
 70
     0
  9
$MIRRTEXT
 70
     0
  9
$DRAGMODE
 70
     2
  9
$LTSCALE
 40
1.0
  9
$OSMODE
 70
   959
  9
$ATTMODE
 70
     1
  9
$TEXTSIZE
 40
2.5
  9
$TRACEWID
 40
1.0
  9
$TEXTSTYLE
  7
STANDARD
  9
$CLAYER
  8
寸法
  9
$CELTYPE
  6
BYLAYER
  9
$CECOLOR
 62
     4
  9
$CELTSCALE
 40
0.1
  9
$DELOBJ
 70
     1
  9
$DISPSILH
 70
     0
  9
$DIMSCALE
 40
1.0
  9
$DIMASZ
 40
2.5
  9
$DIMEXO
 40
2.0
  9
$DIMDLI
 40
0.38
  9
$DIMRND
 40
0.0
  9
$DIMDLE
 40
0.0
  9
$DIMEXE
 40
1.0
  9
$DIMTP
 40
0.0
  9
$DIMTM
 40
0.0
  9
$DIMTXT
 40
5.0
  9
$DIMCEN
 40
0.0
  9
$DIMTSZ
 40
0.0
  9
$DIMTOL
 70
     0
  9
$DIMLIM
 70
     0
  9
$DIMTIH
 70
     0
  9
$DIMTOH
 70
     0
  9
$DIMSE1
 70
     0
  9
$DIMSE2
 70
     0
  9
$DIMTAD
 70
     3
  9
$DIMZIN
 70
     8
  9
$DIMBLK
  1
OPEN30
  9
$DIMASO
 70
     1
  9
$DIMSHO
 70
     1
  9
$DIMPOST
  1

  9
$DIMAPOST
  1

  9
$DIMALT
 70
     0
  9
$DIMALTD
 70
     2
  9
$DIMALTF
 40
25.4
  9
$DIMLFAC
 40
1.0
  9
$DIMTOFL
 70
     1
  9
$DIMTVP
 40
0.0
  9
$DIMTIX
 70
     0
  9
$DIMSOXD
 70
     0
  9
$DIMSAH
 70
     0
  9
$DIMBLK1
  1

  9
$DIMBLK2
  1

  9
$DIMSTYLE
  2
まこ
  9
$DIMCLRD
 70
     4
  9
$DIMCLRE
 70
     4
  9
$DIMCLRT
 70
    40
  9
$DIMTFAC
 40
1.0
  9
$DIMGAP
 40
0.5
  9
$DIMJUST
 70
     0
  9
$DIMSD1
 70
     0
  9
$DIMSD2
 70
     0
  9
$DIMTOLJ
 70
     1
  9
$DIMTZIN
 70
     0
  9
$DIMALTZ
 70
     0
  9
$DIMALTTZ
 70
     0
  9
$DIMFIT
 70
     3
  9
$DIMUPT
 70
     0
  9
$DIMUNIT
 70
     2
  9
$DIMDEC
 70
     8
  9
$DIMTDEC
 70
     8
  9
$DIMALTU
 70
     2
  9
$DIMALTTD
 70
     2
  9
$DIMTXSTY
  7
まこ
  9
$DIMAUNIT
 70
     0
  9
$LUNITS
 70
     2
  9
$LUPREC
 70
     4
  9
$SKETCHINC
 40
1.0
  9
$FILLETRAD
 40
2.0
  9
$AUNITS
 70
     0
  9
$AUPREC
 70
     0
  9
$MENU
  1
.
  9
$ELEVATION
 40
0.0
  9
$PELEVATION
 40
0.0
  9
$THICKNESS
 40
0.0
  9
$LIMCHECK
 70
     0
  9
$BLIPMODE
 70
     0
  9
$CHAMFERA
 40
1.0
  9
$CHAMFERB
 40
1.0
  9
$CHAMFERC
 40
20.0
  9
$CHAMFERD
 40
0.0
  9
$SKPOLY
 70
     0
  9
$TDCREATE
 40
2452312.443623217
  9
$TDUPDATE
 40
2455600.382257662
  9
$TDINDWG
 40
13.7728368634
  9
$TDUSRTIMER
 40
13.7728359722
  9
$USRTIMER
 70
     1
  9
$ANGBASE
 50
0.0
  9
$ANGDIR
 70
     0
  9
$PDMODE
 70
     0
  9
$PDSIZE
 40
0.0
  9
$PLINEWID
 40
0.0
  9
$COORDS
 70
     1
  9
$SPLFRAME
 70
     0
  9
$SPLINETYPE
 70
     6
  9
$SPLINESEGS
 70
     8
  9
$ATTDIA
 70
     0
  9
$ATTREQ
 70
     1
  9
$HANDLING
 70
-16383
  9
$HANDSEED
  5
2DC49
  9
$SURFTAB1
 70
     6
  9
$SURFTAB2
 70
     6
  9
$SURFTYPE
 70
     6
  9
$SURFU
 70
     6
  9
$SURFV
 70
     6
  9
$UCSNAME
  2

  9
$UCSORG
 10
0.0
 20
0.0
 30
0.0
  9
$UCSXDIR
 10
1.0
 20
0.0
 30
0.0
  9
$UCSYDIR
 10
0.0
 20
1.0
 30
0.0
  9
$PUCSNAME
  2

  9
$PUCSORG
 10
0.0
 20
0.0
 30
0.0
  9
$PUCSXDIR
 10
1.0
 20
0.0
 30
0.0
  9
$PUCSYDIR
 10
0.0
 20
1.0
 30
0.0
  9
$USERI1
 70
     0
  9
$USERI2
 70
     0
  9
$USERI3
 70
     0
  9
$USERI4
 70
     0
  9
$USERI5
 70
     0
  9
$USERR1
 40
0.0
  9
$USERR2
 40
0.0
  9
$USERR3
 40
0.0
  9
$USERR4
 40
0.0
  9
$USERR5
 40
0.0
  9
$WORLDVIEW
 70
     1
  9
$SHADEDGE
 70
     3
  9
$SHADEDIF
 70
    70
  9
$TILEMODE
 70
     0
  9
$MAXACTVP
 70
    64
  9
$PINSBASE
 10
0.0
 20
0.0
 30
0.0
  9
$PLIMCHECK
 70
     0
  9
$PEXTMIN
 10
0.235904990914122
 20
1.142254894660993
 30
0.0
  9
$PEXTMAX
 10
414.6267499035753
 20
292.1954128483008
 30
0.0
  9
$PLIMMIN
 10
-3.986569870229978
 20
-0.1432979796071603
  9
$PLIMMAX
 10
432.0225770590779
 20
308.1836691488076
  9
$UNITMODE
 70
     0
  9
$VISRETAIN
 70
     1
  9
$PLINEGEN
 70
     0
  9
$PSLTSCALE
 70
     0
  9
$TREEDEPTH
 70
  3020
  9
$PICKSTYLE
 70
     1
  9
$CMLSTYLE
  2
STANDARD
  9
$CMLJUST
 70
     0
  9
$CMLSCALE
 40
20.0
  9
$PROXYGRAPHICS
 70
     1
  9
$MEASUREMENT
 70
     0
  0
ENDSEC
  0
SECTION
  2
CLASSES
  0
CLASS
  1
ACDBDICTIONARYWDFLT
  2
AcDbDictionaryWithDefault
  3
AutoCAD 2000
 90
        0
280
     0
281
     0
  0
CLASS
  1
ACDBPLACEHOLDER
  2
AcDbPlaceHolder
  3
AutoCAD 2000
 90
        0
280
     0
281
     0
  0
CLASS
  1
LAYOUT
  2
AcDbLayout
  3
AutoCAD 2000
 90
        0
280
     0
281
     0
  0
CLASS
  1
DICTIONARYVAR
  2
AcDbDictionaryVar
  3
AutoCAD 2000
 90
        0
280
     0
281
     0
  0
CLASS
  1
LONG_TRANSACTION
  2
AcDbLongTransaction
  3
AutoCAD 2000
 90
        0
280
     0
281
     0
  0
CLASS
  1
LWPOLYLINE
  2
AcDbPolyline
  3
AutoCAD 2000
 90
        0
280
     0
281
     1
  0
CLASS
  1
HATCH
  2
AcDbHatch
  3
AutoCAD 2000
 90
        0
280
     0
281
     1
  0
CLASS
  1
XRECORD
  2
AcDbXrecord
  3
AutoCAD 2000
 90
        0
280
     0
281
     0
  0
ENDSEC
  0
SECTION
  2
TABLES
  0
TABLE
  2
VPORT
  5
8
330
0
100
AcDbSymbolTable
 70
     3
  0
VPORT
  5
2DC23
330
8
100
AcDbSymbolTableRecord
100
AcDbViewportTableRecord
  2
*ACTIVE
 70
     0
 10
0.0
 20
0.0
 11
1.0
 21
1.0
 12
881.1149078024232
 22
2005.018089565412
 13
0.0
 23
0.0
 14
10.0
 24
10.0
 15
10.0
 25
10.0
 16
0.0
 26
0.0
 36
1.0
 17
0.0
 27
0.0
 37
0.0
 40
431.2322656076685
 41
2.184834123222748
 42
50.0
 43
0.0
 44
0.0
 50
0.0
 51
0.0
 71
     0
 72
 10000
 73
     1
 74
     2
 75
     0
 76
     0
 77
     0
 78
     0
  0
ENDTAB
  0
TABLE
  2
LTYPE
  5
5
330
0
100
AcDbSymbolTable
 70
     3
  0
LTYPE
  5
14
330
5
100
AcDbSymbolTableRecord
100
AcDbLinetypeTableRecord
  2
BYBLOCK
 70
     0
  3

 72
    65
 73
     0
 40
0.0
  0
LTYPE
  5
15
330
5
100
AcDbSymbolTableRecord
100
AcDbLinetypeTableRecord
  2
BYLAYER
 70
     0
  3

 72
    65
 73
     0
 40
0.0
  0
LTYPE
  5
16
330
5
100
AcDbSymbolTableRecord
100
AcDbLinetypeTableRecord
  2
CONTINUOUS
 70
     0
  3
Solid line
 72
    65
 73
     0
 40
0.0
  0
LTYPE
  5
6B0
330
5
100
AcDbSymbolTableRecord
100
AcDbLinetypeTableRecord
  2
CENTER2
 70
     0
  3
Center (.5x) ___ _ ___ _ ___ _ ___ _ ___ _ ___
 72
    65
 73
     4
 40
28.57499999999999
 49
19.05
 74
     0
 49
-3.174999999999998
 74
     0
 49
3.174999999999998
 74
     0
 49
-3.174999999999998
 74
     0
  0
LTYPE
  5
6B1
330
5
100
AcDbSymbolTableRecord
100
AcDbLinetypeTableRecord
  2
HIDDEN
 70
     0
  3
Hidden __ __ __ __ __ __ __ __ __ __ __ __ __ _
 72
    65
 73
     2
 40
9.524999999999996
 49
6.349999999999997
 74
     0
 49
-3.174999999999998
 74
     0
  0
ENDTAB
  0
TABLE
  2
LAYER
  5
2
102
{ACAD_XDICTIONARY
360
2C179
102
}
330
0
100
AcDbSymbolTable
 70
    15
  0
LAYER
  5
10
330
2
100
AcDbSymbolTableRecord
100
AcDbLayerTableRecord
  2
0
 70
     0
 62
     7
  6
CONTINUOUS
  0
LAYER
  5
31
330
2
100
AcDbSymbolTableRecord
100
AcDbLayerTableRecord
  2
MYVIEW
 70
     0
 62
    -1
  6
CONTINUOUS
  0
LAYER
  5
12A
330
2
100
AcDbSymbolTableRecord
100
AcDbLayerTableRecord
  2
DIMENSION
 70
     0
 62
     7
  6
CONTINUOUS
  0
LAYER
  5
12B
330
2
100
AcDbSymbolTableRecord
100
AcDbLayerTableRecord
  2
文字
 70
     0
 62
     7
  6
CONTINUOUS
  0
LAYER
  5
540
330
2
100
AcDbSymbolTableRecord
100
AcDbLayerTableRecord
  2
WAKUMOJI1
 70
     0
 62
    -7
  6
CONTINUOUS
  0
LAYER
  5
6B2
330
2
100
AcDbSymbolTableRecord
100
AcDbLayerTableRecord
  2
DEFPOINTS
 70
     1
 62
    -7
  6
CONTINUOUS
  0
LAYER
  5
6B3
330
2
100
AcDbSymbolTableRecord
100
AcDbLayerTableRecord
  2
中心線
 70
     0
 62
     7
  6
CENTER2
  0
LAYER
  5
6B5
330
2
100
AcDbSymbolTableRecord
100
AcDbLayerTableRecord
  2
隠れ線
 70
     0
 62
     7
  6
HIDDEN
  0
LAYER
  5
20606
330
2
100
AcDbSymbolTableRecord
100
AcDbLayerTableRecord
  2
実線
 70
     0
 62
     7
  6
CONTINUOUS
  0
LAYER
  5
2746E
330
2
100
AcDbSymbolTableRecord
100
AcDbLayerTableRecord
  2
TEXT
 70
     0
 62
     7
  6
CONTINUOUS
  0
LAYER
  5
27471
330
2
100
AcDbSymbolTableRecord
100
AcDbLayerTableRecord
  2
寸法
 70
     0
 62
     7
  6
CONTINUOUS
  0
LAYER
  5
2C08D
330
2
100
AcDbSymbolTableRecord
100
AcDbLayerTableRecord
  2
文字１
 70
     0
 62
     7
  6
CONTINUOUS
  0
ENDTAB
  0
TABLE
  2
STYLE
  5
3
330
0
100
AcDbSymbolTable
 70
     6
  0
STYLE
  5
11
330
3
100
AcDbSymbolTableRecord
100
AcDbTextStyleTableRecord
  2
STANDARD
 70
     0
 40
0.0
 41
1.0
 50
0.0
 71
     0
 42
2.5
  3
isocp.shx
  4
bigfont.shx
  0
STYLE
  5
133
330
3
100
AcDbSymbolTableRecord
100
AcDbTextStyleTableRecord
  2
MSｺ_ｼｯｸ-0
 70
     0
 40
0.0
 41
1.0
 50
0.0
 71
     0
 42
4.0
  3
simplex.shx
  4
bigfont.shx
  0
STYLE
  5
4E1
330
3
100
AcDbSymbolTableRecord
100
AcDbTextStyleTableRecord
  2
MSｺ_ｼｯｸ-S
 70
     0
 40
0.0
 41
1.0
 50
0.0
 71
     0
 42
3.0
  3
isocp.shx
  4
bigfont.shx
  0
STYLE
  5
20521
330
3
100
AcDbSymbolTableRecord
100
AcDbTextStyleTableRecord
  2
まこ
 70
     0
 40
0.0
 41
1.0
 50
0.0
 71
     0
 42
2.5
  3
simplex.shx
  4
bigfont.shx
  0
ENDTAB
  0
TABLE
  2
VIEW
  5
6
330
0
100
AcDbSymbolTable
 70
     0
  0
ENDTAB
  0
TABLE
  2
UCS
  5
7
330
0
100
AcDbSymbolTable
 70
     0
  0
ENDTAB
  0
TABLE
  2
APPID
  5
9
330
0
100
AcDbSymbolTable
 70
     1
  0
APPID
  5
12
330
9
100
AcDbSymbolTableRecord
100
AcDbRegAppTableRecord
  2
ACAD
 70
     0
  0
ENDTAB
  0
TABLE
  2
DIMSTYLE
  5
A
330
0
100
AcDbSymbolTable
 70
     2
  0
DIMSTYLE
105
135
330
A
100
AcDbSymbolTableRecord
100
AcDbDimStyleTableRecord
  2
STANDARD
 70
     0
  3

  4

  5
OPEN
  6

  7

 40
1.0
 41
3.0
 42
1.0
 43
0.38
 44
0.18
 45
0.0
 46
0.0
 47
0.0
 48
0.0
140
3.0
141
0.0
142
0.0
143
25.4
144
1.0
145
0.0
146
1.0
147
0.8
 71
     0
 72
     0
 73
     0
 74
     0
 75
     0
 76
     0
 77
     3
 78
     8
170
     0
171
     2
172
     0
173
     0
174
     0
175
     0
176
   256
177
   256
178
    40
270
     2
271
     2
272
     2
273
     2
274
     2
340
133
275
     0
280
     0
281
     0
282
     0
283
     1
284
     0
285
     0
286
     0
287
     3
288
     0
  0
DIMSTYLE
105
20607
330
A
100
AcDbSymbolTableRecord
100
AcDbDimStyleTableRecord
  2
まこ
 70
     0
  3

  4

  5
OPEN30
  6

  7

 40
1.0
 41
2.5
 42
2.0
 43
0.38
 44
1.0
 45
0.0
 46
0.0
 47
0.0
 48
0.0
140
5.0
141
0.0
142
0.0
143
25.4
144
1.0
145
0.0
146
1.0
147
0.5
 71
     0
 72
     0
 73
     0
 74
     0
 75
     0
 76
     0
 77
     3
 78
     8
170
     0
171
     2
172
     0
173
     0
174
     0
175
     0
176
     4
177
     4
178
    40
270
     2
271
     3
272
     3
273
     2
274
     2
340
20521
275
     0
280
     0
281
     0
282
     0
283
     1
284
     0
285
     0
286
     0
287
     3
288
     0
  0
ENDTAB
  0
TABLE
  2
BLOCK_RECORD
  5
1
330
0
100
AcDbSymbolTable
 70
    22
  0
BLOCK_RECORD
  5
1F
102
{ACAD_XDICTIONARY
360
2DC47
102
}
330
1
100
AcDbSymbolTableRecord
100
AcDbBlockTableRecord
  2
*MODEL_SPACE
  0
BLOCK_RECORD
  5
1B
102
{ACAD_XDICTIONARY
360
2DC45
102
}
330
1
100
AcDbSymbolTableRecord
100
AcDbBlockTableRecord
  2
*PAPER_SPACE
  0
BLOCK_RECORD
  5
123
330
1
100
AcDbSymbolTableRecord
100
AcDbBlockTableRecord
  2
_OPEN
  0
BLOCK_RECORD
  5
495
330
1
100
AcDbSymbolTableRecord
100
AcDbBlockTableRecord
  2
_OPEN30
  0
ENDTAB
  0
ENDSEC
  0
SECTION
  2
BLOCKS
  0
BLOCK
  5
20
330
1F
100
AcDbEntity
  8
0
100
AcDbBlockBegin
  2
*MODEL_SPACE
 70
     0
 10
0.0
 20
0.0
 30
0.0
  3
*MODEL_SPACE
  1

  0
ENDBLK
  5
21
330
1F
100
AcDbEntity
  8
0
100
AcDbBlockEnd
  0
BLOCK
  5
1C
330
1B
100
AcDbEntity
 67
     1
  8
0
100
AcDbBlockBegin
  2
*PAPER_SPACE
 70
     0
 10
0.0
 20
0.0
 30
0.0
  3
*PAPER_SPACE
  1

  0
ENDBLK
  5
1D
330
1B
100
AcDbEntity
 67
     1
  8
0
100
AcDbBlockEnd
  0
BLOCK
  5
127
330
123
100
AcDbEntity
  8
0
100
AcDbBlockBegin
  2
_OPEN
 70
     0
 10
0.0
 20
0.0
 30
0.0
  3
_OPEN
  1

  0
LINE
  5
124
330
123
100
AcDbEntity
  8
0
  6
BYBLOCK
 62
     0
100
AcDbLine
 10
-1.0
 20
0.1666666666666666
 30
0.0
 11
0.0
 21
0.0
 31
0.0
  0
LINE
  5
125
330
123
100
AcDbEntity
  8
0
  6
BYBLOCK
 62
     0
100
AcDbLine
 10
0.0
 20
0.0
 30
0.0
 11
-1.0
 21
-0.1666666666666666
 31
0.0
  0
LINE
  5
126
330
123
100
AcDbEntity
  8
0
  6
BYBLOCK
 62
     0
100
AcDbLine
 10
0.0
 20
0.0
 30
0.0
 11
-1.0
 21
0.0
 31
0.0
  0
ENDBLK
  5
128
330
123
100
AcDbEntity
  8
0
100
AcDbBlockEnd
  0
BLOCK
  5
499
330
495
100
AcDbEntity
  8
0
100
AcDbBlockBegin
  2
_OPEN30
 70
     0
 10
0.0
 20
0.0
 30
0.0
  3
_OPEN30
  1

  0
LINE
  5
496
330
495
100
AcDbEntity
  8
DIMENSION
 62
     0
100
AcDbLine
 10
-1.0
 20
0.26794919
 30
0.0
 11
0.0
 21
0.0
 31
0.0
  0
LINE
  5
497
330
495
100
AcDbEntity
  8
DIMENSION
 62
     0
100
AcDbLine
 10
0.0
 20
0.0
 30
0.0
 11
-1.0
 21
-0.26794919
 31
0.0
  0
LINE
  5
498
330
495
100
AcDbEntity
  8
DIMENSION
 62
     0
100
AcDbLine
 10
0.0
 20
0.0
 30
0.0
 11
-1.0
 21
0.0
 31
0.0
  0
ENDBLK
  5
49A
330
495
100
AcDbEntity
  8
0
100
AcDbBlockEnd
  0
ENDSEC
  0
SECTION
  2
ENTITIES
  0
MTEXT
  5
1E1CF
330
1F
100
AcDbEntity
  8
0
100
AcDbMText
 10
909.4269509669732
 20
447.0555623760708
 30
0.0
 40
2.5
 41
0.625
 71
     1
 72
     1
  1

1001
ACAD
1000
MTEXTBEGIN
1070
    73
1070
     1
1070
    44
1040
1.0
1070
    74
1070
     0
1000
MTEXTEND
  0
MTEXT
  5
2753B
330
1F
100
AcDbEntity
  8
TEXT
 62
     7
100
AcDbMText
 10
-396.1773850256199
 20
1556.408851306678
 30
0.0
 40
3.0
 41
1.0
 71
     9
 72
     1
  1

  7
まこ
1001
ACAD
1000
MTEXTBEGIN
1070
    73
1070
     1
1070
    44
1040
1.0
1070
    74
1070
     0
1000
MTEXTEND
  0
MTEXT
  5
27578
330
1F
100
AcDbEntity
  8
DIMENSION
 62
     7
100
AcDbMText
 10
-313.5767856379211
 20
1517.204398976271
 30
0.0
 40
3.0
 41
1.0
 71
     7
 72
     1
  1

  7
まこ
1001
ACAD
1000
MTEXTBEGIN
1070
    73
1070
     1
1070
    44
1040
1.0
1070
    74
1070
     0
1000
MTEXTEND
  0
LINE
  5
2C6AF
102
{ACAD_REACTORS
330
2CFAB
330
2CFB2
102
}
330
1F
100
AcDbEntity
  8
実線
 48
10.0
100
AcDbLine
 10
733.8190537184721
 20
1830.362974779233
 30
0.0
 11
581.5110516041714
 21
1830.362974779233
 31
0.0
  0
LINE
  5
2C6B0
102
{ACAD_REACTORS
330
2CFAB
330
2CFB2
102
}
330
1F
100
AcDbEntity
  8
実線
 48
10.0
100
AcDbLine
 10
581.5110516041714
 20
1796.362974624133
 30
0.0
 11
733.8190537184716
 21
1796.362974624133
 31
0.0
  0
LINE
  5
2C6B1
102
{ACAD_REACTORS
330
2CFAB
330
2CFB2
102
}
330
1F
100
AcDbEntity
  8
実線
 48
10.0
100
AcDbLine
 10
581.5110516041714
 20
1802.362977640133
 30
0.0
 11
733.8190537184721
 21
1802.362977640133
 31
0.0
  0
LINE
  5
2C6B2
102
{ACAD_REACTORS
330
2CFAB
330
2CFB2
102
}
330
1F
100
AcDbEntity
  8
実線
 48
10.0
100
AcDbLine
 10
733.8190537184716
 20
1836.362977795231
 30
0.0
 11
581.5110516041711
 21
1836.362977795231
 31
0.0
  0
LINE
  5
2C6C5
102
{ACAD_REACTORS
330
2CFB2
102
}
330
1F
100
AcDbEntity
  8
中心線
 48
0.5
100
AcDbLine
 10
657.6650526617722
 20
1842.30225785316
 30
0.0
 11
657.6650526617722
 21
1791.083615201362
 31
0.0
  0
LINE
  5
2C6EE
102
{ACAD_REACTORS
330
2DB5C
330
2DBA7
102
}
330
1F
100
AcDbEntity
  8
中心線
 48
0.5
100
AcDbLine
 10
633.5385803774787
 20
2137.788175854346
 30
0.0
 11
629.7024089677016
 21
2118.502439827432
 31
0.0
  0
LINE
  5
2C6F4
102
{ACAD_REACTORS
330
2DB5C
330
2DBA7
102
}
330
1F
100
AcDbEntity
  8
中心線
 48
0.5
100
AcDbLine
 10
681.7915249454811
 20
2137.788175854468
 30
0.0
 11
685.6276963551724
 21
2118.502439827535
 31
0.0
  0
ARC
  5
2C6F8
102
{ACAD_REACTORS
330
2DBA7
102
}
330
1F
100
AcDbEntity
  8
中心線
 48
0.5
100
AcDbCircle
 10
657.6650526540636
 20
2259.080142790027
 30
0.0
 40
199.0000000171384
100
AcDbArc
 50
291.9183069670166
 51
297.8914751790623
  0
MTEXT
  5
2C8C3
102
{ACAD_REACTORS
330
2C8C2
102
}
330
1F
100
AcDbEntity
  8
文字
 62
    40
 48
0.1
100
AcDbMText
 10
567.704413581255
 20
2154.822399525549
 30
0.0
 40
5.0
 41
160.9157999999998
 71
     9
 72
     1
  1

  7
まこ
1001
ACAD
1000
MTEXTBEGIN
1070
    73
1070
     1
1070
    44
1040
1.0
1070
    74
1070
     0
1000
MTEXTEND
  0
LINE
  5
2C90D
102
{ACAD_REACTORS
330
2C947
102
}
330
1F
100
AcDbEntity
  8
実線
 48
5.0
100
AcDbLine
 10
814.4957589182006
 20
2133.580142774709
 30
0.0
 11
814.4957589182006
 21
2106.580142774708
 31
0.0
  0
LINE
  5
2C90E
102
{ACAD_REACTORS
330
2C947
102
}
330
1F
100
AcDbEntity
  8
実線
 48
5.0
100
AcDbLine
 10
842.4957589182051
 20
2060.080142774716
 30
0.0
 11
842.4957589182048
 21
2134.080142774716
 31
0.0
  0
LWPOLYLINE
  5
2C90F
102
{ACAD_REACTORS
330
2C947
102
}
330
1F
100
AcDbEntity
  8
実線
 48
5.0
100
AcDbPolyline
 90
        4
 70
     1
 43
0.0
 10
842.4957589182053
 20
2100.726375379711
 10
832.4957589182053
 20
2100.726375379711
 10
832.495758918205
 20
2060.726375379711
 10
842.4957589182051
 20
2060.726375379711
  0
LINE
  5
2C912
102
{ACAD_REACTORS
330
2C947
102
}
330
1F
100
AcDbEntity
  8
実線
 48
5.0
100
AcDbLine
 10
848.4957589182053
 20
2060.080142774716
 30
0.0
 11
848.4957589182048
 21
2134.080142774716
 31
0.0
  0
LINE
  5
2C913
102
{ACAD_REACTORS
330
2C947
102
}
330
1F
100
AcDbEntity
  8
実線
 48
5.0
100
AcDbLine
 10
848.4957589182048
 20
2134.080142774716
 30
0.0
 11
842.4957589182048
 21
2134.080142774716
 31
0.0
  0
LINE
  5
2C914
102
{ACAD_REACTORS
330
2C947
102
}
330
1F
100
AcDbEntity
  8
実線
 48
5.0
100
AcDbLine
 10
848.4957589182041
 20
2060.080142774716
 30
0.0
 11
842.4957589182051
 21
2060.080142774716
 31
0.0
  0
LINE
  5
2C915
102
{ACAD_REACTORS
330
2C947
102
}
330
1F
100
AcDbEntity
  8
実線
 48
5.0
100
AcDbLine
 10
842.4957589182044
 20
2133.580142774709
 30
0.0
 11
814.4957589182006
 21
2133.580142774709
 31
0.0
  0
LINE
  5
2C918
102
{ACAD_REACTORS
330
2C947
102
}
330
1F
100
AcDbEntity
  8
実線
 48
5.0
100
AcDbLine
 10
842.4957589181934
 20
2106.580142774701
 30
0.0
 11
832.4957589182044
 21
2106.580142774701
 31
0.0
  0
LINE
  5
2C919
102
{ACAD_REACTORS
330
2C947
102
}
330
1F
100
AcDbEntity
  8
実線
 48
5.0
100
AcDbLine
 10
842.4957589182044
 20
2133.580142774709
 30
0.0
 11
842.4957589181934
 21
2106.580142774701
 31
0.0
  0
LINE
  5
2C91B
102
{ACAD_REACTORS
330
2C947
102
}
330
1F
100
AcDbEntity
  8
実線
 48
5.0
100
AcDbLine
 10
832.4957589182044
 20
2119.5801427747
 30
0.0
 11
832.4957589182044
 21
2106.580142774701
 31
0.0
  0
LINE
  5
2C91C
102
{ACAD_REACTORS
330
2C947
102
}
330
1F
100
AcDbEntity
  8
実線
 48
5.0
100
AcDbLine
 10
824.4957589182005
 20
2119.5801427747
 30
0.0
 11
824.4957589182044
 21
2106.580142774701
 31
0.0
  0
LINE
  5
2C91D
102
{ACAD_REACTORS
330
2C947
102
}
330
1F
100
AcDbEntity
  8
実線
 48
5.0
100
AcDbLine
 10
832.4957589182044
 20
2119.5801427747
 30
0.0
 11
824.4957589182005
 21
2119.5801427747
 31
0.0
  0
LINE
  5
2C91E
102
{ACAD_REACTORS
330
2C947
102
}
330
1F
100
AcDbEntity
  8
実線
 48
5.0
100
AcDbLine
 10
824.4957589182044
 20
2106.580142774701
 30
0.0
 11
814.4957589182041
 21
2106.580142774701
 31
0.0
  0
LINE
  5
2C91F
102
{ACAD_REACTORS
330
2C947
102
}
330
1F
100
AcDbEntity
  8
中心線
 48
0.5
100
AcDbLine
 10
853.4957589182049
 20
2125.580142774708
 30
0.0
 11
803.4957589182036
 21
2125.580142774708
 31
0.0
  0
LINE
  5
2C920
102
{ACAD_REACTORS
330
2C947
102
}
330
1F
100
AcDbEntity
  8
実線
 48
5.0
100
AcDbLine
 10
808.4957589182041
 20
2060.080142774716
 30
0.0
 11
814.4957589182034
 21
2060.080142774716
 31
0.0
  0
LINE
  5
2C921
102
{ACAD_REACTORS
330
2C947
102
}
330
1F
100
AcDbEntity
  8
実線
 48
5.0
100
AcDbLine
 10
808.4957589182039
 20
2134.080142774716
 30
0.0
 11
814.4957589182039
 21
2134.080142774716
 31
0.0
  0
LINE
  5
2C922
102
{ACAD_REACTORS
330
2C947
102
}
330
1F
100
AcDbEntity
  8
実線
 48
5.0
100
AcDbLine
 10
814.4957589182034
 20
2060.080142774716
 30
0.0
 11
814.4957589182039
 21
2134.080142774716
 31
0.0
  0
LINE
  5
2C925
102
{ACAD_REACTORS
330
2C947
102
}
330
1F
100
AcDbEntity
  8
実線
 48
5.0
100
AcDbLine
 10
808.4957589182037
 20
2060.080142774716
 30
0.0
 11
808.4957589182039
 21
2134.080142774716
 31
0.0
  0
LINE
  5
2C926
102
{ACAD_REACTORS
330
2C947
102
}
330
1F
100
AcDbEntity
  8
中心線
 48
0.5
100
AcDbLine
 10
828.4957589182042
 20
2136.503716514992
 30
0.0
 11
828.4957589182042
 21
2055.590404247336
 31
0.0
  0
LWPOLYLINE
  5
2C927
102
{ACAD_REACTORS
330
2C947
102
}
330
1F
100
AcDbEntity
  8
実線
 48
5.0
100
AcDbPolyline
 90
        4
 70
     1
 43
0.0
 10
814.4957589182066
 20
2100.726375379703
 10
824.4957589182066
 20
2100.726375379711
 10
824.4957589182289
 20
2060.726375379711
 10
814.4957589182292
 20
2060.726375379704
  0
LINE
  5
2CA0F
102
{ACAD_REACTORS
330
2CFAB
330
2CFB2
102
}
330
1F
100
AcDbEntity
  8
実線
 48
0.1
100
AcDbLine
 10
581.5110516041714
 20
1796.362974624133
 30
0.0
 11
581.5110516041714
 21
1802.362977640133
 31
0.0
  0
LINE
  5
2CA10
102
{ACAD_REACTORS
330
2CFAB
330
2CFB2
102
}
330
1F
100
AcDbEntity
  8
実線
 48
0.1
100
AcDbLine
 10
733.8190537184716
 20
1836.362977795231
 30
0.0
 11
733.8190537184716
 21
1830.362974779233
 31
0.0
  0
LINE
  5
2CA11
102
{ACAD_REACTORS
330
2CFB1
330
2CFB2
102
}
330
1F
100
AcDbEntity
  8
実線
 48
0.1
100
AcDbLine
 10
583.3611437220159
 20
1820.362976865231
 30
0.0
 11
655.9302067780159
 21
1820.362976865231
 31
0.0
  0
LINE
  5
2CA12
102
{ACAD_REACTORS
330
2CFB1
330
2CFB2
102
}
330
1F
100
AcDbEntity
  8
実線
 48
0.1
100
AcDbLine
 10
731.9689655676158
 20
1812.362975554132
 30
0.0
 11
659.3999025116159
 21
1812.362975554132
 31
0.0
  0
LINE
  5
2CA13
102
{ACAD_REACTORS
330
2CFB1
330
2CFB2
102
}
330
1F
100
AcDbEntity
  8
実線
 48
0.1
100
AcDbLine
 10
583.3611437220157
 20
1802.362977640132
 30
0.0
 11
583.3611437220157
 21
1812.362975554132
 31
0.0
  0
LINE
  5
2CA14
102
{ACAD_REACTORS
330
2CFB1
330
2CFB2
102
}
330
1F
100
AcDbEntity
  8
実線
 48
0.1
100
AcDbLine
 10
731.9689655676158
 20
1802.362977640133
 30
0.0
 11
731.9689655676158
 21
1812.362975554131
 31
0.0
  0
LINE
  5
2CA15
102
{ACAD_REACTORS
330
2CFB1
330
2CFB2
102
}
330
1F
100
AcDbEntity
  8
実線
 48
0.1
100
AcDbLine
 10
716.9042605247157
 20
1802.362977640133
 30
0.0
 11
716.9042605247157
 21
1812.362975554132
 31
0.0
  0
LINE
  5
2CA16
102
{ACAD_REACTORS
330
2CFB1
330
2CFB2
102
}
330
1F
100
AcDbEntity
  8
実線
 48
0.1
100
AcDbLine
 10
713.5839687245156
 20
1830.362974779233
 30
0.0
 11
713.5839687245156
 21
1820.362976865231
 31
0.0
  0
LINE
  5
2CA17
102
{ACAD_REACTORS
330
2CFB1
330
2CFB2
102
}
330
1F
100
AcDbEntity
  8
実線
 48
0.1
100
AcDbLine
 10
698.0634686734155
 20
1830.362974779233
 30
0.0
 11
698.0634686734155
 21
1820.362976865231
 31
0.0
  0
LINE
  5
2CA18
102
{ACAD_REACTORS
330
2CFB1
330
2CFB2
102
}
330
1F
100
AcDbEntity
  8
実線
 48
0.1
100
AcDbLine
 10
694.6604421705155
 20
1830.362974779233
 30
0.0
 11
694.6604421705155
 21
1820.362976865231
 31
0.0
  0
LINE
  5
2CA19
102
{ACAD_REACTORS
330
2CFB1
330
2CFB2
102
}
330
1F
100
AcDbEntity
  8
実線
 48
0.1
100
AcDbLine
 10
678.8336180111159
 20
1830.362974779233
 30
0.0
 11
678.8336180111157
 21
1820.362976865231
 31
0.0
  0
LINE
  5
2CA1A
102
{ACAD_REACTORS
330
2CFB1
330
2CFB2
102
}
330
1F
100
AcDbEntity
  8
実線
 48
0.1
100
AcDbLine
 10
675.3806298108157
 20
1830.362974779233
 30
0.0
 11
675.3806298108157
 21
1820.362976865231
 31
0.0
  0
LINE
  5
2CA1B
102
{ACAD_REACTORS
330
2CFB1
330
2CFB2
102
}
330
1F
100
AcDbEntity
  8
実線
 48
0.1
100
AcDbLine
 10
659.3999025116158
 20
1830.362974779233
 30
0.0
 11
659.3999025116158
 21
1820.362976865231
 31
0.0
  0
LINE
  5
2CA1C
102
{ACAD_REACTORS
330
2CFB1
330
2CFB2
102
}
330
1F
100
AcDbEntity
  8
実線
 48
0.1
100
AcDbLine
 10
655.9302067780159
 20
1830.362974779233
 30
0.0
 11
655.9302067780159
 21
1820.362976865231
 31
0.0
  0
LINE
  5
2CA1D
102
{ACAD_REACTORS
330
2CFB1
330
2CFB2
102
}
330
1F
100
AcDbEntity
  8
実線
 48
0.1
100
AcDbLine
 10
639.9494794787157
 20
1830.362974779233
 30
0.0
 11
639.9494794787157
 21
1820.362976865231
 31
0.0
  0
LINE
  5
2CA1E
102
{ACAD_REACTORS
330
2CFB1
330
2CFB2
102
}
330
1F
100
AcDbEntity
  8
実線
 48
0.1
100
AcDbLine
 10
636.4964912785158
 20
1830.362974779233
 30
0.0
 11
636.4964912785158
 21
1820.362976865231
 31
0.0
  0
LINE
  5
2CA1F
102
{ACAD_REACTORS
330
2CFB1
330
2CFB2
102
}
330
1F
100
AcDbEntity
  8
実線
 48
0.1
100
AcDbLine
 10
620.6696671191157
 20
1830.362974779233
 30
0.0
 11
620.6696671191157
 21
1820.362976865231
 31
0.0
  0
LINE
  5
2CA20
102
{ACAD_REACTORS
330
2CFB1
330
2CFB2
102
}
330
1F
100
AcDbEntity
  8
実線
 48
0.1
100
AcDbLine
 10
617.2666406162157
 20
1830.362974779233
 30
0.0
 11
617.2666406162157
 21
1820.362976865231
 31
0.0
  0
LINE
  5
2CA21
102
{ACAD_REACTORS
330
2CFB1
330
2CFB2
102
}
330
1F
100
AcDbEntity
  8
実線
 48
0.1
100
AcDbLine
 10
601.7461405650156
 20
1830.362974779233
 30
0.0
 11
601.7461405650156
 21
1820.362976865231
 31
0.0
  0
LINE
  5
2CA22
102
{ACAD_REACTORS
330
2CFB1
330
2CFB2
102
}
330
1F
100
AcDbEntity
  8
実線
 48
0.1
100
AcDbLine
 10
598.4258487649158
 20
1830.362974779233
 30
0.0
 11
598.4258487649158
 21
1820.362976865231
 31
0.0
  0
LINE
  5
2CA23
102
{ACAD_REACTORS
330
2CFB1
330
2CFB2
102
}
330
1F
100
AcDbEntity
  8
実線
 48
0.1
100
AcDbLine
 10
731.9689655676158
 20
1820.362976865231
 30
0.0
 11
731.9689655676158
 21
1830.362974779233
 31
0.0
  0
LINE
  5
2CA24
102
{ACAD_REACTORS
330
2CFB1
330
2CFB2
102
}
330
1F
100
AcDbEntity
  8
実線
 48
0.1
100
AcDbLine
 10
583.3611437220157
 20
1820.362976865231
 30
0.0
 11
583.3611437220157
 21
1830.362974779233
 31
0.0
  0
LINE
  5
2CA25
102
{ACAD_REACTORS
330
2CFB1
330
2CFB2
102
}
330
1F
100
AcDbEntity
  8
実線
 48
0.1
100
AcDbLine
 10
601.7461405650156
 20
1812.362975554132
 30
0.0
 11
601.7461405650156
 21
1802.362977640133
 31
0.0
  0
LINE
  5
2CA26
102
{ACAD_REACTORS
330
2CFB1
330
2CFB2
102
}
330
1F
100
AcDbEntity
  8
実線
 48
0.1
100
AcDbLine
 10
598.4258487649158
 20
1812.362975554132
 30
0.0
 11
598.4258487649158
 21
1802.362977640133
 31
0.0
  0
LINE
  5
2CA27
102
{ACAD_REACTORS
330
2CFB1
330
2CFB2
102
}
330
1F
100
AcDbEntity
  8
実線
 48
0.1
100
AcDbLine
 10
617.2666406162157
 20
1812.362975554132
 30
0.0
 11
617.2666406162157
 21
1802.362977640133
 31
0.0
  0
LINE
  5
2CA28
102
{ACAD_REACTORS
330
2CFB1
330
2CFB2
102
}
330
1F
100
AcDbEntity
  8
実線
 48
0.1
100
AcDbLine
 10
620.6696671191157
 20
1812.362975554132
 30
0.0
 11
620.6696671191157
 21
1802.362977640133
 31
0.0
  0
LINE
  5
2CA29
102
{ACAD_REACTORS
330
2CFB1
330
2CFB2
102
}
330
1F
100
AcDbEntity
  8
実線
 48
0.1
100
AcDbLine
 10
636.4964912785158
 20
1812.362975554132
 30
0.0
 11
636.4964912785158
 21
1802.362977640133
 31
0.0
  0
LINE
  5
2CA2A
102
{ACAD_REACTORS
330
2CFB1
330
2CFB2
102
}
330
1F
100
AcDbEntity
  8
実線
 48
0.1
100
AcDbLine
 10
639.9494794787157
 20
1812.362975554132
 30
0.0
 11
639.9494794787157
 21
1802.362977640133
 31
0.0
  0
LINE
  5
2CA2B
102
{ACAD_REACTORS
330
2CFB1
330
2CFB2
102
}
330
1F
100
AcDbEntity
  8
実線
 48
0.1
100
AcDbLine
 10
655.9302067780159
 20
1812.362975554132
 30
0.0
 11
655.9302067780159
 21
1802.362977640133
 31
0.0
  0
LINE
  5
2CA2C
102
{ACAD_REACTORS
330
2CFB1
330
2CFB2
102
}
330
1F
100
AcDbEntity
  8
実線
 48
0.1
100
AcDbLine
 10
659.3999025116158
 20
1812.362975554132
 30
0.0
 11
659.3999025116158
 21
1802.362977640133
 31
0.0
  0
LINE
  5
2CA2D
102
{ACAD_REACTORS
330
2CFB1
330
2CFB2
102
}
330
1F
100
AcDbEntity
  8
実線
 48
0.1
100
AcDbLine
 10
675.3806298108157
 20
1812.362975554132
 30
0.0
 11
675.3806298108157
 21
1802.362977640133
 31
0.0
  0
LINE
  5
2CA2E
102
{ACAD_REACTORS
330
2CFB1
330
2CFB2
102
}
330
1F
100
AcDbEntity
  8
実線
 48
0.1
100
AcDbLine
 10
678.8336180111157
 20
1812.362975554132
 30
0.0
 11
678.8336180111159
 21
1802.362977640133
 31
0.0
  0
LINE
  5
2CA2F
102
{ACAD_REACTORS
330
2CFB1
330
2CFB2
102
}
330
1F
100
AcDbEntity
  8
実線
 48
0.1
100
AcDbLine
 10
694.6604421705155
 20
1812.362975554132
 30
0.0
 11
694.6604421705155
 21
1802.362977640133
 31
0.0
  0
LINE
  5
2CA30
102
{ACAD_REACTORS
330
2CFB1
330
2CFB2
102
}
330
1F
100
AcDbEntity
  8
実線
 48
0.1
100
AcDbLine
 10
698.0634686734155
 20
1812.362975554132
 30
0.0
 11
698.0634686734155
 21
1802.362977640133
 31
0.0
  0
LINE
  5
2CA31
102
{ACAD_REACTORS
330
2CFB1
330
2CFB2
102
}
330
1F
100
AcDbEntity
  8
実線
 48
0.1
100
AcDbLine
 10
713.5839687245156
 20
1812.362975554132
 30
0.0
 11
713.5839687245156
 21
1802.362977640133
 31
0.0
  0
LINE
  5
2CA32
102
{ACAD_REACTORS
330
2CFB1
330
2CFB2
102
}
330
1F
100
AcDbEntity
  8
実線
 48
0.1
100
AcDbLine
 10
716.9042605247157
 20
1820.362976865231
 30
0.0
 11
716.9042605247157
 21
1830.362974779233
 31
0.0
  0
LINE
  5
2CB8E
102
{ACAD_REACTORS
330
2CFAC
330
2CFB2
102
}
330
1F
100
AcDbEntity
  8
実線
 48
0.1
100
AcDbLine
 10
604.3749338074716
 20
1812.362975554132
 30
0.0
 11
604.3749338074716
 21
1820.362976865231
 31
0.0
  0
LINE
  5
2CB8F
102
{ACAD_REACTORS
330
2CFAC
330
2CFB2
102
}
330
1F
100
AcDbEntity
  8
実線
 48
0.1
100
AcDbLine
 10
710.9551754816717
 20
1812.362975554132
 30
0.0
 11
710.9551754816716
 21
1820.362976865231
 31
0.0
  0
LINE
  5
2CB90
102
{ACAD_REACTORS
330
2CFAC
330
2CFB2
102
}
330
1F
100
AcDbEntity
  8
実線
 48
0.1
100
AcDbLine
 10
663.8774820223716
 20
1812.362975554132
 30
0.0
 11
663.8774820223716
 21
1820.362976865231
 31
0.0
  0
LINE
  5
2CB91
102
{ACAD_REACTORS
330
2CFAC
330
2CFB2
102
}
330
1F
100
AcDbEntity
  8
実線
 48
0.1
100
AcDbLine
 10
651.4526272667717
 20
1812.362975554132
 30
0.0
 11
651.4526272667716
 21
1820.362976865231
 31
0.0
  0
LINE
  5
2CB92
102
{ACAD_REACTORS
330
2CFAC
330
2CFB2
102
}
330
1F
100
AcDbEntity
  8
実線
 48
0.1
100
AcDbLine
 10
656.7200659612715
 20
1802.362977640133
 30
0.0
 11
656.7200659612715
 21
1830.362974779233
 31
0.0
  0
LINE
  5
2CB93
102
{ACAD_REACTORS
330
2CFAC
330
2CFB2
102
}
330
1F
100
AcDbEntity
  8
実線
 48
0.1
100
AcDbLine
 10
658.6100433279717
 20
1802.362977640133
 30
0.0
 11
658.6100433279717
 21
1830.362974779233
 31
0.0
  0
LINE
  5
2CB94
102
{ACAD_REACTORS
330
2CFB1
330
2CFB2
102
}
330
1F
100
AcDbEntity
  8
実線
 48
0.1
100
AcDbLine
 10
659.3999025116158
 20
1820.362976865231
 30
0.0
 11
731.9689655676158
 21
1820.362976865231
 31
0.0
  0
LINE
  5
2CB95
102
{ACAD_REACTORS
330
2CFB1
330
2CFB2
102
}
330
1F
100
AcDbEntity
  8
実線
 48
0.1
100
AcDbLine
 10
655.9302067780158
 20
1812.362975554132
 30
0.0
 11
583.3611437220159
 21
1812.362975554132
 31
0.0
  0
LINE
  5
2CB96
102
{ACAD_REACTORS
330
2CFAB
330
2CFB2
102
}
330
1F
100
AcDbEntity
  8
実線
 48
0.1
100
AcDbLine
 10
581.5110516041714
 20
1830.362974779233
 30
0.0
 11
581.5110516041714
 21
1836.362977795231
 31
0.0
  0
LINE
  5
2CB97
102
{ACAD_REACTORS
330
2CFAB
330
2CFB2
102
}
330
1F
100
AcDbEntity
  8
実線
 48
0.1
100
AcDbLine
 10
733.8190537184716
 20
1802.362977640133
 30
0.0
 11
733.8190537184716
 21
1796.362974624133
 31
0.0
  0
ARC
  5
2CD2F
102
{ACAD_REACTORS
330
2DB5C
330
2DBA7
102
}
330
1F
100
AcDbEntity
  8
実線
  6
CONTINUOUS
100
AcDbCircle
 10
657.6650526620016
 20
2259.080142774747
 30
0.0
 40
199.0000000000004
100
AcDbArc
 50
248.0816930334443
 51
291.9183069665385
  0
LINE
  5
2CD30
102
{ACAD_REACTORS
330
2DB5C
330
2DBA7
102
}
330
1F
100
AcDbEntity
  8
実線
  6
CONTINUOUS
100
AcDbLine
 10
706.2598216879035
 20
2141.761992331948
 30
0.0
 11
733.0498036267591
 21
2077.085254599333
 31
0.0
  0
ARC
  5
2CD52
102
{ACAD_REACTORS
330
2DB5C
330
2DBA7
102
}
330
1F
100
AcDbEntity
  8
実線
  6
CONTINUOUS
100
AcDbCircle
 10
657.6650526620016
 20
2259.080142774743
 30
0.0
 40
124.9999999999972
100
AcDbArc
 50
248.4023330394935
 51
291.5976669604953
  0
LINE
  5
2CD56
102
{ACAD_REACTORS
330
2DB5C
330
2DBA7
102
}
330
1F
100
AcDbEntity
  8
実線
  6
CONTINUOUS
100
AcDbLine
 10
582.2803016971896
 20
2077.085254599356
 30
0.0
 11
609.0702836360776
 21
2141.761992331958
 31
0.0
  0
CIRCLE
  5
2CD6C
102
{ACAD_REACTORS
330
2DB5C
330
2DBA7
102
}
330
1F
100
AcDbEntity
  8
実線
  6
CONTINUOUS
100
AcDbCircle
 10
631.6204946728015
 20
2128.145307840845
 30
0.0
 40
5.5
  0
CIRCLE
  5
2CD75
102
{ACAD_REACTORS
330
2DB5C
330
2DBA7
102
}
330
1F
100
AcDbEntity
  8
実線
  6
CONTINUOUS
100
AcDbCircle
 10
631.6204946726012
 20
2128.145307840946
 30
0.0
 40
3.499999999999968
  0
CIRCLE
  5
2CD7C
102
{ACAD_REACTORS
330
2DB5C
330
2DBA7
102
}
330
1F
100
AcDbEntity
  8
実線
  6
CONTINUOUS
100
AcDbCircle
 10
683.7096106512017
 20
2128.145307840845
 30
0.0
 40
5.500000000000028
  0
CIRCLE
  5
2CD7D
102
{ACAD_REACTORS
330
2DB5C
330
2DBA7
102
}
330
1F
100
AcDbEntity
  8
実線
  6
CONTINUOUS
100
AcDbCircle
 10
683.7096106509013
 20
2128.145307840946
 30
0.0
 40
3.499999999999981
  0
LINE
  5
2CD80
102
{ACAD_REACTORS
330
2CF97
330
2DB5C
330
2DBA7
102
}
330
1F
100
AcDbEntity
  8
実線
100
AcDbLine
 10
696.7709722383017
 20
2130.546189851546
 30
0.0
 11
698.0512538584016
 21
2129.379622676747
 31
0.0
  0
LINE
  5
2CD81
102
{ACAD_REACTORS
330
2CF97
330
2DB5C
330
2DBA7
102
}
330
1F
100
AcDbEntity
  8
実線
100
AcDbLine
 10
698.0512538584016
 20
2129.379622676747
 30
0.0
 11
699.7016714770015
 21
2129.905095496446
 31
0.0
  0
LINE
  5
2CD82
102
{ACAD_REACTORS
330
2CF97
330
2DB5C
330
2DBA7
102
}
330
1F
100
AcDbEntity
  8
実線
100
AcDbLine
 10
697.1411082368017
 20
2132.238229845947
 30
0.0
 11
696.7709722383017
 21
2130.546189851546
 31
0.0
  0
LINE
  5
2CD83
102
{ACAD_REACTORS
330
2CF97
330
2DB5C
330
2DBA7
102
}
330
1F
100
AcDbEntity
  8
実線
100
AcDbLine
 10
698.7915258554018
 20
2132.763702665547
 30
0.0
 11
697.1411082368017
 21
2132.238229845947
 31
0.0
  0
LINE
  5
2CD84
102
{ACAD_REACTORS
330
2CF97
330
2DB5C
330
2DBA7
102
}
330
1F
100
AcDbEntity
  8
実線
100
AcDbLine
 10
700.0718074755016
 20
2131.597135490847
 30
0.0
 11
698.7915258554018
 21
2132.763702665547
 31
0.0
  0
LINE
  5
2CD85
102
{ACAD_REACTORS
330
2CF97
330
2DB5C
330
2DBA7
102
}
330
1F
100
AcDbEntity
  8
実線
100
AcDbLine
 10
699.7016714770015
 20
2129.905095496446
 30
0.0
 11
700.0718074755016
 21
2131.597135490847
 31
0.0
  0
CIRCLE
  5
2CD86
102
{ACAD_REACTORS
330
2CF97
330
2DB5C
330
2DBA7
102
}
330
1F
100
AcDbEntity
  8
実線
100
AcDbCircle
 10
698.4213898569016
 20
2131.071662671146
 30
0.0
 40
4.666992115345561
  0
ARC
  5
2CE87
102
{ACAD_REACTORS
330
2DB5C
330
2DBA7
102
}
330
1F
100
AcDbEntity
  8
実線
  6
CONTINUOUS
100
AcDbCircle
 10
584.1280607622125
 20
2076.319887734626
 30
0.0
 40
2.0
100
AcDbArc
 50
157.4999999999953
 51
248.081693033447
  0
ARC
  5
2CE88
102
{ACAD_REACTORS
330
2DB5C
330
2DBA7
102
}
330
1F
100
AcDbEntity
  8
実線
  6
CONTINUOUS
100
AcDbCircle
 10
731.2020445617364
 20
2076.319887734603
 30
0.0
 40
2.0
100
AcDbArc
 50
291.9183069665375
 51
22.49999999996841
  0
ARC
  5
2CE89
102
{ACAD_REACTORS
330
2DB5C
330
2DBA7
102
}
330
1F
100
AcDbEntity
  8
実線
  6
CONTINUOUS
100
AcDbCircle
 10
704.4120626228805
 20
2140.996625467219
 30
0.0
 40
2.0
100
AcDbArc
 50
22.49999999996467
 51
111.5976669604951
  0
ARC
  5
2CE8A
102
{ACAD_REACTORS
330
2DB5C
330
2DBA7
102
}
330
1F
100
AcDbEntity
  8
実線
  6
CONTINUOUS
100
AcDbCircle
 10
610.9180427011002
 20
2140.996625467228
 30
0.0
 40
2.0
100
AcDbArc
 50
68.40233303949574
 51
157.5000000000086
  0
CIRCLE
  5
2CF67
102
{ACAD_REACTORS
330
2CF97
330
2DB5C
330
2DBA7
102
}
330
1F
100
AcDbEntity
  8
実線
100
AcDbCircle
 10
616.9087154666426
 20
2131.071662671146
 30
0.0
 40
4.666992115345561
  0
LINE
  5
2CF68
102
{ACAD_REACTORS
330
2CF97
330
2DB5C
330
2DBA7
102
}
330
1F
100
AcDbEntity
  8
実線
100
AcDbLine
 10
618.1889970867422
 20
2132.238229845947
 30
0.0
 11
618.5591330852425
 21
2130.546189851546
 31
0.0
  0
LINE
  5
2CF69
102
{ACAD_REACTORS
330
2CF97
330
2DB5C
330
2DBA7
102
}
330
1F
100
AcDbEntity
  8
実線
100
AcDbLine
 10
618.5591330852425
 20
2130.546189851546
 30
0.0
 11
617.2788514651426
 21
2129.379622676747
 31
0.0
  0
LINE
  5
2CF6A
102
{ACAD_REACTORS
330
2CF97
330
2DB5C
330
2DBA7
102
}
330
1F
100
AcDbEntity
  8
実線
100
AcDbLine
 10
615.6284338465427
 20
2129.905095496446
 30
0.0
 11
615.2582978480427
 21
2131.597135490847
 31
0.0
  0
LINE
  5
2CF6B
102
{ACAD_REACTORS
330
2CF97
330
2DB5C
330
2DBA7
102
}
330
1F
100
AcDbEntity
  8
実線
100
AcDbLine
 10
617.2788514651426
 20
2129.379622676747
 30
0.0
 11
615.6284338465427
 21
2129.905095496446
 31
0.0
  0
LINE
  5
2CF6C
102
{ACAD_REACTORS
330
2CF97
330
2DB5C
330
2DBA7
102
}
330
1F
100
AcDbEntity
  8
実線
100
AcDbLine
 10
616.5385794681427
 20
2132.763702665547
 30
0.0
 11
618.1889970867422
 21
2132.238229845947
 31
0.0
  0
LINE
  5
2CF6D
102
{ACAD_REACTORS
330
2CF97
330
2DB5C
330
2DBA7
102
}
330
1F
100
AcDbEntity
  8
実線
100
AcDbLine
 10
615.2582978480427
 20
2131.597135490847
 30
0.0
 11
616.5385794681427
 21
2132.763702665547
 31
0.0
  0
CIRCLE
  5
2CF71
102
{ACAD_REACTORS
330
2CF97
330
2DB5C
330
2DBA7
102
}
330
1F
100
AcDbEntity
  8
実線
100
AcDbCircle
 10
668.9978314438044
 20
2125.218953010592
 30
0.0
 40
4.666992115345561
  0
LINE
  5
2CF72
102
{ACAD_REACTORS
330
2CF97
330
2DB5C
330
2DBA7
102
}
330
1F
100
AcDbEntity
  8
実線
100
AcDbLine
 10
669.7342314979413
 20
2126.786663111459
 30
0.0
 11
670.7237082439452
 21
2125.36506690678
 31
0.0
  0
LINE
  5
2CF73
102
{ACAD_REACTORS
330
2CF97
330
2DB5C
330
2DBA7
102
}
330
1F
100
AcDbEntity
  8
実線
100
AcDbLine
 10
670.7237082439452
 20
2125.36506690678
 30
0.0
 11
669.9873081898081
 21
2123.797356805917
 31
0.0
  0
LINE
  5
2CF74
102
{ACAD_REACTORS
330
2CF97
330
2DB5C
330
2DBA7
102
}
330
1F
100
AcDbEntity
  8
実線
100
AcDbLine
 10
668.261431389629
 20
2123.651242909822
 30
0.0
 11
667.2719546436252
 21
2125.072839114498
 31
0.0
  0
LINE
  5
2CF75
102
{ACAD_REACTORS
330
2CF97
330
2DB5C
330
2DBA7
102
}
330
1F
100
AcDbEntity
  8
実線
100
AcDbLine
 10
669.9873081898081
 20
2123.797356805917
 30
0.0
 11
668.261431389629
 21
2123.651242909822
 31
0.0
  0
LINE
  5
2CF76
102
{ACAD_REACTORS
330
2CF97
330
2DB5C
330
2DBA7
102
}
330
1F
100
AcDbEntity
  8
実線
100
AcDbLine
 10
668.0083546978005
 20
2126.640549215272
 30
0.0
 11
669.7342314979413
 21
2126.786663111459
 31
0.0
  0
LINE
  5
2CF77
102
{ACAD_REACTORS
330
2CF97
330
2DB5C
330
2DBA7
102
}
330
1F
100
AcDbEntity
  8
実線
100
AcDbLine
 10
667.2719546436252
 20
2125.072839114498
 30
0.0
 11
668.0083546978005
 21
2126.640549215272
 31
0.0
  0
CIRCLE
  5
2CF79
102
{ACAD_REACTORS
330
2CF97
330
2DB5C
330
2DBA7
102
}
330
1F
100
AcDbEntity
  8
実線
100
AcDbCircle
 10
646.3322738785502
 20
2125.218953010694
 30
0.0
 40
4.666992115345561
  0
LINE
  5
2CF7A
102
{ACAD_REACTORS
330
2CF97
330
2DB5C
330
2DBA7
102
}
330
1F
100
AcDbEntity
  8
実線
100
AcDbLine
 10
645.5958738244271
 20
2126.786663111566
 30
0.0
 11
644.6063970784107
 21
2125.365066906897
 31
0.0
  0
LINE
  5
2CF7B
102
{ACAD_REACTORS
330
2CF97
330
2DB5C
330
2DBA7
102
}
330
1F
100
AcDbEntity
  8
実線
100
AcDbLine
 10
644.6063970784107
 20
2125.365066906897
 30
0.0
 11
645.3427971325337
 21
2123.797356806026
 31
0.0
  0
LINE
  5
2CF7C
102
{ACAD_REACTORS
330
2CF97
330
2DB5C
330
2DBA7
102
}
330
1F
100
AcDbEntity
  8
実線
100
AcDbLine
 10
647.0686739327113
 20
2123.651242909914
 30
0.0
 11
648.058150678728
 21
2125.072839114584
 31
0.0
  0
LINE
  5
2CF7D
102
{ACAD_REACTORS
330
2CF97
330
2DB5C
330
2DBA7
102
}
330
1F
100
AcDbEntity
  8
実線
100
AcDbLine
 10
645.3427971325337
 20
2123.797356806026
 30
0.0
 11
647.0686739327113
 21
2123.651242909914
 31
0.0
  0
LINE
  5
2CF7E
102
{ACAD_REACTORS
330
2CF97
330
2DB5C
330
2DBA7
102
}
330
1F
100
AcDbEntity
  8
実線
100
AcDbLine
 10
647.3217506245666
 20
2126.640549215359
 30
0.0
 11
645.5958738244271
 21
2126.786663111566
 31
0.0
  0
LINE
  5
2CF7F
102
{ACAD_REACTORS
330
2CF97
330
2DB5C
330
2DBA7
102
}
330
1F
100
AcDbEntity
  8
実線
100
AcDbLine
 10
648.058150678728
 20
2125.072839114584
 30
0.0
 11
647.3217506245666
 21
2126.640549215359
 31
0.0
  0
CIRCLE
  5
2CF83
102
{ACAD_REACTORS
330
2CF97
330
2DB5C
330
2DBA7
102
}
330
1F
100
AcDbEntity
  8
実線
 48
0.1
100
AcDbCircle
 10
646.3322738785502
 20
2125.218953010694
 30
0.0
 40
5.5
  0
CIRCLE
  5
2CF8A
102
{ACAD_REACTORS
330
2CF97
330
2DB5C
330
2DBA7
102
}
330
1F
100
AcDbEntity
  8
実線
 48
0.1
100
AcDbCircle
 10
616.9087154666426
 20
2131.071662671146
 30
0.0
 40
5.5
  0
CIRCLE
  5
2CF90
102
{ACAD_REACTORS
330
2CF97
330
2DB5C
330
2DBA7
102
}
330
1F
100
AcDbEntity
  8
実線
 48
0.1
100
AcDbCircle
 10
668.9978314438044
 20
2125.218953010592
 30
0.0
 40
5.5
  0
CIRCLE
  5
2CF96
102
{ACAD_REACTORS
330
2CF97
330
2DB5C
330
2DBA7
102
}
330
1F
100
AcDbEntity
  8
実線
 48
0.1
100
AcDbCircle
 10
698.4213898569016
 20
2131.071662671146
 30
0.0
 40
5.5
  0
LINE
  5
2CFAD
102
{ACAD_REACTORS
330
2CFB1
330
2CFB2
102
}
330
1F
100
AcDbEntity
  8
実線
 48
0.1
100
AcDbLine
 10
583.3611437220157
 20
1830.362974779233
 30
0.0
 11
655.9302067780159
 21
1830.362974779233
 31
0.0
  0
LINE
  5
2CFAE
102
{ACAD_REACTORS
330
2CFB1
330
2CFB2
102
}
330
1F
100
AcDbEntity
  8
実線
 48
0.1
100
AcDbLine
 10
659.3999025116158
 20
1830.362974779233
 30
0.0
 11
731.9689655676158
 21
1830.362974779233
 31
0.0
  0
LINE
  5
2CFAF
102
{ACAD_REACTORS
330
2CFB1
330
2CFB2
102
}
330
1F
100
AcDbEntity
  8
実線
 48
0.1
100
AcDbLine
 10
731.9689655676158
 20
1802.362977640133
 30
0.0
 11
659.3999025116158
 21
1802.362977640133
 31
0.0
  0
LINE
  5
2CFB0
102
{ACAD_REACTORS
330
2CFB1
330
2CFB2
102
}
330
1F
100
AcDbEntity
  8
実線
 48
0.1
100
AcDbLine
 10
655.9302067780159
 20
1802.362977640133
 30
0.0
 11
583.3611437220157
 21
1802.362977640132
 31
0.0
  0
LINE
  5
2D347
102
{ACAD_REACTORS
330
2D4EA
102
}
330
1F
100
AcDbEntity
  8
隠れ線
 48
0.5
100
AcDbLine
 10
842.9957589182054
 20
2058.080142774716
 30
0.0
 11
832.3957589182054
 21
2058.080142774716
 31
0.0
  0
LINE
  5
2D348
102
{ACAD_REACTORS
330
2D4EA
102
}
330
1F
100
AcDbEntity
  8
隠れ線
 48
0.5
100
AcDbLine
 10
821.7957589182047
 20
2019.080142774714
 30
0.0
 11
845.495758918204
 21
2019.080142774717
 31
0.0
  0
LINE
  5
2D349
102
{ACAD_REACTORS
330
2D4EA
102
}
330
1F
100
AcDbEntity
  8
隠れ線
 48
0.5
100
AcDbLine
 10
843.4957589182047
 20
2034.580142774716
 30
0.0
 11
836.9957589182041
 21
2034.580142774716
 31
0.0
  0
LINE
  5
2D34A
102
{ACAD_REACTORS
330
2D4EA
102
}
330
1F
100
AcDbEntity
  8
隠れ線
 48
0.5
100
AcDbLine
 10
843.4957589182054
 20
2023.580142774715
 30
0.0
 11
836.9957589182037
 21
2023.580142774718
 31
0.0
  0
LINE
  5
2D34B
102
{ACAD_REACTORS
330
2D4EA
102
}
330
1F
100
AcDbEntity
  8
中心線
 48
0.5
100
AcDbLine
 10
846.3630819187804
 20
2029.080142774714
 30
0.0
 11
810.0463492291069
 21
2029.080142774716
 31
0.0
  0
LINE
  5
2D34C
102
{ACAD_REACTORS
330
2D4EA
102
}
330
1F
100
AcDbEntity
  8
隠れ線
 48
0.5
100
AcDbLine
 10
825.3957589182041
 20
2115.080142774715
 30
0.0
 11
825.3957589182052
 21
2059.880142774717
 31
0.0
  0
LINE
  5
2D34D
102
{ACAD_REACTORS
330
2D4EA
102
}
330
1F
100
AcDbEntity
  8
隠れ線
 48
0.5
100
AcDbLine
 10
831.5957589182042
 20
2059.880142774717
 30
0.0
 11
831.5957589182039
 21
2115.080142774715
 31
0.0
  0
LINE
  5
2D34E
102
{ACAD_REACTORS
330
2D4EA
102
}
330
1F
100
AcDbEntity
  8
中心線
 48
0.5
100
AcDbLine
 10
828.4957589182042
 20
2015.589912840741
 30
0.0
 11
828.4957589182042
 21
2117.934811134408
 31
0.0
  0
CIRCLE
  5
2D352
102
{ACAD_REACTORS
330
2D4EA
102
}
330
1F
100
AcDbEntity
  8
隠れ線
 48
0.5
100
AcDbCircle
 10
819.4957589182049
 20
2048.080142774717
 30
0.0
 40
1.0
  0
CIRCLE
  5
2D353
102
{ACAD_REACTORS
330
2D4EA
102
}
330
1F
100
AcDbEntity
  8
隠れ線
 48
0.5
100
AcDbCircle
 10
819.4957589182049
 20
2048.080142774717
 30
0.0
 40
1.5
  0
CIRCLE
  5
2D354
102
{ACAD_REACTORS
330
2D4EA
102
}
330
1F
100
AcDbEntity
  8
隠れ線
 48
0.5
100
AcDbCircle
 10
819.4957589182042
 20
2054.580142774717
 30
0.0
 40
1.0
  0
CIRCLE
  5
2D355
102
{ACAD_REACTORS
330
2D4EA
102
}
330
1F
100
AcDbEntity
  8
隠れ線
 48
0.5
100
AcDbCircle
 10
819.4957589182042
 20
2054.580142774717
 30
0.0
 40
1.5
  0
LINE
  5
2D356
102
{ACAD_REACTORS
330
2D4EA
102
}
330
1F
100
AcDbEntity
  8
中心線
 48
0.5
100
AcDbLine
 10
819.4957589182042
 20
2051.535389977446
 30
0.0
 11
819.4957589182042
 21
2057.559626921809
 31
0.0
  0
LINE
  5
2D357
102
{ACAD_REACTORS
330
2D4EA
102
}
330
1F
100
AcDbEntity
  8
中心線
 48
0.5
100
AcDbLine
 10
822.5987955660905
 20
2048.080142774717
 30
0.0
 11
816.2851831371629
 21
2048.080142774717
 31
0.0
  0
LINE
  5
2D358
102
{ACAD_REACTORS
330
2D4EA
102
}
330
1F
100
AcDbEntity
  8
中心線
 48
0.5
100
AcDbLine
 10
822.5987955660905
 20
2054.580142774717
 30
0.0
 11
816.2851831371629
 21
2054.580142774717
 31
0.0
  0
LINE
  5
2D359
102
{ACAD_REACTORS
330
2D4EA
102
}
330
1F
100
AcDbEntity
  8
中心線
 48
0.5
100
AcDbLine
 10
819.4957589182045
 20
2044.833678244347
 30
0.0
 11
819.4957589182049
 21
2050.933207381651
 31
0.0
  0
LINE
  5
2D35A
102
{ACAD_REACTORS
330
2D4EA
102
}
330
1F
100
AcDbEntity
  8
隠れ線
 48
0.5
100
AcDbLine
 10
825.3957589182052
 20
2059.880142774713
 30
0.0
 11
823.5957589182042
 21
2058.080142774716
 31
0.0
  0
LINE
  5
2D35B
102
{ACAD_REACTORS
330
2D4EA
102
}
330
1F
100
AcDbEntity
  8
隠れ線
 48
0.5
100
AcDbLine
 10
833.3957589182057
 20
2058.080142774716
 30
0.0
 11
831.5957589182042
 21
2059.880142774717
 31
0.0
  0
LINE
  5
2D35C
102
{ACAD_REACTORS
330
2D4EA
102
}
330
1F
100
AcDbEntity
  8
隠れ線
 48
0.5
100
AcDbLine
 10
814.4957589182041
 20
2058.080142774716
 30
0.0
 11
813.4957589182041
 21
2057.080142774716
 31
0.0
  0
LINE
  5
2D35D
102
{ACAD_REACTORS
330
2D4EA
102
}
330
1F
100
AcDbEntity
  8
隠れ線
 48
0.5
100
AcDbLine
 10
823.7957589182048
 20
2058.080142774716
 30
0.0
 11
814.4957589182041
 21
2058.080142774716
 31
0.0
  0
LINE
  5
2D35E
102
{ACAD_REACTORS
330
2D4EA
102
}
330
1F
100
AcDbEntity
  8
隠れ線
 48
0.5
100
AcDbLine
 10
821.7957589182045
 20
2019.080142774714
 30
0.0
 11
821.7957589182038
 21
2036.080142774716
 31
0.0
  0
LINE
  5
2D35F
102
{ACAD_REACTORS
330
2D4EA
102
}
330
1F
100
AcDbEntity
  8
隠れ線
 48
0.5
100
AcDbLine
 10
821.7957589182047
 20
2019.080142774714
 30
0.0
 11
821.7957589182038
 21
2035.580142774715
 31
0.0
  0
LINE
  5
2D360
102
{ACAD_REACTORS
330
2D4EA
102
}
330
1F
100
AcDbEntity
  8
隠れ線
 48
0.5
100
AcDbLine
 10
832.3957589182057
 20
2036.080142774716
 30
0.0
 11
822.2957589182037
 21
2036.080142774716
 31
0.0
  0
LINE
  5
2D361
102
{ACAD_REACTORS
330
2D4EA
102
}
330
1F
100
AcDbEntity
  8
隠れ線
 48
0.5
100
AcDbLine
 10
836.9957589182044
 20
2032.380142774718
 30
0.0
 11
821.7957589182047
 21
2032.380142774718
 31
0.0
  0
LINE
  5
2D362
102
{ACAD_REACTORS
330
2D4EA
102
}
330
1F
100
AcDbEntity
  8
隠れ線
 48
0.5
100
AcDbLine
 10
836.995758918206
 20
2025.780142774717
 30
0.0
 11
821.7957589182034
 21
2025.780142774715
 31
0.0
  0
LINE
  5
2D363
102
{ACAD_REACTORS
330
2D4EA
102
}
330
1F
100
AcDbEntity
  8
隠れ線
 48
0.5
100
AcDbLine
 10
823.7957589182041
 20
2036.080142774716
 30
0.0
 11
821.7957589182034
 21
2036.080142774716
 31
0.0
  0
LINE
  5
2D364
102
{ACAD_REACTORS
330
2D4EA
102
}
330
1F
100
AcDbEntity
  8
隠れ線
 48
0.5
100
AcDbLine
 10
821.7957589182038
 20
2035.580142774715
 30
0.0
 11
822.2957589182037
 21
2036.080142774716
 31
0.0
  0
LINE
  5
2D365
102
{ACAD_REACTORS
330
2D4EA
102
}
330
1F
100
AcDbEntity
  8
隠れ線
 48
0.5
100
AcDbLine
 10
836.9957589182057
 20
2023.580142774718
 30
0.0
 11
836.9957589182041
 21
2034.580142774716
 31
0.0
  0
LINE
  5
2D366
102
{ACAD_REACTORS
330
2D4EA
102
}
330
1F
100
AcDbEntity
  8
隠れ線
 48
0.5
100
AcDbLine
 10
831.9763421635036
 20
2040.080142774715
 30
0.0
 11
824.687480047058
 21
2040.080142774715
 31
0.0
  0
CIRCLE
  5
2D367
102
{ACAD_REACTORS
330
2D4EA
102
}
330
1F
100
AcDbEntity
  8
隠れ線
 48
0.5
100
AcDbCircle
 10
828.4957589182049
 20
2040.080142774715
 30
0.0
 40
3.6
  0
LINE
  5
2D368
102
{ACAD_REACTORS
330
2D4EA
102
}
330
1F
100
AcDbEntity
  8
隠れ線
 48
0.5
100
AcDbLine
 10
813.4957589182036
 20
2020.080142774717
 30
0.0
 11
814.4957589182034
 21
2019.080142774714
 31
0.0
  0
LINE
  5
2D369
102
{ACAD_REACTORS
330
2D4EA
102
}
330
1F
100
AcDbEntity
  8
隠れ線
 48
0.5
100
AcDbLine
 10
821.7957589182045
 20
2019.080142774714
 30
0.0
 11
814.4957589182034
 21
2019.080142774714
 31
0.0
  0
LINE
  5
2D36A
102
{ACAD_REACTORS
330
2D4EA
102
}
330
1F
100
AcDbEntity
  8
隠れ線
 48
0.5
100
AcDbLine
 10
821.7957589182041
 20
2023.580142774715
 30
0.0
 11
813.4957589182036
 21
2023.580142774718
 31
0.0
  0
LINE
  5
2D36B
102
{ACAD_REACTORS
330
2D4EA
102
}
330
1F
100
AcDbEntity
  8
隠れ線
 48
0.5
100
AcDbLine
 10
821.7957589182045
 20
2034.580142774716
 30
0.0
 11
813.4957589182048
 21
2034.580142774716
 31
0.0
  0
LINE
  5
2D36C
102
{ACAD_REACTORS
330
2D4EA
102
}
330
1F
100
AcDbEntity
  8
隠れ線
 48
0.5
100
AcDbLine
 10
821.7957589182045
 20
2026.330142774714
 30
0.0
 11
818.9957589182041
 21
2026.330142774714
 31
0.0
  0
LINE
  5
2D36D
102
{ACAD_REACTORS
330
2D4EA
102
}
330
1F
100
AcDbEntity
  8
隠れ線
 48
0.5
100
AcDbLine
 10
813.4957589182041
 20
2057.080142774716
 30
0.0
 11
813.4957589182036
 21
2020.080142774717
 31
0.0
  0
LINE
  5
2D36E
102
{ACAD_REACTORS
330
2D4EA
102
}
330
1F
100
AcDbEntity
  8
隠れ線
 48
0.5
100
AcDbLine
 10
823.7957589182041
 20
2036.080142774716
 30
0.0
 11
823.7957589182045
 21
2058.080142774718
 31
0.0
  0
LINE
  5
2D36F
102
{ACAD_REACTORS
330
2D4EA
102
}
330
1F
100
AcDbEntity
  8
隠れ線
 48
0.5
100
AcDbLine
 10
832.3957589182045
 20
2036.080142774716
 30
0.0
 11
832.3957589182057
 21
2058.080142774718
 31
0.0
  0
LINE
  5
2D370
102
{ACAD_REACTORS
330
2D4EA
102
}
330
1F
100
AcDbEntity
  8
隠れ線
 48
0.5
100
AcDbLine
 10
831.5957589182039
 20
2115.080142774715
 30
0.0
 11
825.3957589182048
 21
2115.080142774715
 31
0.0
  0
LINE
  5
2D373
102
{ACAD_REACTORS
330
2D4EA
102
}
330
1F
100
AcDbEntity
  8
隠れ線
 48
0.5
100
AcDbLine
 10
842.9957589182054
 20
2058.080142774716
 30
0.0
 11
843.4957589182054
 21
2057.580142774716
 31
0.0
  0
LINE
  5
2D374
102
{ACAD_REACTORS
330
2D4EA
102
}
330
1F
100
AcDbEntity
  8
隠れ線
 48
0.5
100
AcDbLine
 10
845.9957589182041
 20
2019.580142774717
 30
0.0
 11
845.495758918204
 21
2019.080142774717
 31
0.0
  0
LINE
  5
2D375
102
{ACAD_REACTORS
330
2D4EA
102
}
330
1F
100
AcDbEntity
  8
隠れ線
 48
0.5
100
AcDbLine
 10
843.4957589182047
 20
2021.080142774715
 30
0.0
 11
845.9957589182044
 21
2021.080142774715
 31
0.0
  0
LINE
  5
2D376
102
{ACAD_REACTORS
330
2D4EA
102
}
330
1F
100
AcDbEntity
  8
隠れ線
 48
0.5
100
AcDbLine
 10
845.9957589182041
 20
2019.580142774717
 30
0.0
 11
845.9957589182044
 21
2021.080142774715
 31
0.0
  0
LINE
  5
2D377
102
{ACAD_REACTORS
330
2D4EA
102
}
330
1F
100
AcDbEntity
  8
隠れ線
 48
0.5
100
AcDbLine
 10
843.4957589182054
 20
2021.080142774715
 30
0.0
 11
843.4957589182054
 21
2057.580142774716
 31
0.0
  0
MTEXT
  5
2D51C
102
{ACAD_REACTORS
330
2D51B
102
}
330
1F
100
AcDbEntity
  8
寸法
 62
    40
 48
0.1
100
AcDbMText
 10
710.8914305815861
 20
2011.953520035544
 30
0.0
 40
5.0
 41
160.9157999999998
 71
     9
 72
     1
  1

  7
まこ
1001
ACAD
1000
MTEXTBEGIN
1070
    73
1070
     1
1070
    44
1040
1.0
1070
    74
1070
     0
1000
MTEXTEND
  0
MTEXT
  5
2D5A9
102
{ACAD_REACTORS
330
2D5A8
102
}
330
1F
100
AcDbEntity
  8
寸法
 62
    40
 48
0.1
100
AcDbMText
 10
874.203934883862
 20
2168.422093962905
 30
0.0
 40
5.0
 41
0.0
 71
     1
 72
     1
  1

  7
まこ
1001
ACAD
1000
MTEXTBEGIN
1070
    73
1070
     1
1070
    44
1040
1.0
1070
    74
1070
     0
1000
MTEXTEND
  0
MTEXT
  5
2D615
330
1F
100
AcDbEntity
  8
寸法
 62
    40
 48
0.1
100
AcDbMText
 10
754.2341638730056
 20
2173.936848346783
 30
0.0
 40
5.0
 41
0.0
 71
     1
 72
     1
  1

  7
まこ
1001
ACAD
1000
MTEXTBEGIN
1070
    73
1070
     1
1070
    44
1040
1.0
1070
    74
1070
     0
1000
MTEXTEND
  0
LINE
  5
2D888
102
{ACAD_REACTORS
330
2DBA7
102
}
330
1F
100
AcDbEntity
  8
中心線
 48
0.5
100
AcDbLine
 10
657.6650526617292
 20
2219.080142774746
 30
0.0
 11
657.6650526617722
 21
2053.348962423242
 31
0.0
  0
LINE
  5
2D8CE
102
{ACAD_REACTORS
330
2D90D
102
}
330
1F
100
AcDbEntity
  8
実線
  6
CONTINUOUS
100
AcDbLine
 10
1126.312853013849
 20
2168.508366441542
 30
0.0
 11
1175.380424126962
 21
2118.576843321601
 31
0.0
  0
LINE
  5
2D8CF
102
{ACAD_REACTORS
330
2D90D
330
2D90F
102
}
330
1F
100
AcDbEntity
  8
0
  6
CONTINUOUS
100
AcDbLine
 10
1053.789803748989
 20
2111.508385557343
 30
0.0
 11
1040.809229785055
 21
2106.263893249521
 31
0.0
  0
LINE
  5
2D8D0
102
{ACAD_REACTORS
330
2D90D
330
2D90F
102
}
330
1F
100
AcDbEntity
  8
0
  6
CONTINUOUS
100
AcDbLine
 10
1044.555295719214
 20
2096.992054703853
 30
0.0
 11
1057.535869683148
 21
2102.236547011675
 31
0.0
  0
ARC
  5
2D8D1
102
{ACAD_REACTORS
330
2D90D
102
}
330
1F
100
AcDbEntity
  8
中心線
 48
0.5
100
AcDbCircle
 10
1037.308415073399
 20
2259.079940497115
 30
0.0
 40
133.4999999999999
100
AcDbArc
 50
262.763028931467
 51
317.5409528411957
  0
LINE
  5
2D8D2
102
{ACAD_REACTORS
330
2D90D
102
}
330
1F
100
AcDbEntity
  8
実線
  6
CONTINUOUS
100
AcDbLine
 10
1035.589376176781
 20
2062.097593812771
 30
0.0
 11
1036.200282499389
 21
2132.100524676292
 31
0.0
  0
ARC
  5
2D8D3
102
{ACAD_REACTORS
330
2D90D
102
}
330
1F
100
AcDbEntity
  8
実線
  6
CONTINUOUS
100
AcDbCircle
 10
1037.308415073399
 20
2259.079940497118
 30
0.0
 40
199.0000000000004
100
AcDbArc
 50
270.0816930334443
 51
313.9183069665385
  0
LINE
  5
2D8D4
102
{ACAD_REACTORS
330
2D90D
330
2D90F
102
}
330
1F
100
AcDbEntity
  8
0
  6
CONTINUOUS
100
AcDbLine
 10
1040.53294115448
 20
2105.612998025529
 30
0.0
 11
1043.904400495222
 21
2097.268343334429
 31
0.0
  0
ARC
  5
2D8D5
102
{ACAD_REACTORS
330
2D90D
102
}
330
1F
100
AcDbEntity
  8
実線
  6
CONTINUOUS
100
AcDbCircle
 10
1037.589300022909
 20
2062.080140741775
 30
0.0
 40
2.0
100
AcDbArc
 50
179.4999999999954
 51
270.0816930334472
  0
ARC
  5
2D8D6
102
{ACAD_REACTORS
330
2D90D
330
2D90F
102
}
330
1F
100
AcDbEntity
  8
0
  6
CONTINUOUS
100
AcDbCircle
 10
1044.367992422505
 20
2097.455646631137
 30
0.0
 40
0.4999999999999434
100
AcDbArc
 50
202.0
 51
292.0
  0
ARC
  5
2D8D7
102
{ACAD_REACTORS
330
2D90D
330
2D90F
102
}
330
1F
100
AcDbEntity
  8
0
  6
CONTINUOUS
100
AcDbCircle
 10
1040.996533081762
 20
2105.800301322238
 30
0.0
 40
0.5
100
AcDbArc
 50
112.0
 51
202.0000000001041
  0
LINE
  5
2D8D8
102
{ACAD_REACTORS
330
2D90D
330
2D90F
102
}
330
1F
100
AcDbEntity
  8
0
  6
CONTINUOUS
100
AcDbLine
 10
1057.812158313724
 20
2102.887442235668
 30
0.0
 11
1054.440698972981
 21
2111.232096926769
 31
0.0
  0
LINE
  5
2D8D9
102
{ACAD_REACTORS
330
2D90D
330
2D90E
102
}
330
1F
100
AcDbEntity
  8
0
  6
CONTINUOUS
100
AcDbLine
 10
1094.435920569112
 20
2117.684402675597
 30
0.0
 11
1090.315248041537
 21
2127.883425075832
 31
0.0
  0
LINE
  5
2D8DA
102
{ACAD_REACTORS
330
2D90D
330
2D90E
102
}
330
1F
100
AcDbEntity
  8
0
  6
CONTINUOUS
100
AcDbLine
 10
1057.863813131699
 20
2114.772194306275
 30
0.0
 11
1061.984485659275
 21
2104.573171906039
 31
0.0
  0
LINE
  5
2D8DB
102
{ACAD_REACTORS
330
2D90D
330
2D90E
102
}
330
1F
100
AcDbEntity
  8
0
  6
CONTINUOUS
100
AcDbLine
 10
1062.635380883266
 20
2104.296883275461
 30
0.0
 11
1094.159631938536
 21
2117.033507451606
 31
0.0
  0
ARC
  5
2D8DC
102
{ACAD_REACTORS
330
2D90D
330
2D90F
102
}
330
1F
100
AcDbEntity
  8
0
  6
CONTINUOUS
100
AcDbCircle
 10
1057.348566386441
 20
2102.700138938959
 30
0.0
 40
0.500000000000057
100
AcDbArc
 50
292.0
 51
22.0
  0
ARC
  5
2D8DD
102
{ACAD_REACTORS
330
2D90D
330
2D90E
102
}
330
1F
100
AcDbEntity
  8
0
  6
CONTINUOUS
100
AcDbCircle
 10
1062.448077586559
 20
2104.760475202748
 30
0.0
 40
0.500000000000057
100
AcDbArc
 50
202.0000000001041
 51
292.0
  0
ARC
  5
2D8DE
102
{ACAD_REACTORS
330
2D90D
330
2D90E
102
}
330
1F
100
AcDbEntity
  8
0
  6
CONTINUOUS
100
AcDbCircle
 10
1093.972328641829
 20
2117.497099378887
 30
0.0
 40
0.5000000000000853
100
AcDbArc
 50
292.0
 51
22.0
  0
ARC
  5
2D8DF
102
{ACAD_REACTORS
330
2D90D
102
}
330
1F
100
AcDbEntity
  8
実線
  6
CONTINUOUS
100
AcDbCircle
 10
1173.953923228653
 20
2117.175024793002
 30
0.0
 40
2.0
100
AcDbArc
 50
313.9183069665376
 51
44.4999999999684
  0
ARC
  5
2D8E0
102
{ACAD_REACTORS
330
2D90D
102
}
330
1F
100
AcDbEntity
  8
実線
  6
CONTINUOUS
100
AcDbCircle
 10
1037.308415073399
 20
2259.079940497115
 30
0.0
 40
124.9999999999972
100
AcDbArc
 50
270.4023330394936
 51
313.5976669604953
  0
LINE
  5
2D8E1
102
{ACAD_REACTORS
330
2D90D
330
2D90E
102
}
330
1F
100
AcDbEntity
  8
0
  6
CONTINUOUS
100
AcDbLine
 10
1089.664352817546
 20
2128.159713706406
 30
0.0
 11
1058.140101762275
 21
2115.423089530267
 31
0.0
  0
CIRCLE
  5
2D8E2
102
{ACAD_REACTORS
330
2D90D
330
2D910
102
}
330
1F
100
AcDbEntity
  8
実線
 48
0.1
100
AcDbCircle
 10
1076.946129846118
 20
2130.720672940781
 30
0.0
 40
5.5
  0
LINE
  5
2D8E3
102
{ACAD_REACTORS
330
2D90D
330
2D910
102
}
330
1F
100
AcDbEntity
  8
実線
100
AcDbLine
 10
1045.745531762361
 20
2124.993904453185
 30
0.0
 11
1046.495584454512
 21
2126.555128639153
 31
0.0
  0
CIRCLE
  5
2D8E4
102
{ACAD_REACTORS
330
2D90D
330
2D910
102
}
330
1F
100
AcDbEntity
  8
実線
100
AcDbCircle
 10
1047.47261791454
 20
2125.124951860562
 30
0.0
 40
4.666992115345561
  0
LINE
  5
2D8E5
102
{ACAD_REACTORS
330
2D90D
330
2D910
102
}
330
1F
100
AcDbEntity
  8
実線
100
AcDbLine
 10
1046.722565222391
 20
2123.563727674594
 30
0.0
 11
1045.745531762361
 21
2124.993904453185
 31
0.0
  0
CIRCLE
  5
2D8E6
102
{ACAD_REACTORS
330
2D90D
330
2D910
102
}
330
1F
100
AcDbEntity
  8
実線
 48
0.1
100
AcDbCircle
 10
1047.47261791454
 20
2125.124951860562
 30
0.0
 40
5.5
  0
ARC
  5
2D8E7
102
{ACAD_REACTORS
330
2D90D
102
}
330
1F
100
AcDbEntity
  8
実線
  6
CONTINUOUS
100
AcDbCircle
 10
1038.200206345517
 20
2132.083071605296
 30
0.0
 40
2.0
100
AcDbArc
 50
90.40233303949571
 51
179.5000000000085
  0
ARC
  5
2D8E8
102
{ACAD_REACTORS
330
2D90D
330
2D90F
102
}
330
1F
100
AcDbEntity
  8
0
  6
CONTINUOUS
100
AcDbCircle
 10
1053.977107045698
 20
2111.044793630061
 30
0.0
 40
0.5000000000003695
100
AcDbArc
 50
22.00000000010422
 51
112.0
  0
ARC
  5
2D8E9
102
{ACAD_REACTORS
330
2D90D
330
2D90E
102
}
330
1F
100
AcDbEntity
  8
0
  6
CONTINUOUS
100
AcDbCircle
 10
1058.327405058983
 20
2114.959497602983
 30
0.0
 40
0.5000000000002274
100
AcDbArc
 50
112.0
 51
202.0
  0
LINE
  5
2D8EA
102
{ACAD_REACTORS
330
2D90D
330
2D910
102
}
330
1F
100
AcDbEntity
  8
実線
100
AcDbLine
 10
1046.495584454512
 20
2126.555128639153
 30
0.0
 11
1048.222670606653
 21
2126.686176046623
 31
0.0
  0
LINE
  5
2D8EB
102
{ACAD_REACTORS
330
2D90D
330
2D910
102
}
330
1F
100
AcDbEntity
  8
実線
100
AcDbLine
 10
1049.199704066682
 20
2125.255999268033
 30
0.0
 11
1048.449651374568
 21
2123.694775081972
 31
0.0
  0
LINE
  5
2D8EC
102
{ACAD_REACTORS
330
2D90D
330
2D910
102
}
330
1F
100
AcDbEntity
  8
実線
100
AcDbLine
 10
1048.449651374568
 20
2123.694775081972
 30
0.0
 11
1046.722565222391
 21
2123.563727674594
 31
0.0
  0
LINE
  5
2D8ED
102
{ACAD_REACTORS
330
2D90D
330
2D910
102
}
330
1F
100
AcDbEntity
  8
実線
100
AcDbLine
 10
1048.222670606653
 20
2126.686176046623
 30
0.0
 11
1049.199704066682
 21
2125.255999268033
 31
0.0
  0
LINE
  5
2D8EE
102
{ACAD_REACTORS
330
2D90D
102
}
330
1F
100
AcDbEntity
  8
中心線
 48
0.5
100
AcDbLine
 10
1060.375510040302
 20
2137.582051486226
 30
0.0
 11
1064.043237720368
 21
2118.263573315056
 31
0.0
  0
CIRCLE
  5
2D8EF
102
{ACAD_REACTORS
330
2D90D
102
}
330
1F
100
AcDbEntity
  8
実線
  6
CONTINUOUS
100
AcDbCircle
 10
1062.209373880546
 20
2127.922812400681
 30
0.0
 40
5.5
  0
CIRCLE
  5
2D8F0
102
{ACAD_REACTORS
330
2D90D
102
}
330
1F
100
AcDbEntity
  8
実線
  6
CONTINUOUS
100
AcDbCircle
 10
1062.209373880323
 20
2127.922812400699
 30
0.0
 40
3.499999999999968
  0
CIRCLE
  5
2D8F1
102
{ACAD_REACTORS
330
2D90D
330
2D910
102
}
330
1F
100
AcDbEntity
  8
実線
100
AcDbCircle
 10
1076.946129846118
 20
2130.720672940781
 30
0.0
 40
4.666992115345561
  0
LINE
  5
2D8F2
102
{ACAD_REACTORS
330
2D90D
330
2D910
102
}
330
1F
100
AcDbEntity
  8
実線
100
AcDbLine
 10
1078.601070179087
 20
2131.231723324151
 30
0.0
 11
1077.331017398051
 21
2132.409418502554
 31
0.0
  0
LINE
  5
2D8F3
102
{ACAD_REACTORS
330
2D90D
330
2D910
102
}
330
1F
100
AcDbEntity
  8
実線
100
AcDbLine
 10
1075.676077065081
 20
2131.898368119285
 30
0.0
 11
1075.29118951315
 21
2130.209622557514
 31
0.0
  0
LINE
  5
2D8F4
102
{ACAD_REACTORS
330
2D90D
330
2D910
102
}
330
1F
100
AcDbEntity
  8
実線
100
AcDbLine
 10
1075.29118951315
 20
2130.209622557514
 30
0.0
 11
1076.561242294187
 21
2129.031927379011
 31
0.0
  0
LINE
  5
2D8F5
102
{ACAD_REACTORS
330
2D90D
330
2D910
102
}
330
1F
100
AcDbEntity
  8
実線
100
AcDbLine
 10
1076.561242294187
 20
2129.031927379011
 30
0.0
 11
1078.216182627156
 21
2129.542977762379
 31
0.0
  0
LINE
  5
2D8F6
102
{ACAD_REACTORS
330
2D90D
330
2D910
102
}
330
1F
100
AcDbEntity
  8
実線
100
AcDbLine
 10
1078.216182627156
 20
2129.542977762379
 30
0.0
 11
1078.601070179087
 21
2131.231723324151
 31
0.0
  0
LINE
  5
2D8F7
102
{ACAD_REACTORS
330
2D90D
330
2D910
102
}
330
1F
100
AcDbEntity
  8
実線
100
AcDbLine
 10
1077.331017398051
 20
2132.409418502554
 30
0.0
 11
1075.676077065081
 21
2131.898368119285
 31
0.0
  0
ARC
  5
2D8F8
102
{ACAD_REACTORS
330
2D90D
330
2D90E
102
}
330
1F
100
AcDbEntity
  8
0
  6
CONTINUOUS
100
AcDbCircle
 10
1089.851656114251
 20
2127.696121779123
 30
0.0
 40
0.500000000000057
100
AcDbArc
 50
22.00000000010422
 51
112.0
  0
LINE
  5
2D8F9
102
{ACAD_REACTORS
330
2D90D
330
2D910
102
}
330
1F
100
AcDbEntity
  8
実線
100
AcDbLine
 10
1097.865765174994
 20
2137.481924438318
 30
0.0
 11
1096.415799000184
 21
2138.429340973922
 31
0.0
  0
LINE
  5
2D8FA
102
{ACAD_REACTORS
330
2D90D
330
2D910
102
}
330
1F
100
AcDbEntity
  8
実線
100
AcDbLine
 10
1096.415799000184
 20
2138.429340973922
 30
0.0
 11
1096.511302700603
 21
2140.158756783687
 31
0.0
  0
CIRCLE
  5
2D8FB
102
{ACAD_REACTORS
330
2D90D
330
2D910
102
}
330
1F
100
AcDbEntity
  8
実線
100
AcDbCircle
 10
1097.961268875413
 20
2139.211340248081
 30
0.0
 40
4.666992115345561
  0
CIRCLE
  5
2D8FC
102
{ACAD_REACTORS
330
2D90D
330
2D910
102
}
330
1F
100
AcDbEntity
  8
実線
 48
0.1
100
AcDbCircle
 10
1097.961268875413
 20
2139.211340248081
 30
0.0
 40
5.5
  0
LINE
  5
2D8FD
102
{ACAD_REACTORS
330
2D90D
330
2D910
102
}
330
1F
100
AcDbEntity
  8
実線
100
AcDbLine
 10
1098.056772575763
 20
2140.940756057917
 30
0.0
 11
1099.506738750575
 21
2139.99333952231
 31
0.0
  0
LINE
  5
2D8FE
102
{ACAD_REACTORS
330
2D90D
330
2D910
102
}
330
1F
100
AcDbEntity
  8
実線
100
AcDbLine
 10
1099.506738750575
 20
2139.99333952231
 30
0.0
 11
1099.411235050225
 21
2138.263923712476
 31
0.0
  0
LINE
  5
2D8FF
102
{ACAD_REACTORS
330
2D90D
330
2D910
102
}
330
1F
100
AcDbEntity
  8
実線
100
AcDbLine
 10
1099.411235050225
 20
2138.263923712476
 30
0.0
 11
1097.865765174994
 21
2137.481924438318
 31
0.0
  0
LINE
  5
2D900
102
{ACAD_REACTORS
330
2D90D
330
2D910
102
}
330
1F
100
AcDbEntity
  8
実線
100
AcDbLine
 10
1096.511302700603
 20
2140.158756783687
 30
0.0
 11
1098.056772575763
 21
2140.940756057917
 31
0.0
  0
CIRCLE
  5
2D901
102
{ACAD_REACTORS
330
2D90D
330
2D910
102
}
330
1F
100
AcDbEntity
  8
実線
100
AcDbCircle
 10
1123.049853551748
 20
2155.660137134117
 30
0.0
 40
4.666992115345561
  0
CIRCLE
  5
2D902
102
{ACAD_REACTORS
330
2D90D
330
2D910
102
}
330
1F
100
AcDbEntity
  8
実線
 48
0.1
100
AcDbCircle
 10
1123.049853551748
 20
2155.660137134117
 30
0.0
 40
5.5
  0
CIRCLE
  5
2D903
102
{ACAD_REACTORS
330
2D90D
102
}
330
1F
100
AcDbEntity
  8
実線
  6
CONTINUOUS
100
AcDbCircle
 10
1110.505561214059
 20
2147.435738691375
 30
0.0
 40
3.499999999999981
  0
CIRCLE
  5
2D904
102
{ACAD_REACTORS
330
2D90D
102
}
330
1F
100
AcDbEntity
  8
実線
  6
CONTINUOUS
100
AcDbCircle
 10
1110.505561214377
 20
2147.435738691394
 30
0.0
 40
5.500000000000028
  0
LINE
  5
2D905
102
{ACAD_REACTORS
330
2D90D
102
}
330
1F
100
AcDbEntity
  8
中心線
 48
0.5
100
AcDbLine
 10
1105.114861179016
 20
2155.657922673245
 30
0.0
 11
1115.896261248
 21
2139.213554709179
 31
0.0
  0
LINE
  5
2D906
102
{ACAD_REACTORS
330
2D90D
330
2D910
102
}
330
1F
100
AcDbEntity
  8
実線
100
AcDbLine
 10
1122.759188335325
 20
2157.367624683706
 30
0.0
 11
1121.42579334895
 21
2156.262157447541
 31
0.0
  0
LINE
  5
2D907
102
{ACAD_REACTORS
330
2D90D
330
2D910
102
}
330
1F
100
AcDbEntity
  8
実線
100
AcDbLine
 10
1124.383248538086
 20
2156.765604370375
 30
0.0
 11
1122.759188335325
 21
2157.367624683706
 31
0.0
  0
LINE
  5
2D908
102
{ACAD_REACTORS
330
2D90D
330
2D910
102
}
330
1F
100
AcDbEntity
  8
実線
100
AcDbLine
 10
1121.716458565373
 20
2154.554669897954
 30
0.0
 11
1123.340518768171
 21
2153.95264958453
 31
0.0
  0
LINE
  5
2D909
102
{ACAD_REACTORS
330
2D90D
330
2D910
102
}
330
1F
100
AcDbEntity
  8
実線
100
AcDbLine
 10
1123.340518768171
 20
2153.95264958453
 30
0.0
 11
1124.673913754508
 21
2155.058116820787
 31
0.0
  0
LINE
  5
2D90A
102
{ACAD_REACTORS
330
2D90D
330
2D910
102
}
330
1F
100
AcDbEntity
  8
実線
100
AcDbLine
 10
1121.42579334895
 20
2156.262157447541
 30
0.0
 11
1121.716458565373
 21
2154.554669897954
 31
0.0
  0
LINE
  5
2D90B
102
{ACAD_REACTORS
330
2D90D
330
2D910
102
}
330
1F
100
AcDbEntity
  8
実線
100
AcDbLine
 10
1124.673913754508
 20
2155.058116820787
 30
0.0
 11
1124.383248538086
 21
2156.765604370375
 31
0.0
  0
ARC
  5
2D90C
102
{ACAD_REACTORS
330
2D90D
102
}
330
1F
100
AcDbEntity
  8
実線
  6
CONTINUOUS
100
AcDbCircle
 10
1124.88635211554
 20
2167.106547912945
 30
0.0
 40
2.0
100
AcDbArc
 50
44.49999999996467
 51
133.5976669604951
  0
LINE
  5
2D993
330
1F
100
AcDbEntity
  8
隠れ線
 48
0.5
100
AcDbLine
 10
808.4957589182039
 20
2131.080142774716
 30
0.0
 11
814.3957589182035
 21
2131.080142774715
 31
0.0
  0
LINE
  5
2D994
330
1F
100
AcDbEntity
  8
隠れ線
 48
0.5
100
AcDbLine
 10
814.3957589182035
 20
2129.080142774716
 30
0.0
 11
842.5957589182047
 21
2129.080142774716
 31
0.0
  0
LINE
  5
2D997
330
1F
100
AcDbEntity
  8
隠れ線
 48
0.5
100
AcDbLine
 10
808.4957589182039
 20
2120.080142774701
 30
0.0
 11
814.3957589182035
 21
2120.080142774701
 31
0.0
  0
LINE
  5
2D998
330
1F
100
AcDbEntity
  8
隠れ線
 48
0.5
100
AcDbLine
 10
814.3957589182035
 20
2122.0801427747
 30
0.0
 11
842.5957589182047
 21
2122.0801427747
 31
0.0
  0
LINE
  5
2D999
330
1F
100
AcDbEntity
  8
隠れ線
 48
0.5
100
AcDbLine
 10
842.5957589182047
 20
2131.080142774716
 30
0.0
 11
842.5957589182047
 21
2120.080142774701
 31
0.0
  0
LINE
  5
2D99A
330
1F
100
AcDbEntity
  8
隠れ線
 48
0.5
100
AcDbLine
 10
814.3957589182035
 20
2131.080142774716
 30
0.0
 11
814.3957589182035
 21
2120.080142774701
 31
0.0
  0
LINE
  5
2D99B
330
1F
100
AcDbEntity
  8
隠れ線
 48
0.5
100
AcDbLine
 10
842.5957589182047
 20
2120.080142774701
 30
0.0
 11
848.4957589182048
 21
2120.080142774701
 31
0.0
  0
LINE
  5
2D99C
330
1F
100
AcDbEntity
  8
隠れ線
 48
0.5
100
AcDbLine
 10
842.5957589182047
 20
2131.080142774715
 30
0.0
 11
848.4957589182048
 21
2131.080142774716
 31
0.0
  0
LINE
  5
2D9D9
102
{ACAD_REACTORS
330
2DA02
102
}
330
1F
100
AcDbEntity
  8
0
100
AcDbLine
 10
623.1650526617722
 20
2106.080142774747
 30
0.0
 11
657.1650526617722
 21
2106.080142774747
 31
0.0
  0
LINE
  5
2D9DA
102
{ACAD_REACTORS
330
2DA02
102
}
330
1F
100
AcDbEntity
  8
0
100
AcDbLine
 10
622.6650526617723
 20
2111.080142774747
 30
0.0
 11
657.6650526617722
 21
2111.080142774747
 31
0.0
  0
LINE
  5
2D9DB
102
{ACAD_REACTORS
330
2DA02
102
}
330
1F
100
AcDbEntity
  8
0
100
AcDbLine
 10
657.1650526617722
 20
2118.080142774747
 30
0.0
 11
623.1650526617722
 21
2118.080142774747
 31
0.0
  0
LINE
  5
2D9DD
102
{ACAD_REACTORS
330
2DA02
102
}
330
1F
100
AcDbEntity
  8
0
100
AcDbLine
 10
657.6650526617722
 20
2106.580142774747
 30
0.0
 11
657.6650526617722
 21
2117.580142774746
 31
0.0
  0
ARC
  5
2D9DE
102
{ACAD_REACTORS
330
2DA02
102
}
330
1F
100
AcDbEntity
  8
0
100
AcDbCircle
 10
657.1650526617722
 20
2106.580142774747
 30
0.0
 40
0.5
100
AcDbArc
 50
270.0
 51
0.0
  0
ARC
  5
2D9DF
102
{ACAD_REACTORS
330
2DA02
102
}
330
1F
100
AcDbEntity
  8
0
100
AcDbCircle
 10
657.1650526617722
 20
2117.580142774746
 30
0.0
 40
0.5
100
AcDbArc
 50
0.0
 51
90.0
  0
LINE
  5
2D9E3
102
{ACAD_REACTORS
330
2DA02
102
}
330
1F
100
AcDbEntity
  8
0
100
AcDbLine
 10
622.6650526617723
 20
2117.580142774746
 30
0.0
 11
622.6650526617723
 21
2106.580142774747
 31
0.0
  0
ARC
  5
2D9EC
102
{ACAD_REACTORS
330
2DA02
102
}
330
1F
100
AcDbEntity
  8
0
100
AcDbCircle
 10
623.1650526617722
 20
2117.580142774746
 30
0.0
 40
0.5
100
AcDbArc
 50
90.0
 51
180.0
  0
ARC
  5
2D9EE
102
{ACAD_REACTORS
330
2DA02
102
}
330
1F
100
AcDbEntity
  8
0
100
AcDbCircle
 10
623.1650526617722
 20
2106.580142774747
 30
0.0
 40
0.5
100
AcDbArc
 50
180.0
 51
270.0
  0
LINE
  5
2D9F0
102
{ACAD_REACTORS
330
2DA03
102
}
330
1F
100
AcDbEntity
  8
0
100
AcDbLine
 10
602.6650526617722
 20
2112.080142774748
 30
0.0
 11
617.6650526617723
 21
2112.080142774748
 31
0.0
  0
LWPOLYLINE
  5
2D9F1
102
{ACAD_REACTORS
330
2DA03
102
}
330
1F
100
AcDbEntity
  8
0
100
AcDbPolyline
 90
        8
 70
     1
 43
0.0
 10
603.1650526617722
 20
2106.080142774747
 10
617.1650526617723
 20
2106.080142774747
 42
0.4142135623730951
 10
617.6650526617723
 20
2106.580142774747
 10
617.6650526617723
 20
2115.580142774747
 42
0.4142135623730951
 10
617.1650526617723
 20
2116.080142774746
 10
603.1650526617722
 20
2116.080142774746
 42
0.4142135623730996
 10
602.6650526617722
 20
2115.580142774747
 10
602.6650526617722
 20
2106.580142774748
 42
0.4142135623730904
  0
LINE
  5
2DADF
102
{ACAD_REACTORS
330
2DBA7
102
}
330
1F
100
AcDbEntity
  8
中心線
 48
0.5
100
AcDbLine
 10
647.6650526617293
 20
2209.080142774746
 30
0.0
 11
667.6650526617293
 21
2209.080142774746
 31
0.0
  0
ARC
  5
2DB5A
102
{ACAD_REACTORS
330
2DB5C
330
2DBA7
102
}
330
1F
100
AcDbEntity
  8
中心線
 48
0.5
100
AcDbCircle
 10
657.6650526620016
 20
2259.080142774747
 30
0.0
 40
133.4999999999999
100
AcDbArc
 50
292.4999999999854
 51
300.7503477991276
  0
ARC
  5
2DB5B
102
{ACAD_REACTORS
330
2DB5C
330
2DBA7
102
}
330
1F
100
AcDbEntity
  8
中心線
 48
0.5
100
AcDbCircle
 10
657.6650526620016
 20
2259.080142774743
 30
0.0
 40
125.0
100
AcDbArc
 50
291.5976669604953
 51
305.5559473654548
  0
VIEWPORT
  5
2E
330
1B
100
AcDbEntity
 67
     1
  8
0
100
AcDbViewport
 10
214.0180035944239
 20
154.0201855846002
 30
0.0
 40
678.4265447775627
 41
310.5162710370189
 68
     1
 69
     1
1001
ACAD
1000
MVIEW
1002
{
1070
    16
1010
0.0
1020
0.0
1030
0.0
1010
0.0
1020
0.0
1030
1.0
1040
0.0
1040
310.5162710370189
1040
214.0180035944239
1040
154.0201855846002
1040
50.0
1040
0.0
1040
0.0
1070
     0
1070
 10000
1070
     1
1070
     0
1070
     0
1070
     0
1070
     0
1070
     0
1040
0.0
1040
0.0
1040
0.0
1040
10.0
1040
10.0
1040
10.0
1040
10.0
1070
     0
1002
{
1002
}
1002
}
  0
VIEWPORT
  5
30
330
1B
100
AcDbEntity
 67
     1
  8
MYVIEW
100
AcDbViewport
 10
207.4313274472447
 20
146.6688338714809
 30
0.0
 40
414.3908449126611
 41
291.0531579536398
 68
     2
 69
     2
1001
ACAD
1000
MVIEW
1002
{
1070
    16
1010
0.0
1020
0.0
1030
0.0
1010
0.0
1020
0.0
1030
1.0
1040
0.0
1040
582.1063159072796
1040
868.0442025921134
1040
2005.065011618131
1040
50.0
1040
0.0
1040
0.0
1070
     0
1070
 10000
1070
     1
1070
     2
1070
     0
1070
     0
1070
     0
1070
     0
1040
0.0
1040
0.0
1040
0.0
1040
10.0
1040
10.0
1040
10.0
1040
10.0
1070
     0
1002
{
1002
}
1002
}
  0
TEXT
  5
25D
330
1B
100
AcDbEntity
 67
     1
  8
文字１
  6
CONTINUOUS
100
AcDbText
 10
337.6689773544477
 20
11.98502182656193
 30
0.0
 40
7.0
  1
ＳＥ－４９２３０
 41
0.9529999999999999
100
AcDbText
  0
TEXT
  5
54D
330
1B
100
AcDbEntity
 67
     1
  8
WAKUMOJI1
  6
CONTINUOUS
100
AcDbText
 10
144.131927571291
 20
21.39335646759497
 30
0.0
 40
4.0
  1
１～＊
 41
0.625
100
AcDbText
  0
TEXT
  5
54E
330
1B
100
AcDbEntity
 67
     1
  8
WAKUMOJI1
  6
CONTINUOUS
100
AcDbText
 10
136.1333845714824
 20
21.2100231342654
 30
0.0
 40
3.5
  1
Ａ
 72
     1
 11
137.7667179048157
 21
21.2100231342654
 31
0.0
100
AcDbText
  0
TEXT
  5
54F
330
1B
100
AcDbEntity
 67
     1
  8
WAKUMOJI1
  6
CONTINUOUS
100
AcDbText
 10
135.1319275712915
 20
16.39335646759499
 30
0.0
 40
4.0
  1
Ｒ＊－
 41
0.625
100
AcDbText
  0
TEXT
  5
550
330
1B
100
AcDbEntity
 67
     1
  8
WAKUMOJI1
  6
CONTINUOUS
100
AcDbText
 10
160.1627465868908
 20
21.77803427355024
 30
0.0
 40
3.5
  1
＊＊＊＊＊
100
AcDbText
  0
TEXT
  5
551
330
1B
100
AcDbEntity
 67
     1
  8
WAKUMOJI1
  6
CONTINUOUS
100
AcDbText
 10
232.131927571291
 20
16.39335646759499
 30
0.0
 40
3.0
  1
'99.**.**
 41
0.5
100
AcDbText
  0
MTEXT
  5
2DC0A
330
1B
100
AcDbEntity
 67
     1
  8
寸法
 62
     4
 48
0.1
100
AcDbMText
 10
241.8201988387812
 20
29.58908094976584
 30
0.0
 40
6.0
 41
163.5371
 71
     1
 72
     5
  1
{\C7;τｻｰﾎﾞｺﾝﾊﾟｽ R200 MGﾍﾞｰｽ MBD-CN14CA (45°)}
  7
MSｺ_ｼｯｸ-S
1001
ACAD
1000
MTEXTBEGIN
1070
    73
1070
     1
1070
    44
1040
1.0
1070
    74
1070
     0
1000
MTEXTEND
  0
MTEXT
  5
2DC16
330
1B
100
AcDbEntity
 67
     1
  8
寸法
 62
     4
 48
0.1
100
AcDbMText
 10
275.4446439690194
 20
57.08696268437485
 30
0.0
 40
6.0
 41
105.8405999999999
 71
     1
 72
     5
  1

1001
ACAD
1000
MTEXTBEGIN
1070
    73
1070
     1
1070
    44
1040
1.0
1070
    74
1070
     0
1000
MTEXTEND
  0
ENDSEC
  0
SECTION
  2
OBJECTS
  0
DICTIONARY
  5
C
330
0
100
AcDbDictionary
  3
ACAD_GROUP
350
D
  3
ACAD_LAYOUT
350
1A
  3
ACAD_MLINESTYLE
350
17
  3
ACAD_PLOTSETTINGS
350
19
  3
ACAD_PLOTSTYLENAME
350
E
  3
ACDBHEADERROUNDTRIPXREC
350
2DC24
  3
ACDBVARIABLEDICTIONARY
350
72CC
  0
DICTIONARY
  5
2C179
330
2
100
AcDbDictionary
280
     1
  3
ACAD_LAYERFILTERS
360
2C17A
  3
ACAD_LAYERSTATES
360
2C196
  0
DICTIONARY
  5
2DC47
330
1F
100
AcDbDictionary
280
     1
  3
ACAD_LAYOUTSELFREF
360
2DC48
  0
DICTIONARY
  5
2DC45
330
1B
100
AcDbDictionary
280
     1
  3
ACAD_LAYOUTSELFREF
360
2DC46
  0
DICTIONARY
  5
D
102
{ACAD_REACTORS
330
C
102
}
330
C
100
AcDbDictionary
  3
*A1
350
1220
  3
*A10
350
CA67
  3
*A100
350
BA56
  3
*A101
350
1C33
  3
*A102
350
927F
  3
*A103
350
26B28
  3
*A104
350
A2F5
  3
*A105
350
A91C
  3
*A106
350
10CEC
  3
*A107
350
C69D
  3
*A108
350
A0BB
  3
*A109
350
2A88E
  3
*A11
350
2BBFD
  3
*A110
350
B94A
  3
*A111
350
99AF
  3
*A112
350
1A46C
  3
*A113
350
6FF5
  3
*A114
350
CC19
  3
*A115
350
2AA73
  3
*A116
350
27110
  3
*A117
350
2A896
  3
*A118
350
2DAC8
  3
*A119
350
2DAC9
  3
*A12
350
2A3BE
  3
*A120
350
8307
  3
*A121
350
92CC
  3
*A122
350
AA60
  3
*A123
350
C88F
  3
*A124
350
2AD4E
  3
*A125
350
2A3BD
  3
*A126
350
6C31
  3
*A127
350
6FC8
  3
*A128
350
2BC0F
  3
*A129
350
349E
  3
*A13
350
2ABAE
  3
*A130
350
92A7
  3
*A131
350
A4F5
  3
*A132
350
C7BB
  3
*A133
350
92CB
  3
*A134
350
117F
  3
*A135
350
2B688
  3
*A136
350
2538D
  3
*A137
350
2BC08
  3
*A138
350
3ED3
  3
*A139
350
27113
  3
*A14
350
2DA02
  3
*A140
350
6961
  3
*A141
350
2BC0C
  3
*A142
350
6DFB
  3
*A143
350
92A6
  3
*A144
350
1A688
  3
*A145
350
2ABA9
  3
*A146
350
36E7
  3
*A147
350
1A425
  3
*A148
350
248DA
  3
*A149
350
8BB5
  3
*A15
350
2AD4A
  3
*A150
350
AAB1
  3
*A151
350
2D5CF
  3
*A152
350
A962
  3
*A153
350
DCA
  3
*A154
350
27111
  3
*A155
350
2A893
  3
*A156
350
251EB
  3
*A157
350
27112
  3
*A158
350
2AD49
  3
*A159
350
2D5D0
  3
*A16
350
2A8A2
  3
*A160
350
2A88F
  3
*A161
350
9B46
  3
*A162
350
2BBF6
  3
*A163
350
19E9
  3
*A164
350
27114
  3
*A165
350
2BC0A
  3
*A166
350
2ABAD
  3
*A167
350
128B
  3
*A168
350
2ABB0
  3
*A169
350
A966
  3
*A17
350
9C8F
  3
*A170
350
919F
  3
*A171
350
CC1A
  3
*A172
350
920E
  3
*A173
350
2A8A0
  3
*A174
350
27255
  3
*A175
350
2A3B3
  3
*A176
350
2A3AE
  3
*A177
350
C5AE
  3
*A178
350
9367
  3
*A179
350
254DD
  3
*A18
350
2403C
  3
*A180
350
AAAF
  3
*A181
350
8123
  3
*A182
350
7FF2
  3
*A183
350
36E8
  3
*A184
350
6E9B
  3
*A185
350
AA61
  3
*A186
350
2B689
  3
*A187
350
2BC11
  3
*A188
350
AA9F
  3
*A189
350
8BED
  3
*A19
350
6C2D
  3
*A190
350
2AA75
  3
*A191
350
2ABAB
  3
*A192
350
1A7B8
  3
*A193
350
2E19
  3
*A194
350
2A3BA
  3
*A195
350
418F
  3
*A196
350
2710F
  3
*A197
350
B949
  3
*A198
350
917A
  3
*A199
350
12AA
  3
*A2
350
AF2A
  3
*A20
350
2DA03
  3
*A200
350
2BC01
  3
*A201
350
1D708
  3
*A202
350
3101
  3
*A203
350
A107
  3
*A204
350
D724
  3
*A205
350
C538
  3
*A206
350
15E1
  3
*A207
350
248AD
  3
*A208
350
CB80
  3
*A209
350
190B
  3
*A21
350
1C56
  3
*A210
350
2A895
  3
*A211
350
4FA2
  3
*A212
350
1207
  3
*A213
350
695F
  3
*A214
350
D69A
  3
*A215
350
7FF8
  3
*A216
350
7074
  3
*A217
350
6FC2
  3
*A218
350
D820
  3
*A219
350
9132
  3
*A22
350
4502
  3
*A220
350
6C2B
  3
*A221
350
6CCC
  3
*A222
350
117E
  3
*A223
350
A53E
  3
*A224
350
2B690
  3
*A225
350
2A3BB
  3
*A226
350
A4F2
  3
*A227
350
A329
  3
*A228
350
93C3
  3
*A229
350
B1F2
  3
*A23
350
939C
  3
*A230
350
2AA72
  3
*A231
350
2CF97
  3
*A232
350
AAAE
  3
*A233
350
2A3B1
  3
*A234
350
9282
  3
*A235
350
2D1DF
  3
*A236
350
2495D
  3
*A237
350
2A3B2
  3
*A238
350
34DC
  3
*A239
350
B948
  3
*A24
350
2D910
  3
*A240
350
8166
  3
*A241
350
254B7
  3
*A242
350
9933
  3
*A243
350
6C2E
  3
*A244
350
16DA
  3
*A245
350
C1CA
  3
*A246
350
2BC0E
  3
*A247
350
2A892
  3
*A248
350
2C947
  3
*A249
350
D5EB
  3
*A25
350
BA57
  3
*A250
350
DE6
  3
*A251
350
2494E
  3
*A252
350
A53F
  3
*A253
350
A336
  3
*A254
350
BEE2
  3
*A255
350
830B
  3
*A256
350
90E7
  3
*A257
350
2BBFE
  3
*A258
350
2BC10
  3
*A259
350
27271
  3
*A26
350
B974
  3
*A260
350
7FF3
  3
*A261
350
19D1
  3
*A262
350
6355
  3
*A263
350
2B68F
  3
*A264
350
2BC00
  3
*A265
350
1A5A
  3
*A266
350
2ABA7
  3
*A267
350
8306
  3
*A268
350
2787F
  3
*A269
350
12D2
  3
*A27
350
251ED
  3
*A270
350
AAB0
  3
*A271
350
1D706
  3
*A272
350
2496C
  3
*A273
350
27115
  3
*A274
350
80FE
  3
*A275
350
3DBF
  3
*A276
350
2B68E
  3
*A277
350
91A0
  3
*A278
350
251EC
  3
*A279
350
1A85
  3
*A28
350
2A88D
  3
*A280
350
1C7E3
  3
*A281
350
19BED
  3
*A282
350
920F
  3
*A283
350
34A0
  3
*A284
350
24930
  3
*A285
350
2AA7B
  3
*A286
350
2AD4C
  3
*A287
350
148A6
  3
*A288
350
A919
  3
*A289
350
26CA0
  3
*A29
350
2A3B7
  3
*A290
350
8124
  3
*A291
350
26F10
  3
*A292
350
6FA2
  3
*A293
350
45D7
  3
*A294
350
6F90
  3
*A295
350
2CFAB
  3
*A296
350
B947
  3
*A297
350
2B691
  3
*A298
350
2AA71
  3
*A299
350
80FD
  3
*A3
350
295E0
  3
*A30
350
2ABA8
  3
*A300
350
80D7
  3
*A301
350
3102
  3
*A302
350
3DA0
  3
*A303
350
24D71
  3
*A304
350
2BC03
  3
*A305
350
12F1
  3
*A306
350
1152
  3
*A307
350
45DB
  3
*A308
350
24F0C
  3
*A309
350
3443
  3
*A31
350
639C
  3
*A310
350
4501
  3
*A311
350
9130
  3
*A312
350
A2ED
  3
*A313
350
2A3AB
  3
*A314
350
297E8
  3
*A315
350
2ABA6
  3
*A316
350
2BC06
  3
*A317
350
6623
  3
*A318
350
8076
  3
*A319
350
91C4
  3
*A32
350
2BBFF
  3
*A320
350
2CFB2
  3
*A321
350
349F
  3
*A322
350
1153
  3
*A323
350
2D1E0
  3
*A324
350
D4D4
  3
*A325
350
2A3B6
  3
*A326
350
2A3AA
  3
*A327
350
16BB
  3
*A328
350
1A5B
  3
*A329
350
2BBFA
  3
*A33
350
9131
  3
*A330
350
2BBF9
  3
*A331
350
6565
  3
*A332
350
2AA77
  3
*A333
350
91C5
  3
*A334
350
1208
  3
*A335
350
7FF4
  3
*A336
350
2BC07
  3
*A337
350
4190
  3
*A338
350
BB10
  3
*A339
350
920C
  3
*A34
350
6E9D
  3
*A340
350
A2F4
  3
*A341
350
26D96
  3
*A342
350
BF7B
  3
*A343
350
24921
  3
*A344
350
2C169
  3
*A345
350
1A15
  3
*A346
350
6C9C
  3
*A347
350
1A12B
  3
*A348
350
2AA76
  3
*A349
350
A331
  3
*A35
350
A5B4
  3
*A350
350
2A3B8
  3
*A351
350
2A3BC
  3
*A352
350
A4F4
  3
*A353
350
2DB5C
  3
*A354
350
2DBA7
  3
*A355
350
2AA70
  3
*A356
350
2AD4F
  3
*A357
350
2D1E2
  3
*A358
350
18F3
  3
*A359
350
2A890
  3
*A36
350
2AD4D
  3
*A360
350
A2EC
  3
*A361
350
2493F
  3
*A362
350
639B
  3
*A363
350
A591
  3
*A364
350
287E6
  3
*A365
350
2A3B4
  3
*A366
350
36C8
  3
*A367
350
3442
  3
*A368
350
2AD50
  3
*A369
350
2A89C
  3
*A37
350
1A689
  3
*A370
350
93C4
  3
*A371
350
2A3B9
  3
*A372
350
9C4A
  3
*A373
350
2A89D
  3
*A374
350
63E1
  3
*A375
350
2BBF8
  3
*A376
350
B94B
  3
*A377
350
248BC
  3
*A378
350
2489E
  3
*A379
350
2ABAA
  3
*A38
350
295E1
  3
*A380
350
2AA6F
  3
*A381
350
28676
  3
*A382
350
CCA0
  3
*A383
350
1C64C
  3
*A384
350
2D90D
  3
*A385
350
37C8
  3
*A386
350
2AD51
  3
*A387
350
D74A
  3
*A388
350
2BC12
  3
*A389
350
2ABB1
  3
*A39
350
2A3AF
  3
*A390
350
2A3AD
  3
*A391
350
63BF
  3
*A392
350
2BC0D
  3
*A393
350
251EE
  3
*A394
350
8CD0
  3
*A395
350
B946
  3
*A396
350
26FE7
  3
*A397
350
6569
  3
*A398
350
24CEA
  3
*A399
350
BF05
  3
*A4
350
939D
  3
*A40
350
80D6
  3
*A400
350
2A3B5
  3
*A401
350
C536
  3
*A402
350
D6FD
  3
*A403
350
2D90E
  3
*A404
350
25370
  3
*A405
350
639D
  3
*A406
350
2CFAC
  3
*A407
350
12F2
  3
*A408
350
1A89
  3
*A409
350
2BC05
  3
*A41
350
BFA9
  3
*A410
350
2AA78
  3
*A411
350
2A3BF
  3
*A412
350
4199
  3
*A413
350
BFA7
  3
*A414
350
126C
  3
*A415
350
2A3AC
  3
*A416
350
2A89A
  3
*A417
350
2ABAC
  3
*A418
350
2AD52
  3
*A419
350
A56E
  3
*A42
350
24DF6
  3
*A420
350
2BC04
  3
*A421
350
A56C
  3
*A422
350
BFA8
  3
*A423
350
2AD48
  3
*A424
350
1BC3
  3
*A425
350
6356
  3
*A426
350
2A8A1
  3
*A427
350
9B47
  3
*A428
350
D8D7
  3
*A429
350
2AD46
  3
*A43
350
1101D
  3
*A430
350
6962
  3
*A431
350
2B14B
  3
*A432
350
2AD4B
  3
*A433
350
2AA79
  3
*A434
350
6C2C
  3
*A435
350
2A898
  3
*A436
350
2D90F
  3
*A437
350
CC5E
  3
*A438
350
8122
  3
*A439
350
2A89F
  3
*A44
350
1A12A
  3
*A440
350
2BC13
  3
*A441
350
2A88C
  3
*A442
350
BF76
  3
*A443
350
8BB3
  3
*A444
350
A4F0
  3
*A445
350
2ABAF
  3
*A446
350
2BBF7
  3
*A45
350
2ABA5
  3
*A46
350
2A891
  3
*A47
350
C410
  3
*A48
350
2D4EA
  3
*A49
350
D6FC
  3
*A5
350
6960
  3
*A50
350
2D59A
  3
*A51
350
9935
  3
*A52
350
2CFB1
  3
*A53
350
10EBD
  3
*A54
350
AAA0
  3
*A55
350
2404B
  3
*A56
350
8CD1
  3
*A57
350
2A3B0
  3
*A58
350
2A899
  3
*A59
350
2AD47
  3
*A6
350
A4F1
  3
*A60
350
2BC14
  3
*A61
350
AFF4
  3
*A62
350
2A894
  3
*A63
350
B973
  3
*A64
350
148A7
  3
*A65
350
297E9
  3
*A66
350
A332
  3
*A67
350
2AA7A
  3
*A68
350
2B443
  3
*A69
350
2A897
  3
*A7
350
2BBFC
  3
*A70
350
2538E
  3
*A71
350
A986
  3
*A72
350
248CB
  3
*A73
350
6FB1
  3
*A74
350
19794
  3
*A75
350
920D
  3
*A76
350
2A89E
  3
*A77
350
662F
  3
*A78
350
99B0
  3
*A79
350
29739
  3
*A8
350
AA9E
  3
*A80
350
9C90
  3
*A81
350
27994
  3
*A82
350
A4F3
  3
*A83
350
1C0D
  3
*A84
350
CB94
  3
*A85
350
2BC02
  3
*A86
350
2BC09
  3
*A87
350
BB55
  3
*A88
350
6AB6
  3
*A89
350
6CF7
  3
*A9
350
1C73
  3
*A90
350
1D705
  3
*A91
350
B351
  3
*A92
350
C1E4
  3
*A93
350
9936
  3
*A94
350
29738
  3
*A95
350
2BBFB
  3
*A96
350
2BC0B
  3
*A97
350
80FC
  3
*A98
350
27116
  3
*A99
350
2880B
  0
DICTIONARY
  5
1A
102
{ACAD_REACTORS
330
C
102
}
330
C
100
AcDbDictionary
  0
DICTIONARY
  5
17
102
{ACAD_REACTORS
330
C
102
}
330
C
100
AcDbDictionary
  3
STANDARD
350
18
  0
DICTIONARY
  5
19
102
{ACAD_REACTORS
330
C
102
}
330
C
100
AcDbDictionary
  0
ACDBDICTIONARYWDFLT
  5
E
102
{ACAD_REACTORS
330
C
102
}
330
C
100
AcDbDictionary
281
     1
  3
Normal
350
F
100
AcDbDictionaryWithDefault
340
F
  0
DICTIONARY
  5
2DC24
102
{ACAD_REACTORS
330
C
102
}
330
C
100
AcDbDictionary
  3
CEPSNTYPE
350
2DC2E
  3
DIMSTYLEDATA
350
2DC32
  3
FINGERPRINTGUID
350
2DC2F
  3
HYPERLINKBASE
350
2DC27
  3
INSUNITS
350
2DC2D
  3
LAYOUTDICT
350
2DC29
  3
LWETCUNION
350
2DC2C
  3
PLOTSETDICT
350
2DC2A
  3
PLOTSTYLNAMDICT
350
2DC2B
  3
PSVPSCALE
350
2DC31
  3
PUCSBASE
350
2DC35
  3
PUCSORGBACK
350
2DC3B
  3
PUCSORGBOTTOM
350
2DC37
  3
PUCSORGFRONT
350
2DC3A
  3
PUCSORGLEFT
350
2DC38
  3
PUCSORGRIGHT
350
2DC39
  3
PUCSORGTOP
350
2DC36
  3
PUCSORTHOREF
350
2DC33
  3
PUCSORTHOVIEW
350
2DC34
  3
STYLESHEET
350
2DC28
  3
TSTACKALIGN
350
2DC25
  3
TSTACKSIZE
350
2DC26
  3
UCSBASE
350
2DC3E
  3
UCSORGBACK
350
2DC44
  3
UCSORGBOTTOM
350
2DC40
  3
UCSORGFRONT
350
2DC43
  3
UCSORGLEFT
350
2DC41
  3
UCSORGRIGHT
350
2DC42
  3
UCSORGTOP
350
2DC3F
  3
UCSORTHOREF
350
2DC3C
  3
UCSORTHOVIEW
350
2DC3D
  3
VERSIONGUID
350
2DC30
  0
DICTIONARY
  5
72CC
102
{ACAD_REACTORS
330
C
102
}
330
C
100
AcDbDictionary
  3
DIMASSOC
350
2DBF6
  3
SORTENTS
350
72CD
  0
DICTIONARY
  5
2C17A
102
{ACAD_REACTORS
330
2C179
102
}
330
2C179
100
AcDbDictionary
280
     1
  3
0
360
2C17B
  3
11
360
2C17C
  3
150_
360
2C17D
  3
160_
360
2C17E
  3
170_
360
2C17F
  3
171_
360
2C180
  3
350_
360
2C181
  3
4
360
2C182
  3
5
360
2C183
  3
7
360
2C184
  3
KISEKI
360
2C185
  0
DICTIONARY
  5
2C196
102
{ACAD_REACTORS
330
2C179
102
}
330
2C179
100
AcDbDictionary
  0
XRECORD
  5
2DC48
102
{ACAD_REACTORS
330
2DC47
102
}
330
2DC47
100
AcDbXrecord
340
1F
  0
XRECORD
  5
2DC46
102
{ACAD_REACTORS
330
2DC45
102
}
330
2DC45
100
AcDbXrecord
340
1B
  0
GROUP
  5
1220
102
{ACAD_REACTORS
330
D
102
}
330
D
100
AcDbGroup
300

 70
     1
 71
     1
  0
GROUP
  5
CA67
102
{ACAD_REACTORS
330
D
102
}
330
D
100
AcDbGroup
300

 70
     1
 71
     1
  0
GROUP
  5
BA56
102
{ACAD_REACTORS
330
D
102
}
330
D
100
AcDbGroup
300

 70
     1
 71
     1
  0
GROUP
  5
1C33
102
{ACAD_REACTORS
330
D
102
}
330
D
100
AcDbGroup
300

 70
     1
 71
     1
  0
GROUP
  5
927F
102
{ACAD_REACTORS
330
D
102
}
330
D
100
AcDbGroup
300

 70
     1
 71
     1
  0
GROUP
  5
26B28
102
{ACAD_REACTORS
330
D
102
}
330
D
100
AcDbGroup
300

 70
     1
 71
     1
  0
GROUP
  5
A2F5
102
{ACAD_REACTORS
330
D
102
}
330
D
100
AcDbGroup
300

 70
     1
 71
     1
  0
GROUP
  5
A91C
102
{ACAD_REACTORS
330
D
102
}
330
D
100
AcDbGroup
300

 70
     1
 71
     1
  0
GROUP
  5
10CEC
102
{ACAD_REACTORS
330
D
102
}
330
D
100
AcDbGroup
300

 70
     1
 71
     1
  0
GROUP
  5
C69D
102
{ACAD_REACTORS
330
D
102
}
330
D
100
AcDbGroup
300

 70
     1
 71
     1
  0
GROUP
  5
A0BB
102
{ACAD_REACTORS
330
D
102
}
330
D
100
AcDbGroup
300

 70
     1
 71
     1
  0
GROUP
  5
2A88E
102
{ACAD_REACTORS
330
D
102
}
330
D
100
AcDbGroup
300

 70
     1
 71
     1
  0
GROUP
  5
2BBFD
102
{ACAD_REACTORS
330
D
102
}
330
D
100
AcDbGroup
300

 70
     1
 71
     1
  0
GROUP
  5
B94A
102
{ACAD_REACTORS
330
D
102
}
330
D
100
AcDbGroup
300

 70
     1
 71
     1
  0
GROUP
  5
99AF
102
{ACAD_REACTORS
330
D
102
}
330
D
100
AcDbGroup
300

 70
     1
 71
     1
  0
GROUP
  5
1A46C
102
{ACAD_REACTORS
330
D
102
}
330
D
100
AcDbGroup
300

 70
     1
 71
     1
  0
GROUP
  5
6FF5
102
{ACAD_REACTORS
330
D
102
}
330
D
100
AcDbGroup
300

 70
     1
 71
     1
  0
GROUP
  5
CC19
102
{ACAD_REACTORS
330
D
102
}
330
D
100
AcDbGroup
300

 70
     1
 71
     1
  0
GROUP
  5
2AA73
102
{ACAD_REACTORS
330
D
102
}
330
D
100
AcDbGroup
300

 70
     1
 71
     1
  0
GROUP
  5
27110
102
{ACAD_REACTORS
330
D
102
}
330
D
100
AcDbGroup
300

 70
     1
 71
     1
  0
GROUP
  5
2A896
102
{ACAD_REACTORS
330
D
102
}
330
D
100
AcDbGroup
300

 70
     1
 71
     1
  0
GROUP
  5
2DAC8
102
{ACAD_REACTORS
330
D
102
}
330
D
100
AcDbGroup
300

 70
     1
 71
     1
  0
GROUP
  5
2DAC9
102
{ACAD_REACTORS
330
D
102
}
330
D
100
AcDbGroup
300

 70
     1
 71
     1
  0
GROUP
  5
2A3BE
102
{ACAD_REACTORS
330
D
102
}
330
D
100
AcDbGroup
300

 70
     1
 71
     1
  0
GROUP
  5
8307
102
{ACAD_REACTORS
330
D
102
}
330
D
100
AcDbGroup
300

 70
     1
 71
     1
  0
GROUP
  5
92CC
102
{ACAD_REACTORS
330
D
102
}
330
D
100
AcDbGroup
300

 70
     1
 71
     1
  0
GROUP
  5
AA60
102
{ACAD_REACTORS
330
D
102
}
330
D
100
AcDbGroup
300

 70
     1
 71
     1
  0
GROUP
  5
C88F
102
{ACAD_REACTORS
330
D
102
}
330
D
100
AcDbGroup
300

 70
     1
 71
     1
  0
GROUP
  5
2AD4E
102
{ACAD_REACTORS
330
D
102
}
330
D
100
AcDbGroup
300

 70
     1
 71
     1
  0
GROUP
  5
2A3BD
102
{ACAD_REACTORS
330
D
102
}
330
D
100
AcDbGroup
300

 70
     1
 71
     1
  0
GROUP
  5
6C31
102
{ACAD_REACTORS
330
D
102
}
330
D
100
AcDbGroup
300

 70
     1
 71
     1
  0
GROUP
  5
6FC8
102
{ACAD_REACTORS
330
D
102
}
330
D
100
AcDbGroup
300

 70
     1
 71
     1
  0
GROUP
  5
2BC0F
102
{ACAD_REACTORS
330
D
102
}
330
D
100
AcDbGroup
300

 70
     1
 71
     1
  0
GROUP
  5
349E
102
{ACAD_REACTORS
330
D
102
}
330
D
100
AcDbGroup
300

 70
     1
 71
     1
  0
GROUP
  5
2ABAE
102
{ACAD_REACTORS
330
D
102
}
330
D
100
AcDbGroup
300

 70
     1
 71
     1
  0
GROUP
  5
92A7
102
{ACAD_REACTORS
330
D
102
}
330
D
100
AcDbGroup
300

 70
     1
 71
     1
  0
GROUP
  5
A4F5
102
{ACAD_REACTORS
330
D
102
}
330
D
100
AcDbGroup
300

 70
     1
 71
     1
  0
GROUP
  5
C7BB
102
{ACAD_REACTORS
330
D
102
}
330
D
100
AcDbGroup
300

 70
     1
 71
     1
  0
GROUP
  5
92CB
102
{ACAD_REACTORS
330
D
102
}
330
D
100
AcDbGroup
300

 70
     1
 71
     1
  0
GROUP
  5
117F
102
{ACAD_REACTORS
330
D
102
}
330
D
100
AcDbGroup
300

 70
     1
 71
     1
  0
GROUP
  5
2B688
102
{ACAD_REACTORS
330
D
102
}
330
D
100
AcDbGroup
300

 70
     1
 71
     1
  0
GROUP
  5
2538D
102
{ACAD_REACTORS
330
D
102
}
330
D
100
AcDbGroup
300

 70
     1
 71
     1
  0
GROUP
  5
2BC08
102
{ACAD_REACTORS
330
D
102
}
330
D
100
AcDbGroup
300

 70
     1
 71
     1
  0
GROUP
  5
3ED3
102
{ACAD_REACTORS
330
D
102
}
330
D
100
AcDbGroup
300

 70
     1
 71
     1
  0
GROUP
  5
27113
102
{ACAD_REACTORS
330
D
102
}
330
D
100
AcDbGroup
300

 70
     1
 71
     1
  0
GROUP
  5
2DA02
102
{ACAD_REACTORS
330
D
102
}
330
D
100
AcDbGroup
300

 70
     1
 71
     1
340
2D9DA
340
2D9DB
340
2D9D9
340
2D9EE
340
2D9EC
340
2D9E3
340
2D9DF
340
2D9DE
340
2D9DD
  0
GROUP
  5
6961
102
{ACAD_REACTORS
330
D
102
}
330
D
100
AcDbGroup
300

 70
     1
 71
     1
  0
GROUP
  5
2BC0C
102
{ACAD_REACTORS
330
D
102
}
330
D
100
AcDbGroup
300

 70
     1
 71
     1
  0
GROUP
  5
6DFB
102
{ACAD_REACTORS
330
D
102
}
330
D
100
AcDbGroup
300

 70
     1
 71
     1
  0
GROUP
  5
92A6
102
{ACAD_REACTORS
330
D
102
}
330
D
100
AcDbGroup
300

 70
     1
 71
     1
  0
GROUP
  5
1A688
102
{ACAD_REACTORS
330
D
102
}
330
D
100
AcDbGroup
300

 70
     1
 71
     1
  0
GROUP
  5
2ABA9
102
{ACAD_REACTORS
330
D
102
}
330
D
100
AcDbGroup
300

 70
     1
 71
     1
  0
GROUP
  5
36E7
102
{ACAD_REACTORS
330
D
102
}
330
D
100
AcDbGroup
300

 70
     1
 71
     1
  0
GROUP
  5
1A425
102
{ACAD_REACTORS
330
D
102
}
330
D
100
AcDbGroup
300

 70
     1
 71
     1
  0
GROUP
  5
248DA
102
{ACAD_REACTORS
330
D
102
}
330
D
100
AcDbGroup
300

 70
     1
 71
     1
  0
GROUP
  5
8BB5
102
{ACAD_REACTORS
330
D
102
}
330
D
100
AcDbGroup
300

 70
     1
 71
     1
  0
GROUP
  5
2AD4A
102
{ACAD_REACTORS
330
D
102
}
330
D
100
AcDbGroup
300

 70
     1
 71
     1
  0
GROUP
  5
AAB1
102
{ACAD_REACTORS
330
D
102
}
330
D
100
AcDbGroup
300

 70
     1
 71
     1
  0
GROUP
  5
2D5CF
102
{ACAD_REACTORS
330
D
102
}
330
D
100
AcDbGroup
300

 70
     1
 71
     1
  0
GROUP
  5
A962
102
{ACAD_REACTORS
330
D
102
}
330
D
100
AcDbGroup
300

 70
     1
 71
     1
  0
GROUP
  5
DCA
102
{ACAD_REACTORS
330
D
102
}
330
D
100
AcDbGroup
300

 70
     1
 71
     1
  0
GROUP
  5
27111
102
{ACAD_REACTORS
330
D
102
}
330
D
100
AcDbGroup
300

 70
     1
 71
     1
  0
GROUP
  5
2A893
102
{ACAD_REACTORS
330
D
102
}
330
D
100
AcDbGroup
300

 70
     1
 71
     1
  0
GROUP
  5
251EB
102
{ACAD_REACTORS
330
D
102
}
330
D
100
AcDbGroup
300

 70
     1
 71
     1
  0
GROUP
  5
27112
102
{ACAD_REACTORS
330
D
102
}
330
D
100
AcDbGroup
300

 70
     1
 71
     1
  0
GROUP
  5
2AD49
102
{ACAD_REACTORS
330
D
102
}
330
D
100
AcDbGroup
300

 70
     1
 71
     1
  0
GROUP
  5
2D5D0
102
{ACAD_REACTORS
330
D
102
}
330
D
100
AcDbGroup
300

 70
     1
 71
     1
  0
GROUP
  5
2A8A2
102
{ACAD_REACTORS
330
D
102
}
330
D
100
AcDbGroup
300

 70
     1
 71
     1
  0
GROUP
  5
2A88F
102
{ACAD_REACTORS
330
D
102
}
330
D
100
AcDbGroup
300

 70
     1
 71
     1
  0
GROUP
  5
9B46
102
{ACAD_REACTORS
330
D
102
}
330
D
100
AcDbGroup
300

 70
     1
 71
     1
  0
GROUP
  5
2BBF6
102
{ACAD_REACTORS
330
D
102
}
330
D
100
AcDbGroup
300

 70
     1
 71
     1
  0
GROUP
  5
19E9
102
{ACAD_REACTORS
330
D
102
}
330
D
100
AcDbGroup
300

 70
     1
 71
     1
  0
GROUP
  5
27114
102
{ACAD_REACTORS
330
D
102
}
330
D
100
AcDbGroup
300

 70
     1
 71
     1
  0
GROUP
  5
2BC0A
102
{ACAD_REACTORS
330
D
102
}
330
D
100
AcDbGroup
300

 70
     1
 71
     1
  0
GROUP
  5
2ABAD
102
{ACAD_REACTORS
330
D
102
}
330
D
100
AcDbGroup
300

 70
     1
 71
     1
  0
GROUP
  5
128B
102
{ACAD_REACTORS
330
D
102
}
330
D
100
AcDbGroup
300

 70
     1
 71
     1
  0
GROUP
  5
2ABB0
102
{ACAD_REACTORS
330
D
102
}
330
D
100
AcDbGroup
300

 70
     1
 71
     1
  0
GROUP
  5
A966
102
{ACAD_REACTORS
330
D
102
}
330
D
100
AcDbGroup
300

 70
     1
 71
     1
  0
GROUP
  5
9C8F
102
{ACAD_REACTORS
330
D
102
}
330
D
100
AcDbGroup
300

 70
     1
 71
     1
  0
GROUP
  5
919F
102
{ACAD_REACTORS
330
D
102
}
330
D
100
AcDbGroup
300

 70
     1
 71
     1
  0
GROUP
  5
CC1A
102
{ACAD_REACTORS
330
D
102
}
330
D
100
AcDbGroup
300

 70
     1
 71
     1
  0
GROUP
  5
920E
102
{ACAD_REACTORS
330
D
102
}
330
D
100
AcDbGroup
300

 70
     1
 71
     1
  0
GROUP
  5
2A8A0
102
{ACAD_REACTORS
330
D
102
}
330
D
100
AcDbGroup
300

 70
     1
 71
     1
  0
GROUP
  5
27255
102
{ACAD_REACTORS
330
D
102
}
330
D
100
AcDbGroup
300

 70
     1
 71
     1
  0
GROUP
  5
2A3B3
102
{ACAD_REACTORS
330
D
102
}
330
D
100
AcDbGroup
300

 70
     1
 71
     1
  0
GROUP
  5
2A3AE
102
{ACAD_REACTORS
330
D
102
}
330
D
100
AcDbGroup
300

 70
     1
 71
     1
  0
GROUP
  5
C5AE
102
{ACAD_REACTORS
330
D
102
}
330
D
100
AcDbGroup
300

 70
     1
 71
     1
  0
GROUP
  5
9367
102
{ACAD_REACTORS
330
D
102
}
330
D
100
AcDbGroup
300

 70
     1
 71
     1
  0
GROUP
  5
254DD
102
{ACAD_REACTORS
330
D
102
}
330
D
100
AcDbGroup
300

 70
     1
 71
     1
  0
GROUP
  5
2403C
102
{ACAD_REACTORS
330
D
102
}
330
D
100
AcDbGroup
300

 70
     1
 71
     1
  0
GROUP
  5
AAAF
102
{ACAD_REACTORS
330
D
102
}
330
D
100
AcDbGroup
300

 70
     1
 71
     1
  0
GROUP
  5
8123
102
{ACAD_REACTORS
330
D
102
}
330
D
100
AcDbGroup
300

 70
     1
 71
     1
  0
GROUP
  5
7FF2
102
{ACAD_REACTORS
330
D
102
}
330
D
100
AcDbGroup
300

 70
     1
 71
     1
  0
GROUP
  5
36E8
102
{ACAD_REACTORS
330
D
102
}
330
D
100
AcDbGroup
300

 70
     1
 71
     1
  0
GROUP
  5
6E9B
102
{ACAD_REACTORS
330
D
102
}
330
D
100
AcDbGroup
300

 70
     1
 71
     1
  0
GROUP
  5
AA61
102
{ACAD_REACTORS
330
D
102
}
330
D
100
AcDbGroup
300

 70
     1
 71
     1
  0
GROUP
  5
2B689
102
{ACAD_REACTORS
330
D
102
}
330
D
100
AcDbGroup
300

 70
     1
 71
     1
  0
GROUP
  5
2BC11
102
{ACAD_REACTORS
330
D
102
}
330
D
100
AcDbGroup
300

 70
     1
 71
     1
  0
GROUP
  5
AA9F
102
{ACAD_REACTORS
330
D
102
}
330
D
100
AcDbGroup
300

 70
     1
 71
     1
  0
GROUP
  5
8BED
102
{ACAD_REACTORS
330
D
102
}
330
D
100
AcDbGroup
300

 70
     1
 71
     1
  0
GROUP
  5
6C2D
102
{ACAD_REACTORS
330
D
102
}
330
D
100
AcDbGroup
300

 70
     1
 71
     1
  0
GROUP
  5
2AA75
102
{ACAD_REACTORS
330
D
102
}
330
D
100
AcDbGroup
300

 70
     1
 71
     1
  0
GROUP
  5
2ABAB
102
{ACAD_REACTORS
330
D
102
}
330
D
100
AcDbGroup
300

 70
     1
 71
     1
  0
GROUP
  5
1A7B8
102
{ACAD_REACTORS
330
D
102
}
330
D
100
AcDbGroup
300

 70
     1
 71
     1
  0
GROUP
  5
2E19
102
{ACAD_REACTORS
330
D
102
}
330
D
100
AcDbGroup
300

 70
     1
 71
     1
  0
GROUP
  5
2A3BA
102
{ACAD_REACTORS
330
D
102
}
330
D
100
AcDbGroup
300

 70
     1
 71
     1
  0
GROUP
  5
418F
102
{ACAD_REACTORS
330
D
102
}
330
D
100
AcDbGroup
300

 70
     1
 71
     1
  0
GROUP
  5
2710F
102
{ACAD_REACTORS
330
D
102
}
330
D
100
AcDbGroup
300

 70
     1
 71
     1
  0
GROUP
  5
B949
102
{ACAD_REACTORS
330
D
102
}
330
D
100
AcDbGroup
300

 70
     1
 71
     1
  0
GROUP
  5
917A
102
{ACAD_REACTORS
330
D
102
}
330
D
100
AcDbGroup
300

 70
     1
 71
     1
  0
GROUP
  5
12AA
102
{ACAD_REACTORS
330
D
102
}
330
D
100
AcDbGroup
300

 70
     1
 71
     1
  0
GROUP
  5
AF2A
102
{ACAD_REACTORS
330
D
102
}
330
D
100
AcDbGroup
300

 70
     1
 71
     1
  0
GROUP
  5
2DA03
102
{ACAD_REACTORS
330
D
102
}
330
D
100
AcDbGroup
300

 70
     1
 71
     1
340
2D9F1
340
2D9F0
  0
GROUP
  5
2BC01
102
{ACAD_REACTORS
330
D
102
}
330
D
100
AcDbGroup
300

 70
     1
 71
     1
  0
GROUP
  5
1D708
102
{ACAD_REACTORS
330
D
102
}
330
D
100
AcDbGroup
300

 70
     1
 71
     1
  0
GROUP
  5
3101
102
{ACAD_REACTORS
330
D
102
}
330
D
100
AcDbGroup
300

 70
     1
 71
     1
  0
GROUP
  5
A107
102
{ACAD_REACTORS
330
D
102
}
330
D
100
AcDbGroup
300

 70
     1
 71
     1
  0
GROUP
  5
D724
102
{ACAD_REACTORS
330
D
102
}
330
D
100
AcDbGroup
300

 70
     1
 71
     1
  0
GROUP
  5
C538
102
{ACAD_REACTORS
330
D
102
}
330
D
100
AcDbGroup
300

 70
     1
 71
     1
  0
GROUP
  5
15E1
102
{ACAD_REACTORS
330
D
102
}
330
D
100
AcDbGroup
300

 70
     1
 71
     1
  0
GROUP
  5
248AD
102
{ACAD_REACTORS
330
D
102
}
330
D
100
AcDbGroup
300

 70
     1
 71
     1
  0
GROUP
  5
CB80
102
{ACAD_REACTORS
330
D
102
}
330
D
100
AcDbGroup
300

 70
     1
 71
     1
  0
GROUP
  5
190B
102
{ACAD_REACTORS
330
D
102
}
330
D
100
AcDbGroup
300

 70
     1
 71
     1
  0
GROUP
  5
1C56
102
{ACAD_REACTORS
330
D
102
}
330
D
100
AcDbGroup
300

 70
     1
 71
     1
  0
GROUP
  5
2A895
102
{ACAD_REACTORS
330
D
102
}
330
D
100
AcDbGroup
300

 70
     1
 71
     1
  0
GROUP
  5
4FA2
102
{ACAD_REACTORS
330
D
102
}
330
D
100
AcDbGroup
300

 70
     1
 71
     1
  0
GROUP
  5
1207
102
{ACAD_REACTORS
330
D
102
}
330
D
100
AcDbGroup
300

 70
     1
 71
     1
  0
GROUP
  5
695F
102
{ACAD_REACTORS
330
D
102
}
330
D
100
AcDbGroup
300

 70
     1
 71
     1
  0
GROUP
  5
D69A
102
{ACAD_REACTORS
330
D
102
}
330
D
100
AcDbGroup
300

 70
     1
 71
     1
  0
GROUP
  5
7FF8
102
{ACAD_REACTORS
330
D
102
}
330
D
100
AcDbGroup
300

 70
     1
 71
     1
  0
GROUP
  5
7074
102
{ACAD_REACTORS
330
D
102
}
330
D
100
AcDbGroup
300

 70
     1
 71
     1
  0
GROUP
  5
6FC2
102
{ACAD_REACTORS
330
D
102
}
330
D
100
AcDbGroup
300

 70
     1
 71
     1
  0
GROUP
  5
D820
102
{ACAD_REACTORS
330
D
102
}
330
D
100
AcDbGroup
300

 70
     1
 71
     1
  0
GROUP
  5
9132
102
{ACAD_REACTORS
330
D
102
}
330
D
100
AcDbGroup
300

 70
     1
 71
     1
  0
GROUP
  5
4502
102
{ACAD_REACTORS
330
D
102
}
330
D
100
AcDbGroup
300

 70
     1
 71
     1
  0
GROUP
  5
6C2B
102
{ACAD_REACTORS
330
D
102
}
330
D
100
AcDbGroup
300

 70
     1
 71
     1
  0
GROUP
  5
6CCC
102
{ACAD_REACTORS
330
D
102
}
330
D
100
AcDbGroup
300

 70
     1
 71
     1
  0
GROUP
  5
117E
102
{ACAD_REACTORS
330
D
102
}
330
D
100
AcDbGroup
300

 70
     1
 71
     1
  0
GROUP
  5
A53E
102
{ACAD_REACTORS
330
D
102
}
330
D
100
AcDbGroup
300

 70
     1
 71
     1
  0
GROUP
  5
2B690
102
{ACAD_REACTORS
330
D
102
}
330
D
100
AcDbGroup
300

 70
     1
 71
     1
  0
GROUP
  5
2A3BB
102
{ACAD_REACTORS
330
D
102
}
330
D
100
AcDbGroup
300

 70
     1
 71
     1
  0
GROUP
  5
A4F2
102
{ACAD_REACTORS
330
D
102
}
330
D
100
AcDbGroup
300

 70
     1
 71
     1
  0
GROUP
  5
A329
102
{ACAD_REACTORS
330
D
102
}
330
D
100
AcDbGroup
300

 70
     1
 71
     1
  0
GROUP
  5
93C3
102
{ACAD_REACTORS
330
D
102
}
330
D
100
AcDbGroup
300

 70
     1
 71
     1
  0
GROUP
  5
B1F2
102
{ACAD_REACTORS
330
D
102
}
330
D
100
AcDbGroup
300

 70
     1
 71
     1
  0
GROUP
  5
939C
102
{ACAD_REACTORS
330
D
102
}
330
D
100
AcDbGroup
300

 70
     1
 71
     1
  0
GROUP
  5
2AA72
102
{ACAD_REACTORS
330
D
102
}
330
D
100
AcDbGroup
300

 70
     1
 71
     1
  0
GROUP
  5
2CF97
102
{ACAD_REACTORS
330
D
102
}
330
D
100
AcDbGroup
300

 70
     1
 71
     1
340
2CF6B
340
2CF8A
340
2CF6A
340
2CF67
340
2CF69
340
2CF6D
340
2CF6C
340
2CF68
340
2CF83
340
2CF7C
340
2CF79
340
2CF7D
340
2CF7B
340
2CF7A
340
2CF7F
340
2CF7E
340
2CF90
340
2CF71
340
2CF77
340
2CF75
340
2CF74
340
2CF73
340
2CF72
340
2CF76
340
2CF96
340
2CD85
340
2CD86
340
2CD81
340
2CD80
340
2CD82
340
2CD83
340
2CD84
  0
GROUP
  5
AAAE
102
{ACAD_REACTORS
330
D
102
}
330
D
100
AcDbGroup
300

 70
     1
 71
     1
  0
GROUP
  5
2A3B1
102
{ACAD_REACTORS
330
D
102
}
330
D
100
AcDbGroup
300

 70
     1
 71
     1
  0
GROUP
  5
9282
102
{ACAD_REACTORS
330
D
102
}
330
D
100
AcDbGroup
300

 70
     1
 71
     1
  0
GROUP
  5
2D1DF
102
{ACAD_REACTORS
330
D
102
}
330
D
100
AcDbGroup
300

 70
     1
 71
     1
  0
GROUP
  5
2495D
102
{ACAD_REACTORS
330
D
102
}
330
D
100
AcDbGroup
300

 70
     1
 71
     1
  0
GROUP
  5
2A3B2
102
{ACAD_REACTORS
330
D
102
}
330
D
100
AcDbGroup
300

 70
     1
 71
     1
  0
GROUP
  5
34DC
102
{ACAD_REACTORS
330
D
102
}
330
D
100
AcDbGroup
300

 70
     1
 71
     1
  0
GROUP
  5
B948
102
{ACAD_REACTORS
330
D
102
}
330
D
100
AcDbGroup
300

 70
     1
 71
     1
  0
GROUP
  5
2D910
102
{ACAD_REACTORS
330
D
102
}
330
D
100
AcDbGroup
300

 70
     1
 71
     1
340
2D8EC
340
2D8E6
340
2D8E5
340
2D8E4
340
2D8EB
340
2D8E3
340
2D8EA
340
2D8ED
340
2D8E2
340
2D8F6
340
2D8F1
340
2D8F5
340
2D8F4
340
2D8F3
340
2D8F2
340
2D8F7
340
2D8FC
340
2D8FB
340
2D8FA
340
2D8FF
340
2D8F9
340
2D8FE
340
2D8FD
340
2D900
340
2D902
340
2D90B
340
2D901
340
2D909
340
2D908
340
2D90A
340
2D906
340
2D907
  0
GROUP
  5
8166
102
{ACAD_REACTORS
330
D
102
}
330
D
100
AcDbGroup
300

 70
     1
 71
     1
  0
GROUP
  5
254B7
102
{ACAD_REACTORS
330
D
102
}
330
D
100
AcDbGroup
300

 70
     1
 71
     1
  0
GROUP
  5
9933
102
{ACAD_REACTORS
330
D
102
}
330
D
100
AcDbGroup
300

 70
     1
 71
     1
  0
GROUP
  5
6C2E
102
{ACAD_REACTORS
330
D
102
}
330
D
100
AcDbGroup
300

 70
     1
 71
     1
  0
GROUP
  5
16DA
102
{ACAD_REACTORS
330
D
102
}
330
D
100
AcDbGroup
300

 70
     1
 71
     1
  0
GROUP
  5
C1CA
102
{ACAD_REACTORS
330
D
102
}
330
D
100
AcDbGroup
300

 70
     1
 71
     1
  0
GROUP
  5
2BC0E
102
{ACAD_REACTORS
330
D
102
}
330
D
100
AcDbGroup
300

 70
     1
 71
     1
  0
GROUP
  5
2A892
102
{ACAD_REACTORS
330
D
102
}
330
D
100
AcDbGroup
300

 70
     1
 71
     1
  0
GROUP
  5
2C947
102
{ACAD_REACTORS
330
D
102
}
330
D
100
AcDbGroup
300

 70
     1
 71
     1
340
2C926
340
2C91F
340
2C90D
340
2C919
340
2C925
340
2C922
340
2C912
340
2C90E
340
2C915
340
2C921
340
2C913
340
2C927
340
2C90F
340
2C91C
340
2C91B
340
2C91D
340
2C918
340
2C91E
340
2C920
340
2C914
  0
GROUP
  5
D5EB
102
{ACAD_REACTORS
330
D
102
}
330
D
100
AcDbGroup
300

 70
     1
 71
     1
  0
GROUP
  5
BA57
102
{ACAD_REACTORS
330
D
102
}
330
D
100
AcDbGroup
300

 70
     1
 71
     1
  0
GROUP
  5
DE6
102
{ACAD_REACTORS
330
D
102
}
330
D
100
AcDbGroup
300

 70
     1
 71
     1
  0
GROUP
  5
2494E
102
{ACAD_REACTORS
330
D
102
}
330
D
100
AcDbGroup
300

 70
     1
 71
     1
  0
GROUP
  5
A53F
102
{ACAD_REACTORS
330
D
102
}
330
D
100
AcDbGroup
300

 70
     1
 71
     1
  0
GROUP
  5
A336
102
{ACAD_REACTORS
330
D
102
}
330
D
100
AcDbGroup
300

 70
     1
 71
     1
  0
GROUP
  5
BEE2
102
{ACAD_REACTORS
330
D
102
}
330
D
100
AcDbGroup
300

 70
     1
 71
     1
  0
GROUP
  5
830B
102
{ACAD_REACTORS
330
D
102
}
330
D
100
AcDbGroup
300

 70
     1
 71
     1
  0
GROUP
  5
90E7
102
{ACAD_REACTORS
330
D
102
}
330
D
100
AcDbGroup
300

 70
     1
 71
     1
  0
GROUP
  5
2BBFE
102
{ACAD_REACTORS
330
D
102
}
330
D
100
AcDbGroup
300

 70
     1
 71
     1
  0
GROUP
  5
2BC10
102
{ACAD_REACTORS
330
D
102
}
330
D
100
AcDbGroup
300

 70
     1
 71
     1
  0
GROUP
  5
27271
102
{ACAD_REACTORS
330
D
102
}
330
D
100
AcDbGroup
300

 70
     1
 71
     1
  0
GROUP
  5
B974
102
{ACAD_REACTORS
330
D
102
}
330
D
100
AcDbGroup
300

 70
     1
 71
     1
  0
GROUP
  5
7FF3
102
{ACAD_REACTORS
330
D
102
}
330
D
100
AcDbGroup
300

 70
     1
 71
     1
  0
GROUP
  5
19D1
102
{ACAD_REACTORS
330
D
102
}
330
D
100
AcDbGroup
300

 70
     1
 71
     1
  0
GROUP
  5
6355
102
{ACAD_REACTORS
330
D
102
}
330
D
100
AcDbGroup
300

 70
     1
 71
     1
  0
GROUP
  5
2B68F
102
{ACAD_REACTORS
330
D
102
}
330
D
100
AcDbGroup
300

 70
     1
 71
     1
  0
GROUP
  5
2BC00
102
{ACAD_REACTORS
330
D
102
}
330
D
100
AcDbGroup
300

 70
     1
 71
     1
  0
GROUP
  5
1A5A
102
{ACAD_REACTORS
330
D
102
}
330
D
100
AcDbGroup
300

 70
     1
 71
     1
  0
GROUP
  5
2ABA7
102
{ACAD_REACTORS
330
D
102
}
330
D
100
AcDbGroup
300

 70
     1
 71
     1
  0
GROUP
  5
8306
102
{ACAD_REACTORS
330
D
102
}
330
D
100
AcDbGroup
300

 70
     1
 71
     1
  0
GROUP
  5
2787F
102
{ACAD_REACTORS
330
D
102
}
330
D
100
AcDbGroup
300

 70
     1
 71
     1
  0
GROUP
  5
12D2
102
{ACAD_REACTORS
330
D
102
}
330
D
100
AcDbGroup
300

 70
     1
 71
     1
  0
GROUP
  5
251ED
102
{ACAD_REACTORS
330
D
102
}
330
D
100
AcDbGroup
300

 70
     1
 71
     1
  0
GROUP
  5
AAB0
102
{ACAD_REACTORS
330
D
102
}
330
D
100
AcDbGroup
300

 70
     1
 71
     1
  0
GROUP
  5
1D706
102
{ACAD_REACTORS
330
D
102
}
330
D
100
AcDbGroup
300

 70
     1
 71
     1
  0
GROUP
  5
2496C
102
{ACAD_REACTORS
330
D
102
}
330
D
100
AcDbGroup
300

 70
     1
 71
     1
  0
GROUP
  5
27115
102
{ACAD_REACTORS
330
D
102
}
330
D
100
AcDbGroup
300

 70
     1
 71
     1
  0
GROUP
  5
80FE
102
{ACAD_REACTORS
330
D
102
}
330
D
100
AcDbGroup
300

 70
     1
 71
     1
  0
GROUP
  5
3DBF
102
{ACAD_REACTORS
330
D
102
}
330
D
100
AcDbGroup
300

 70
     1
 71
     1
  0
GROUP
  5
2B68E
102
{ACAD_REACTORS
330
D
102
}
330
D
100
AcDbGroup
300

 70
     1
 71
     1
  0
GROUP
  5
91A0
102
{ACAD_REACTORS
330
D
102
}
330
D
100
AcDbGroup
300

 70
     1
 71
     1
  0
GROUP
  5
251EC
102
{ACAD_REACTORS
330
D
102
}
330
D
100
AcDbGroup
300

 70
     1
 71
     1
  0
GROUP
  5
1A85
102
{ACAD_REACTORS
330
D
102
}
330
D
100
AcDbGroup
300

 70
     1
 71
     1
  0
GROUP
  5
2A88D
102
{ACAD_REACTORS
330
D
102
}
330
D
100
AcDbGroup
300

 70
     1
 71
     1
  0
GROUP
  5
1C7E3
102
{ACAD_REACTORS
330
D
102
}
330
D
100
AcDbGroup
300

 70
     1
 71
     1
  0
GROUP
  5
19BED
102
{ACAD_REACTORS
330
D
102
}
330
D
100
AcDbGroup
300

 70
     1
 71
     1
  0
GROUP
  5
920F
102
{ACAD_REACTORS
330
D
102
}
330
D
100
AcDbGroup
300

 70
     1
 71
     1
  0
GROUP
  5
34A0
102
{ACAD_REACTORS
330
D
102
}
330
D
100
AcDbGroup
300

 70
     1
 71
     1
  0
GROUP
  5
24930
102
{ACAD_REACTORS
330
D
102
}
330
D
100
AcDbGroup
300

 70
     1
 71
     1
  0
GROUP
  5
2AA7B
102
{ACAD_REACTORS
330
D
102
}
330
D
100
AcDbGroup
300

 70
     1
 71
     1
  0
GROUP
  5
2AD4C
102
{ACAD_REACTORS
330
D
102
}
330
D
100
AcDbGroup
300

 70
     1
 71
     1
  0
GROUP
  5
148A6
102
{ACAD_REACTORS
330
D
102
}
330
D
100
AcDbGroup
300

 70
     1
 71
     1
  0
GROUP
  5
A919
102
{ACAD_REACTORS
330
D
102
}
330
D
100
AcDbGroup
300

 70
     1
 71
     1
  0
GROUP
  5
26CA0
102
{ACAD_REACTORS
330
D
102
}
330
D
100
AcDbGroup
300

 70
     1
 71
     1
  0
GROUP
  5
2A3B7
102
{ACAD_REACTORS
330
D
102
}
330
D
100
AcDbGroup
300

 70
     1
 71
     1
  0
GROUP
  5
8124
102
{ACAD_REACTORS
330
D
102
}
330
D
100
AcDbGroup
300

 70
     1
 71
     1
  0
GROUP
  5
26F10
102
{ACAD_REACTORS
330
D
102
}
330
D
100
AcDbGroup
300

 70
     1
 71
     1
  0
GROUP
  5
6FA2
102
{ACAD_REACTORS
330
D
102
}
330
D
100
AcDbGroup
300

 70
     1
 71
     1
  0
GROUP
  5
45D7
102
{ACAD_REACTORS
330
D
102
}
330
D
100
AcDbGroup
300

 70
     1
 71
     1
  0
GROUP
  5
6F90
102
{ACAD_REACTORS
330
D
102
}
330
D
100
AcDbGroup
300

 70
     1
 71
     1
  0
GROUP
  5
2CFAB
102
{ACAD_REACTORS
330
D
102
}
330
D
100
AcDbGroup
300

 70
     1
 71
     1
340
2C6B2
340
2C6AF
340
2CA10
340
2CB96
340
2C6B0
340
2CA0F
340
2C6B1
340
2CB97
  0
GROUP
  5
B947
102
{ACAD_REACTORS
330
D
102
}
330
D
100
AcDbGroup
300

 70
     1
 71
     1
  0
GROUP
  5
2B691
102
{ACAD_REACTORS
330
D
102
}
330
D
100
AcDbGroup
300

 70
     1
 71
     1
  0
GROUP
  5
2AA71
102
{ACAD_REACTORS
330
D
102
}
330
D
100
AcDbGroup
300

 70
     1
 71
     1
  0
GROUP
  5
80FD
102
{ACAD_REACTORS
330
D
102
}
330
D
100
AcDbGroup
300

 70
     1
 71
     1
  0
GROUP
  5
295E0
102
{ACAD_REACTORS
330
D
102
}
330
D
100
AcDbGroup
300

 70
     1
 71
     1
  0
GROUP
  5
2ABA8
102
{ACAD_REACTORS
330
D
102
}
330
D
100
AcDbGroup
300

 70
     1
 71
     1
  0
GROUP
  5
80D7
102
{ACAD_REACTORS
330
D
102
}
330
D
100
AcDbGroup
300

 70
     1
 71
     1
  0
GROUP
  5
3102
102
{ACAD_REACTORS
330
D
102
}
330
D
100
AcDbGroup
300

 70
     1
 71
     1
  0
GROUP
  5
3DA0
102
{ACAD_REACTORS
330
D
102
}
330
D
100
AcDbGroup
300

 70
     1
 71
     1
  0
GROUP
  5
24D71
102
{ACAD_REACTORS
330
D
102
}
330
D
100
AcDbGroup
300

 70
     1
 71
     1
  0
GROUP
  5
2BC03
102
{ACAD_REACTORS
330
D
102
}
330
D
100
AcDbGroup
300

 70
     1
 71
     1
  0
GROUP
  5
12F1
102
{ACAD_REACTORS
330
D
102
}
330
D
100
AcDbGroup
300

 70
     1
 71
     1
  0
GROUP
  5
1152
102
{ACAD_REACTORS
330
D
102
}
330
D
100
AcDbGroup
300

 70
     1
 71
     1
  0
GROUP
  5
45DB
102
{ACAD_REACTORS
330
D
102
}
330
D
100
AcDbGroup
300

 70
     1
 71
     1
  0
GROUP
  5
24F0C
102
{ACAD_REACTORS
330
D
102
}
330
D
100
AcDbGroup
300

 70
     1
 71
     1
  0
GROUP
  5
3443
102
{ACAD_REACTORS
330
D
102
}
330
D
100
AcDbGroup
300

 70
     1
 71
     1
  0
GROUP
  5
639C
102
{ACAD_REACTORS
330
D
102
}
330
D
100
AcDbGroup
300

 70
     1
 71
     1
  0
GROUP
  5
4501
102
{ACAD_REACTORS
330
D
102
}
330
D
100
AcDbGroup
300

 70
     1
 71
     1
  0
GROUP
  5
9130
102
{ACAD_REACTORS
330
D
102
}
330
D
100
AcDbGroup
300

 70
     1
 71
     1
  0
GROUP
  5
A2ED
102
{ACAD_REACTORS
330
D
102
}
330
D
100
AcDbGroup
300

 70
     1
 71
     1
  0
GROUP
  5
2A3AB
102
{ACAD_REACTORS
330
D
102
}
330
D
100
AcDbGroup
300

 70
     1
 71
     1
  0
GROUP
  5
297E8
102
{ACAD_REACTORS
330
D
102
}
330
D
100
AcDbGroup
300

 70
     1
 71
     1
  0
GROUP
  5
2ABA6
102
{ACAD_REACTORS
330
D
102
}
330
D
100
AcDbGroup
300

 70
     1
 71
     1
  0
GROUP
  5
2BC06
102
{ACAD_REACTORS
330
D
102
}
330
D
100
AcDbGroup
300

 70
     1
 71
     1
  0
GROUP
  5
6623
102
{ACAD_REACTORS
330
D
102
}
330
D
100
AcDbGroup
300

 70
     1
 71
     1
  0
GROUP
  5
8076
102
{ACAD_REACTORS
330
D
102
}
330
D
100
AcDbGroup
300

 70
     1
 71
     1
  0
GROUP
  5
91C4
102
{ACAD_REACTORS
330
D
102
}
330
D
100
AcDbGroup
300

 70
     1
 71
     1
  0
GROUP
  5
2BBFF
102
{ACAD_REACTORS
330
D
102
}
330
D
100
AcDbGroup
300

 70
     1
 71
     1
  0
GROUP
  5
2CFB2
102
{ACAD_REACTORS
330
D
102
}
330
D
100
AcDbGroup
300

 70
     1
 71
     1
340
2C6AF
340
2C6B2
340
2C6B0
340
2C6B1
340
2CFB0
340
2CFAD
340
2CB95
340
2CA11
340
2CB96
340
2CA0F
340
2CA24
340
2CA13
340
2CB8E
340
2CA26
340
2CA25
340
2CA22
340
2CA21
340
2CA28
340
2CA27
340
2CA20
340
2CA1F
340
2CFAF
340
2CFAE
340
2CB94
340
2CA12
340
2C6C5
340
2CA2A
340
2CA29
340
2CA1E
340
2CA1D
340
2CB91
340
2CB93
340
2CB92
340
2CB90
340
2CA2C
340
2CA2B
340
2CA1C
340
2CA1B
340
2CA2E
340
2CA2D
340
2CA1A
340
2CA19
340
2CA30
340
2CA2F
340
2CA18
340
2CA17
340
2CB8F
340
2CA10
340
2CA32
340
2CA31
340
2CA16
340
2CA15
340
2CB97
340
2CA23
340
2CA14
  0
GROUP
  5
349F
102
{ACAD_REACTORS
330
D
102
}
330
D
100
AcDbGroup
300

 70
     1
 71
     1
  0
GROUP
  5
1153
102
{ACAD_REACTORS
330
D
102
}
330
D
100
AcDbGroup
300

 70
     1
 71
     1
  0
GROUP
  5
2D1E0
102
{ACAD_REACTORS
330
D
102
}
330
D
100
AcDbGroup
300

 70
     1
 71
     1
  0
GROUP
  5
D4D4
102
{ACAD_REACTORS
330
D
102
}
330
D
100
AcDbGroup
300

 70
     1
 71
     1
  0
GROUP
  5
2A3B6
102
{ACAD_REACTORS
330
D
102
}
330
D
100
AcDbGroup
300

 70
     1
 71
     1
  0
GROUP
  5
2A3AA
102
{ACAD_REACTORS
330
D
102
}
330
D
100
AcDbGroup
300

 70
     1
 71
     1
  0
GROUP
  5
16BB
102
{ACAD_REACTORS
330
D
102
}
330
D
100
AcDbGroup
300

 70
     1
 71
     1
  0
GROUP
  5
1A5B
102
{ACAD_REACTORS
330
D
102
}
330
D
100
AcDbGroup
300

 70
     1
 71
     1
  0
GROUP
  5
2BBFA
102
{ACAD_REACTORS
330
D
102
}
330
D
100
AcDbGroup
300

 70
     1
 71
     1
  0
GROUP
  5
9131
102
{ACAD_REACTORS
330
D
102
}
330
D
100
AcDbGroup
300

 70
     1
 71
     1
  0
GROUP
  5
2BBF9
102
{ACAD_REACTORS
330
D
102
}
330
D
100
AcDbGroup
300

 70
     1
 71
     1
  0
GROUP
  5
6565
102
{ACAD_REACTORS
330
D
102
}
330
D
100
AcDbGroup
300

 70
     1
 71
     1
  0
GROUP
  5
2AA77
102
{ACAD_REACTORS
330
D
102
}
330
D
100
AcDbGroup
300

 70
     1
 71
     1
  0
GROUP
  5
91C5
102
{ACAD_REACTORS
330
D
102
}
330
D
100
AcDbGroup
300

 70
     1
 71
     1
  0
GROUP
  5
1208
102
{ACAD_REACTORS
330
D
102
}
330
D
100
AcDbGroup
300

 70
     1
 71
     1
  0
GROUP
  5
7FF4
102
{ACAD_REACTORS
330
D
102
}
330
D
100
AcDbGroup
300

 70
     1
 71
     1
  0
GROUP
  5
2BC07
102
{ACAD_REACTORS
330
D
102
}
330
D
100
AcDbGroup
300

 70
     1
 71
     1
  0
GROUP
  5
4190
102
{ACAD_REACTORS
330
D
102
}
330
D
100
AcDbGroup
300

 70
     1
 71
     1
  0
GROUP
  5
BB10
102
{ACAD_REACTORS
330
D
102
}
330
D
100
AcDbGroup
300

 70
     1
 71
     1
  0
GROUP
  5
920C
102
{ACAD_REACTORS
330
D
102
}
330
D
100
AcDbGroup
300

 70
     1
 71
     1
  0
GROUP
  5
6E9D
102
{ACAD_REACTORS
330
D
102
}
330
D
100
AcDbGroup
300

 70
     1
 71
     1
  0
GROUP
  5
A2F4
102
{ACAD_REACTORS
330
D
102
}
330
D
100
AcDbGroup
300

 70
     1
 71
     1
  0
GROUP
  5
26D96
102
{ACAD_REACTORS
330
D
102
}
330
D
100
AcDbGroup
300

 70
     1
 71
     1
  0
GROUP
  5
BF7B
102
{ACAD_REACTORS
330
D
102
}
330
D
100
AcDbGroup
300

 70
     1
 71
     1
  0
GROUP
  5
24921
102
{ACAD_REACTORS
330
D
102
}
330
D
100
AcDbGroup
300

 70
     1
 71
     1
  0
GROUP
  5
2C169
102
{ACAD_REACTORS
330
D
102
}
330
D
100
AcDbGroup
300

 70
     1
 71
     1
  0
GROUP
  5
1A15
102
{ACAD_REACTORS
330
D
102
}
330
D
100
AcDbGroup
300

 70
     1
 71
     1
  0
GROUP
  5
6C9C
102
{ACAD_REACTORS
330
D
102
}
330
D
100
AcDbGroup
300

 70
     1
 71
     1
  0
GROUP
  5
1A12B
102
{ACAD_REACTORS
330
D
102
}
330
D
100
AcDbGroup
300

 70
     1
 71
     1
  0
GROUP
  5
2AA76
102
{ACAD_REACTORS
330
D
102
}
330
D
100
AcDbGroup
300

 70
     1
 71
     1
  0
GROUP
  5
A331
102
{ACAD_REACTORS
330
D
102
}
330
D
100
AcDbGroup
300

 70
     1
 71
     1
  0
GROUP
  5
A5B4
102
{ACAD_REACTORS
330
D
102
}
330
D
100
AcDbGroup
300

 70
     1
 71
     1
  0
GROUP
  5
2A3B8
102
{ACAD_REACTORS
330
D
102
}
330
D
100
AcDbGroup
300

 70
     1
 71
     1
  0
GROUP
  5
2A3BC
102
{ACAD_REACTORS
330
D
102
}
330
D
100
AcDbGroup
300

 70
     1
 71
     1
  0
GROUP
  5
A4F4
102
{ACAD_REACTORS
330
D
102
}
330
D
100
AcDbGroup
300

 70
     1
 71
     1
  0
GROUP
  5
2DB5C
102
{ACAD_REACTORS
330
D
102
}
330
D
100
AcDbGroup
300

 70
     1
 71
     1
340
2DB5A
340
2DB5B
340
2CD2F
340
2CD56
340
2CE87
340
2CD30
340
2CE88
340
2CD80
340
2CD83
340
2CF96
340
2CD86
340
2CD52
340
2CF83
340
2CD75
340
2CD6C
340
2CF6B
340
2CF6C
340
2CF8A
340
2CF67
340
2CE8A
340
2CF6A
340
2CF6D
340
2CF68
340
2CF69
340
2C6EE
340
2CF7E
340
2CF7C
340
2CF7D
340
2CF7B
340
2CF7A
340
2CF7F
340
2CF79
340
2CF90
340
2CF76
340
2CF75
340
2CF73
340
2CF72
340
2CF71
340
2CF77
340
2CF74
340
2CD7C
340
2CD7D
340
2C6F4
340
2CD82
340
2CE89
340
2CD85
340
2CD81
340
2CD84
  0
GROUP
  5
2DBA7
102
{ACAD_REACTORS
330
D
102
}
330
D
100
AcDbGroup
300

 70
     1
 71
     1
340
2C6F8
340
2D888
340
2DADF
340
2CD30
340
2DB5A
340
2DB5B
340
2CD2F
340
2CD56
340
2CE87
340
2CE88
340
2CD80
340
2CD83
340
2CF96
340
2CD86
340
2CD52
340
2CF83
340
2CD75
340
2CD6C
340
2CF6B
340
2CF6C
340
2CF8A
340
2CF67
340
2CE8A
340
2CF6A
340
2CF6D
340
2CF68
340
2CF69
340
2C6EE
340
2CF7E
340
2CF7C
340
2CF7D
340
2CF7B
340
2CF7A
340
2CF7F
340
2CF79
340
2CF90
340
2CF76
340
2CF75
340
2CF73
340
2CF72
340
2CF71
340
2CF77
340
2CF74
340
2CD7C
340
2CD7D
340
2C6F4
340
2CD82
340
2CE89
340
2CD85
340
2CD81
340
2CD84
  0
GROUP
  5
2AA70
102
{ACAD_REACTORS
330
D
102
}
330
D
100
AcDbGroup
300

 70
     1
 71
     1
  0
GROUP
  5
2AD4F
102
{ACAD_REACTORS
330
D
102
}
330
D
100
AcDbGroup
300

 70
     1
 71
     1
  0
GROUP
  5
2D1E2
102
{ACAD_REACTORS
330
D
102
}
330
D
100
AcDbGroup
300

 70
     1
 71
     1
  0
GROUP
  5
18F3
102
{ACAD_REACTORS
330
D
102
}
330
D
100
AcDbGroup
300

 70
     1
 71
     1
  0
GROUP
  5
2A890
102
{ACAD_REACTORS
330
D
102
}
330
D
100
AcDbGroup
300

 70
     1
 71
     1
  0
GROUP
  5
2AD4D
102
{ACAD_REACTORS
330
D
102
}
330
D
100
AcDbGroup
300

 70
     1
 71
     1
  0
GROUP
  5
A2EC
102
{ACAD_REACTORS
330
D
102
}
330
D
100
AcDbGroup
300

 70
     1
 71
     1
  0
GROUP
  5
2493F
102
{ACAD_REACTORS
330
D
102
}
330
D
100
AcDbGroup
300

 70
     1
 71
     1
  0
GROUP
  5
639B
102
{ACAD_REACTORS
330
D
102
}
330
D
100
AcDbGroup
300

 70
     1
 71
     1
  0
GROUP
  5
A591
102
{ACAD_REACTORS
330
D
102
}
330
D
100
AcDbGroup
300

 70
     1
 71
     1
  0
GROUP
  5
287E6
102
{ACAD_REACTORS
330
D
102
}
330
D
100
AcDbGroup
300

 70
     1
 71
     1
  0
GROUP
  5
2A3B4
102
{ACAD_REACTORS
330
D
102
}
330
D
100
AcDbGroup
300

 70
     1
 71
     1
  0
GROUP
  5
36C8
102
{ACAD_REACTORS
330
D
102
}
330
D
100
AcDbGroup
300

 70
     1
 71
     1
  0
GROUP
  5
3442
102
{ACAD_REACTORS
330
D
102
}
330
D
100
AcDbGroup
300

 70
     1
 71
     1
  0
GROUP
  5
2AD50
102
{ACAD_REACTORS
330
D
102
}
330
D
100
AcDbGroup
300

 70
     1
 71
     1
  0
GROUP
  5
2A89C
102
{ACAD_REACTORS
330
D
102
}
330
D
100
AcDbGroup
300

 70
     1
 71
     1
  0
GROUP
  5
1A689
102
{ACAD_REACTORS
330
D
102
}
330
D
100
AcDbGroup
300

 70
     1
 71
     1
  0
GROUP
  5
93C4
102
{ACAD_REACTORS
330
D
102
}
330
D
100
AcDbGroup
300

 70
     1
 71
     1
  0
GROUP
  5
2A3B9
102
{ACAD_REACTORS
330
D
102
}
330
D
100
AcDbGroup
300

 70
     1
 71
     1
  0
GROUP
  5
9C4A
102
{ACAD_REACTORS
330
D
102
}
330
D
100
AcDbGroup
300

 70
     1
 71
     1
  0
GROUP
  5
2A89D
102
{ACAD_REACTORS
330
D
102
}
330
D
100
AcDbGroup
300

 70
     1
 71
     1
  0
GROUP
  5
63E1
102
{ACAD_REACTORS
330
D
102
}
330
D
100
AcDbGroup
300

 70
     1
 71
     1
  0
GROUP
  5
2BBF8
102
{ACAD_REACTORS
330
D
102
}
330
D
100
AcDbGroup
300

 70
     1
 71
     1
  0
GROUP
  5
B94B
102
{ACAD_REACTORS
330
D
102
}
330
D
100
AcDbGroup
300

 70
     1
 71
     1
  0
GROUP
  5
248BC
102
{ACAD_REACTORS
330
D
102
}
330
D
100
AcDbGroup
300

 70
     1
 71
     1
  0
GROUP
  5
2489E
102
{ACAD_REACTORS
330
D
102
}
330
D
100
AcDbGroup
300

 70
     1
 71
     1
  0
GROUP
  5
2ABAA
102
{ACAD_REACTORS
330
D
102
}
330
D
100
AcDbGroup
300

 70
     1
 71
     1
  0
GROUP
  5
295E1
102
{ACAD_REACTORS
330
D
102
}
330
D
100
AcDbGroup
300

 70
     1
 71
     1
  0
GROUP
  5
2AA6F
102
{ACAD_REACTORS
330
D
102
}
330
D
100
AcDbGroup
300

 70
     1
 71
     1
  0
GROUP
  5
28676
102
{ACAD_REACTORS
330
D
102
}
330
D
100
AcDbGroup
300

 70
     1
 71
     1
  0
GROUP
  5
CCA0
102
{ACAD_REACTORS
330
D
102
}
330
D
100
AcDbGroup
300

 70
     1
 71
     1
  0
GROUP
  5
1C64C
102
{ACAD_REACTORS
330
D
102
}
330
D
100
AcDbGroup
300

 70
     1
 71
     1
  0
GROUP
  5
2D90D
102
{ACAD_REACTORS
330
D
102
}
330
D
100
AcDbGroup
300

 70
     1
 71
     1
340
2D8CF
340
2D8D0
340
2D8D1
340
2D8D2
340
2D8D3
340
2D8D4
340
2D8D5
340
2D8D6
340
2D8D7
340
2D8D8
340
2D8D9
340
2D8DA
340
2D8CE
340
2D8DB
340
2D8DC
340
2D8DD
340
2D8DE
340
2D8DF
340
2D8E0
340
2D8E1
340
2D8E2
340
2D8E3
340
2D8E4
340
2D8E5
340
2D8E6
340
2D8E7
340
2D8E8
340
2D8E9
340
2D8EA
340
2D8EB
340
2D8EC
340
2D8ED
340
2D8EE
340
2D8EF
340
2D8F0
340
2D8F1
340
2D8F2
340
2D8F3
340
2D8F4
340
2D8F5
340
2D8F6
340
2D8F7
340
2D8F8
340
2D8F9
340
2D8FA
340
2D8FB
340
2D8FC
340
2D8FD
340
2D8FE
340
2D8FF
340
2D900
340
2D901
340
2D902
340
2D903
340
2D904
340
2D905
340
2D906
340
2D907
340
2D908
340
2D909
340
2D90A
340
2D90B
340
2D90C
  0
GROUP
  5
37C8
102
{ACAD_REACTORS
330
D
102
}
330
D
100
AcDbGroup
300

 70
     1
 71
     1
  0
GROUP
  5
2AD51
102
{ACAD_REACTORS
330
D
102
}
330
D
100
AcDbGroup
300

 70
     1
 71
     1
  0
GROUP
  5
D74A
102
{ACAD_REACTORS
330
D
102
}
330
D
100
AcDbGroup
300

 70
     1
 71
     1
  0
GROUP
  5
2BC12
102
{ACAD_REACTORS
330
D
102
}
330
D
100
AcDbGroup
300

 70
     1
 71
     1
  0
GROUP
  5
2ABB1
102
{ACAD_REACTORS
330
D
102
}
330
D
100
AcDbGroup
300

 70
     1
 71
     1
  0
GROUP
  5
2A3AF
102
{ACAD_REACTORS
330
D
102
}
330
D
100
AcDbGroup
300

 70
     1
 71
     1
  0
GROUP
  5
2A3AD
102
{ACAD_REACTORS
330
D
102
}
330
D
100
AcDbGroup
300

 70
     1
 71
     1
  0
GROUP
  5
63BF
102
{ACAD_REACTORS
330
D
102
}
330
D
100
AcDbGroup
300

 70
     1
 71
     1
  0
GROUP
  5
2BC0D
102
{ACAD_REACTORS
330
D
102
}
330
D
100
AcDbGroup
300

 70
     1
 71
     1
  0
GROUP
  5
251EE
102
{ACAD_REACTORS
330
D
102
}
330
D
100
AcDbGroup
300

 70
     1
 71
     1
  0
GROUP
  5
8CD0
102
{ACAD_REACTORS
330
D
102
}
330
D
100
AcDbGroup
300

 70
     1
 71
     1
  0
GROUP
  5
B946
102
{ACAD_REACTORS
330
D
102
}
330
D
100
AcDbGroup
300

 70
     1
 71
     1
  0
GROUP
  5
26FE7
102
{ACAD_REACTORS
330
D
102
}
330
D
100
AcDbGroup
300

 70
     1
 71
     1
  0
GROUP
  5
6569
102
{ACAD_REACTORS
330
D
102
}
330
D
100
AcDbGroup
300

 70
     1
 71
     1
  0
GROUP
  5
24CEA
102
{ACAD_REACTORS
330
D
102
}
330
D
100
AcDbGroup
300

 70
     1
 71
     1
  0
GROUP
  5
BF05
102
{ACAD_REACTORS
330
D
102
}
330
D
100
AcDbGroup
300

 70
     1
 71
     1
  0
GROUP
  5
939D
102
{ACAD_REACTORS
330
D
102
}
330
D
100
AcDbGroup
300

 70
     1
 71
     1
  0
GROUP
  5
80D6
102
{ACAD_REACTORS
330
D
102
}
330
D
100
AcDbGroup
300

 70
     1
 71
     1
  0
GROUP
  5
2A3B5
102
{ACAD_REACTORS
330
D
102
}
330
D
100
AcDbGroup
300

 70
     1
 71
     1
  0
GROUP
  5
C536
102
{ACAD_REACTORS
330
D
102
}
330
D
100
AcDbGroup
300

 70
     1
 71
     1
  0
GROUP
  5
D6FD
102
{ACAD_REACTORS
330
D
102
}
330
D
100
AcDbGroup
300

 70
     1
 71
     1
  0
GROUP
  5
2D90E
102
{ACAD_REACTORS
330
D
102
}
330
D
100
AcDbGroup
300

 70
     1
 71
     1
340
2D8DA
340
2D8D9
340
2D8DB
340
2D8DE
340
2D8DD
340
2D8E1
340
2D8E9
340
2D8F8
  0
GROUP
  5
25370
102
{ACAD_REACTORS
330
D
102
}
330
D
100
AcDbGroup
300

 70
     1
 71
     1
  0
GROUP
  5
639D
102
{ACAD_REACTORS
330
D
102
}
330
D
100
AcDbGroup
300

 70
     1
 71
     1
  0
GROUP
  5
2CFAC
102
{ACAD_REACTORS
330
D
102
}
330
D
100
AcDbGroup
300

 70
     1
 71
     1
340
2CB8F
340
2CB90
340
2CB93
340
2CB91
340
2CB92
340
2CB8E
  0
GROUP
  5
12F2
102
{ACAD_REACTORS
330
D
102
}
330
D
100
AcDbGroup
300

 70
     1
 71
     1
  0
GROUP
  5
1A89
102
{ACAD_REACTORS
330
D
102
}
330
D
100
AcDbGroup
300

 70
     1
 71
     1
  0
GROUP
  5
2BC05
102
{ACAD_REACTORS
330
D
102
}
330
D
100
AcDbGroup
300

 70
     1
 71
     1
  0
GROUP
  5
BFA9
102
{ACAD_REACTORS
330
D
102
}
330
D
100
AcDbGroup
300

 70
     1
 71
     1
  0
GROUP
  5
2AA78
102
{ACAD_REACTORS
330
D
102
}
330
D
100
AcDbGroup
300

 70
     1
 71
     1
  0
GROUP
  5
2A3BF
102
{ACAD_REACTORS
330
D
102
}
330
D
100
AcDbGroup
300

 70
     1
 71
     1
  0
GROUP
  5
4199
102
{ACAD_REACTORS
330
D
102
}
330
D
100
AcDbGroup
300

 70
     1
 71
     1
  0
GROUP
  5
BFA7
102
{ACAD_REACTORS
330
D
102
}
330
D
100
AcDbGroup
300

 70
     1
 71
     1
  0
GROUP
  5
126C
102
{ACAD_REACTORS
330
D
102
}
330
D
100
AcDbGroup
300

 70
     1
 71
     1
  0
GROUP
  5
2A3AC
102
{ACAD_REACTORS
330
D
102
}
330
D
100
AcDbGroup
300

 70
     1
 71
     1
  0
GROUP
  5
2A89A
102
{ACAD_REACTORS
330
D
102
}
330
D
100
AcDbGroup
300

 70
     1
 71
     1
  0
GROUP
  5
2ABAC
102
{ACAD_REACTORS
330
D
102
}
330
D
100
AcDbGroup
300

 70
     1
 71
     1
  0
GROUP
  5
2AD52
102
{ACAD_REACTORS
330
D
102
}
330
D
100
AcDbGroup
300

 70
     1
 71
     1
  0
GROUP
  5
A56E
102
{ACAD_REACTORS
330
D
102
}
330
D
100
AcDbGroup
300

 70
     1
 71
     1
  0
GROUP
  5
24DF6
102
{ACAD_REACTORS
330
D
102
}
330
D
100
AcDbGroup
300

 70
     1
 71
     1
  0
GROUP
  5
2BC04
102
{ACAD_REACTORS
330
D
102
}
330
D
100
AcDbGroup
300

 70
     1
 71
     1
  0
GROUP
  5
A56C
102
{ACAD_REACTORS
330
D
102
}
330
D
100
AcDbGroup
300

 70
     1
 71
     1
  0
GROUP
  5
BFA8
102
{ACAD_REACTORS
330
D
102
}
330
D
100
AcDbGroup
300

 70
     1
 71
     1
  0
GROUP
  5
2AD48
102
{ACAD_REACTORS
330
D
102
}
330
D
100
AcDbGroup
300

 70
     1
 71
     1
  0
GROUP
  5
1BC3
102
{ACAD_REACTORS
330
D
102
}
330
D
100
AcDbGroup
300

 70
     1
 71
     1
  0
GROUP
  5
6356
102
{ACAD_REACTORS
330
D
102
}
330
D
100
AcDbGroup
300

 70
     1
 71
     1
  0
GROUP
  5
2A8A1
102
{ACAD_REACTORS
330
D
102
}
330
D
100
AcDbGroup
300

 70
     1
 71
     1
  0
GROUP
  5
9B47
102
{ACAD_REACTORS
330
D
102
}
330
D
100
AcDbGroup
300

 70
     1
 71
     1
  0
GROUP
  5
D8D7
102
{ACAD_REACTORS
330
D
102
}
330
D
100
AcDbGroup
300

 70
     1
 71
     1
  0
GROUP
  5
2AD46
102
{ACAD_REACTORS
330
D
102
}
330
D
100
AcDbGroup
300

 70
     1
 71
     1
  0
GROUP
  5
1101D
102
{ACAD_REACTORS
330
D
102
}
330
D
100
AcDbGroup
300

 70
     1
 71
     1
  0
GROUP
  5
6962
102
{ACAD_REACTORS
330
D
102
}
330
D
100
AcDbGroup
300

 70
     1
 71
     1
  0
GROUP
  5
2B14B
102
{ACAD_REACTORS
330
D
102
}
330
D
100
AcDbGroup
300

 70
     1
 71
     1
  0
GROUP
  5
2AD4B
102
{ACAD_REACTORS
330
D
102
}
330
D
100
AcDbGroup
300

 70
     1
 71
     1
  0
GROUP
  5
2AA79
102
{ACAD_REACTORS
330
D
102
}
330
D
100
AcDbGroup
300

 70
     1
 71
     1
  0
GROUP
  5
6C2C
102
{ACAD_REACTORS
330
D
102
}
330
D
100
AcDbGroup
300

 70
     1
 71
     1
  0
GROUP
  5
2A898
102
{ACAD_REACTORS
330
D
102
}
330
D
100
AcDbGroup
300

 70
     1
 71
     1
  0
GROUP
  5
2D90F
102
{ACAD_REACTORS
330
D
102
}
330
D
100
AcDbGroup
300

 70
     1
 71
     1
340
2D8CF
340
2D8E8
340
2D8D0
340
2D8DC
340
2D8D6
340
2D8D4
340
2D8D7
340
2D8D8
  0
GROUP
  5
CC5E
102
{ACAD_REACTORS
330
D
102
}
330
D
100
AcDbGroup
300

 70
     1
 71
     1
  0
GROUP
  5
8122
102
{ACAD_REACTORS
330
D
102
}
330
D
100
AcDbGroup
300

 70
     1
 71
     1
  0
GROUP
  5
2A89F
102
{ACAD_REACTORS
330
D
102
}
330
D
100
AcDbGroup
300

 70
     1
 71
     1
  0
GROUP
  5
1A12A
102
{ACAD_REACTORS
330
D
102
}
330
D
100
AcDbGroup
300

 70
     1
 71
     1
  0
GROUP
  5
2BC13
102
{ACAD_REACTORS
330
D
102
}
330
D
100
AcDbGroup
300

 70
     1
 71
     1
  0
GROUP
  5
2A88C
102
{ACAD_REACTORS
330
D
102
}
330
D
100
AcDbGroup
300

 70
     1
 71
     1
  0
GROUP
  5
BF76
102
{ACAD_REACTORS
330
D
102
}
330
D
100
AcDbGroup
300

 70
     1
 71
     1
  0
GROUP
  5
8BB3
102
{ACAD_REACTORS
330
D
102
}
330
D
100
AcDbGroup
300

 70
     1
 71
     1
  0
GROUP
  5
A4F0
102
{ACAD_REACTORS
330
D
102
}
330
D
100
AcDbGroup
300

 70
     1
 71
     1
  0
GROUP
  5
2ABAF
102
{ACAD_REACTORS
330
D
102
}
330
D
100
AcDbGroup
300

 70
     1
 71
     1
  0
GROUP
  5
2BBF7
102
{ACAD_REACTORS
330
D
102
}
330
D
100
AcDbGroup
300

 70
     1
 71
     1
  0
GROUP
  5
2ABA5
102
{ACAD_REACTORS
330
D
102
}
330
D
100
AcDbGroup
300

 70
     1
 71
     1
  0
GROUP
  5
2A891
102
{ACAD_REACTORS
330
D
102
}
330
D
100
AcDbGroup
300

 70
     1
 71
     1
  0
GROUP
  5
C410
102
{ACAD_REACTORS
330
D
102
}
330
D
100
AcDbGroup
300

 70
     1
 71
     1
  0
GROUP
  5
2D4EA
102
{ACAD_REACTORS
330
D
102
}
330
D
100
AcDbGroup
300

 70
     1
 71
     1
340
2D34B
340
2D34A
340
2D349
340
2D348
340
2D347
340
2D36F
340
2D36E
340
2D36D
340
2D34E
340
2D36C
340
2D36B
340
2D36A
340
2D369
340
2D368
340
2D367
340
2D366
340
2D362
340
2D361
340
2D360
340
2D364
340
2D363
340
2D35F
340
2D35E
340
2D365
340
2D35D
340
2D358
340
2D357
340
2D355
340
2D354
340
2D353
340
2D352
340
2D35C
340
2D359
340
2D356
340
2D34D
340
2D34C
340
2D35A
340
2D35B
340
2D370
340
2D377
340
2D375
340
2D374
340
2D376
340
2D373
  0
GROUP
  5
D6FC
102
{ACAD_REACTORS
330
D
102
}
330
D
100
AcDbGroup
300

 70
     1
 71
     1
  0
GROUP
  5
6960
102
{ACAD_REACTORS
330
D
102
}
330
D
100
AcDbGroup
300

 70
     1
 71
     1
  0
GROUP
  5
2D59A
102
{ACAD_REACTORS
330
D
102
}
330
D
100
AcDbGroup
300

 70
     1
 71
     1
  0
GROUP
  5
9935
102
{ACAD_REACTORS
330
D
102
}
330
D
100
AcDbGroup
300

 70
     1
 71
     1
  0
GROUP
  5
2CFB1
102
{ACAD_REACTORS
330
D
102
}
330
D
100
AcDbGroup
300

 70
     1
 71
     1
340
2CFB0
340
2CA13
340
2CA26
340
2CA25
340
2CA28
340
2CA27
340
2CA2A
340
2CA29
340
2CFAD
340
2CB95
340
2CA11
340
2CA24
340
2CA22
340
2CA21
340
2CA20
340
2CA1F
340
2CA1E
340
2CA1D
340
2CA2B
340
2CA1C
340
2CFAF
340
2CA2E
340
2CA2D
340
2CA30
340
2CA2F
340
2CA31
340
2CA15
340
2CA14
340
2CFAE
340
2CB94
340
2CA12
340
2CA1A
340
2CA19
340
2CA18
340
2CA17
340
2CA32
340
2CA16
340
2CA23
340
2CA2C
340
2CA1B
  0
GROUP
  5
10EBD
102
{ACAD_REACTORS
330
D
102
}
330
D
100
AcDbGroup
300

 70
     1
 71
     1
  0
GROUP
  5
AAA0
102
{ACAD_REACTORS
330
D
102
}
330
D
100
AcDbGroup
300

 70
     1
 71
     1
  0
GROUP
  5
2404B
102
{ACAD_REACTORS
330
D
102
}
330
D
100
AcDbGroup
300

 70
     1
 71
     1
  0
GROUP
  5
8CD1
102
{ACAD_REACTORS
330
D
102
}
330
D
100
AcDbGroup
300

 70
     1
 71
     1
  0
GROUP
  5
2A3B0
102
{ACAD_REACTORS
330
D
102
}
330
D
100
AcDbGroup
300

 70
     1
 71
     1
  0
GROUP
  5
2A899
102
{ACAD_REACTORS
330
D
102
}
330
D
100
AcDbGroup
300

 70
     1
 71
     1
  0
GROUP
  5
2AD47
102
{ACAD_REACTORS
330
D
102
}
330
D
100
AcDbGroup
300

 70
     1
 71
     1
  0
GROUP
  5
A4F1
102
{ACAD_REACTORS
330
D
102
}
330
D
100
AcDbGroup
300

 70
     1
 71
     1
  0
GROUP
  5
2BC14
102
{ACAD_REACTORS
330
D
102
}
330
D
100
AcDbGroup
300

 70
     1
 71
     1
  0
GROUP
  5
AFF4
102
{ACAD_REACTORS
330
D
102
}
330
D
100
AcDbGroup
300

 70
     1
 71
     1
  0
GROUP
  5
2A894
102
{ACAD_REACTORS
330
D
102
}
330
D
100
AcDbGroup
300

 70
     1
 71
     1
  0
GROUP
  5
B973
102
{ACAD_REACTORS
330
D
102
}
330
D
100
AcDbGroup
300

 70
     1
 71
     1
  0
GROUP
  5
148A7
102
{ACAD_REACTORS
330
D
102
}
330
D
100
AcDbGroup
300

 70
     1
 71
     1
  0
GROUP
  5
297E9
102
{ACAD_REACTORS
330
D
102
}
330
D
100
AcDbGroup
300

 70
     1
 71
     1
  0
GROUP
  5
A332
102
{ACAD_REACTORS
330
D
102
}
330
D
100
AcDbGroup
300

 70
     1
 71
     1
  0
GROUP
  5
2AA7A
102
{ACAD_REACTORS
330
D
102
}
330
D
100
AcDbGroup
300

 70
     1
 71
     1
  0
GROUP
  5
2B443
102
{ACAD_REACTORS
330
D
102
}
330
D
100
AcDbGroup
300

 70
     1
 71
     1
  0
GROUP
  5
2A897
102
{ACAD_REACTORS
330
D
102
}
330
D
100
AcDbGroup
300

 70
     1
 71
     1
  0
GROUP
  5
2BBFC
102
{ACAD_REACTORS
330
D
102
}
330
D
100
AcDbGroup
300

 70
     1
 71
     1
  0
GROUP
  5
2538E
102
{ACAD_REACTORS
330
D
102
}
330
D
100
AcDbGroup
300

 70
     1
 71
     1
  0
GROUP
  5
A986
102
{ACAD_REACTORS
330
D
102
}
330
D
100
AcDbGroup
300

 70
     1
 71
     1
  0
GROUP
  5
248CB
102
{ACAD_REACTORS
330
D
102
}
330
D
100
AcDbGroup
300

 70
     1
 71
     1
  0
GROUP
  5
6FB1
102
{ACAD_REACTORS
330
D
102
}
330
D
100
AcDbGroup
300

 70
     1
 71
     1
  0
GROUP
  5
19794
102
{ACAD_REACTORS
330
D
102
}
330
D
100
AcDbGroup
300

 70
     1
 71
     1
  0
GROUP
  5
920D
102
{ACAD_REACTORS
330
D
102
}
330
D
100
AcDbGroup
300

 70
     1
 71
     1
  0
GROUP
  5
2A89E
102
{ACAD_REACTORS
330
D
102
}
330
D
100
AcDbGroup
300

 70
     1
 71
     1
  0
GROUP
  5
662F
102
{ACAD_REACTORS
330
D
102
}
330
D
100
AcDbGroup
300

 70
     1
 71
     1
  0
GROUP
  5
99B0
102
{ACAD_REACTORS
330
D
102
}
330
D
100
AcDbGroup
300

 70
     1
 71
     1
  0
GROUP
  5
29739
102
{ACAD_REACTORS
330
D
102
}
330
D
100
AcDbGroup
300

 70
     1
 71
     1
  0
GROUP
  5
AA9E
102
{ACAD_REACTORS
330
D
102
}
330
D
100
AcDbGroup
300

 70
     1
 71
     1
  0
GROUP
  5
9C90
102
{ACAD_REACTORS
330
D
102
}
330
D
100
AcDbGroup
300

 70
     1
 71
     1
  0
GROUP
  5
27994
102
{ACAD_REACTORS
330
D
102
}
330
D
100
AcDbGroup
300

 70
     1
 71
     1
  0
GROUP
  5
A4F3
102
{ACAD_REACTORS
330
D
102
}
330
D
100
AcDbGroup
300

 70
     1
 71
     1
  0
GROUP
  5
1C0D
102
{ACAD_REACTORS
330
D
102
}
330
D
100
AcDbGroup
300

 70
     1
 71
     1
  0
GROUP
  5
CB94
102
{ACAD_REACTORS
330
D
102
}
330
D
100
AcDbGroup
300

 70
     1
 71
     1
  0
GROUP
  5
2BC02
102
{ACAD_REACTORS
330
D
102
}
330
D
100
AcDbGroup
300

 70
     1
 71
     1
  0
GROUP
  5
2BC09
102
{ACAD_REACTORS
330
D
102
}
330
D
100
AcDbGroup
300

 70
     1
 71
     1
  0
GROUP
  5
BB55
102
{ACAD_REACTORS
330
D
102
}
330
D
100
AcDbGroup
300

 70
     1
 71
     1
  0
GROUP
  5
6AB6
102
{ACAD_REACTORS
330
D
102
}
330
D
100
AcDbGroup
300

 70
     1
 71
     1
  0
GROUP
  5
6CF7
102
{ACAD_REACTORS
330
D
102
}
330
D
100
AcDbGroup
300

 70
     1
 71
     1
  0
GROUP
  5
1C73
102
{ACAD_REACTORS
330
D
102
}
330
D
100
AcDbGroup
300

 70
     1
 71
     1
  0
GROUP
  5
1D705
102
{ACAD_REACTORS
330
D
102
}
330
D
100
AcDbGroup
300

 70
     1
 71
     1
  0
GROUP
  5
B351
102
{ACAD_REACTORS
330
D
102
}
330
D
100
AcDbGroup
300

 70
     1
 71
     1
  0
GROUP
  5
C1E4
102
{ACAD_REACTORS
330
D
102
}
330
D
100
AcDbGroup
300

 70
     1
 71
     1
  0
GROUP
  5
9936
102
{ACAD_REACTORS
330
D
102
}
330
D
100
AcDbGroup
300

 70
     1
 71
     1
  0
GROUP
  5
29738
102
{ACAD_REACTORS
330
D
102
}
330
D
100
AcDbGroup
300

 70
     1
 71
     1
  0
GROUP
  5
2BBFB
102
{ACAD_REACTORS
330
D
102
}
330
D
100
AcDbGroup
300

 70
     1
 71
     1
  0
GROUP
  5
2BC0B
102
{ACAD_REACTORS
330
D
102
}
330
D
100
AcDbGroup
300

 70
     1
 71
     1
  0
GROUP
  5
80FC
102
{ACAD_REACTORS
330
D
102
}
330
D
100
AcDbGroup
300

 70
     1
 71
     1
  0
GROUP
  5
27116
102
{ACAD_REACTORS
330
D
102
}
330
D
100
AcDbGroup
300

 70
     1
 71
     1
  0
GROUP
  5
2880B
102
{ACAD_REACTORS
330
D
102
}
330
D
100
AcDbGroup
300

 70
     1
 71
     1
  0
MLINESTYLE
  5
18
102
{ACAD_REACTORS
330
17
102
}
330
17
100
AcDbMlineStyle
  2
STANDARD
 70
     0
  3

 62
   256
 51
90.0
 52
90.0
 71
     2
 49
0.5
 62
   256
  6
BYLAYER
 49
-0.5
 62
   256
  6
BYLAYER
  0
ACDBPLACEHOLDER
  5
F
102
{ACAD_REACTORS
330
E
102
}
330
E
100
AcDbPlaceHolder
280
     0
  0
XRECORD
  5
2DC2E
102
{ACAD_REACTORS
330
2DC24
102
}
330
2DC24
100
AcDbXrecord
 90
        0
  0
XRECORD
  5
2DC32
102
{ACAD_REACTORS
330
2DC24
102
}
330
2DC24
100
AcDbXrecord
1000
DSTYLE
1002
{
1070
   179
 70
     8
1070
   341
340
495
1070
   342
340
495
1070
   371
 70
    13
1070
   372
 70
    13
1002
}
  0
XRECORD
  5
2DC2F
102
{ACAD_REACTORS
330
2DC24
102
}
330
2DC24
100
AcDbXrecord
  1
{317A188D-5D9A-4B88-8B34-F77A538D2CB2}
  0
XRECORD
  5
2DC27
102
{ACAD_REACTORS
330
2DC24
102
}
330
2DC24
100
AcDbXrecord
  1

  0
XRECORD
  5
2DC2D
102
{ACAD_REACTORS
330
2DC24
102
}
330
2DC24
100
AcDbXrecord
 90
        4
  0
XRECORD
  5
2DC29
102
{ACAD_REACTORS
330
2DC24
102
}
330
2DC24
100
AcDbXrecord
340
1A
  0
XRECORD
  5
2DC2C
102
{ACAD_REACTORS
330
2DC24
102
}
330
2DC24
100
AcDbXrecord
 90
    10781
  0
XRECORD
  5
2DC2A
102
{ACAD_REACTORS
330
2DC24
102
}
330
2DC24
100
AcDbXrecord
340
19
  0
XRECORD
  5
2DC2B
102
{ACAD_REACTORS
330
2DC24
102
}
330
2DC24
100
AcDbXrecord
340
E
  0
XRECORD
  5
2DC31
102
{ACAD_REACTORS
330
2DC24
102
}
330
2DC24
100
AcDbXrecord
 40
0.0
  0
XRECORD
  5
2DC35
102
{ACAD_REACTORS
330
2DC24
102
}
330
2DC24
100
AcDbXrecord
340
0
  0
XRECORD
  5
2DC3B
102
{ACAD_REACTORS
330
2DC24
102
}
330
2DC24
100
AcDbXrecord
 10
0.0
 20
0.0
 30
0.0
  0
XRECORD
  5
2DC37
102
{ACAD_REACTORS
330
2DC24
102
}
330
2DC24
100
AcDbXrecord
 10
0.0
 20
0.0
 30
0.0
  0
XRECORD
  5
2DC3A
102
{ACAD_REACTORS
330
2DC24
102
}
330
2DC24
100
AcDbXrecord
 10
0.0
 20
0.0
 30
0.0
  0
XRECORD
  5
2DC38
102
{ACAD_REACTORS
330
2DC24
102
}
330
2DC24
100
AcDbXrecord
 10
0.0
 20
0.0
 30
0.0
  0
XRECORD
  5
2DC39
102
{ACAD_REACTORS
330
2DC24
102
}
330
2DC24
100
AcDbXrecord
 10
0.0
 20
0.0
 30
0.0
  0
XRECORD
  5
2DC36
102
{ACAD_REACTORS
330
2DC24
102
}
330
2DC24
100
AcDbXrecord
 10
0.0
 20
0.0
 30
0.0
  0
XRECORD
  5
2DC33
102
{ACAD_REACTORS
330
2DC24
102
}
330
2DC24
100
AcDbXrecord
340
0
  0
XRECORD
  5
2DC34
102
{ACAD_REACTORS
330
2DC24
102
}
330
2DC24
100
AcDbXrecord
 70
     0
  0
XRECORD
  5
2DC28
102
{ACAD_REACTORS
330
2DC24
102
}
330
2DC24
100
AcDbXrecord
  1

  0
XRECORD
  5
2DC25
102
{ACAD_REACTORS
330
2DC24
102
}
330
2DC24
100
AcDbXrecord
 90
        1
  0
XRECORD
  5
2DC26
102
{ACAD_REACTORS
330
2DC24
102
}
330
2DC24
100
AcDbXrecord
 90
       70
  0
XRECORD
  5
2DC3E
102
{ACAD_REACTORS
330
2DC24
102
}
330
2DC24
100
AcDbXrecord
340
0
  0
XRECORD
  5
2DC44
102
{ACAD_REACTORS
330
2DC24
102
}
330
2DC24
100
AcDbXrecord
 10
0.0
 20
0.0
 30
0.0
  0
XRECORD
  5
2DC40
102
{ACAD_REACTORS
330
2DC24
102
}
330
2DC24
100
AcDbXrecord
 10
0.0
 20
0.0
 30
0.0
  0
XRECORD
  5
2DC43
102
{ACAD_REACTORS
330
2DC24
102
}
330
2DC24
100
AcDbXrecord
 10
0.0
 20
0.0
 30
0.0
  0
XRECORD
  5
2DC41
102
{ACAD_REACTORS
330
2DC24
102
}
330
2DC24
100
AcDbXrecord
 10
0.0
 20
0.0
 30
0.0
  0
XRECORD
  5
2DC42
102
{ACAD_REACTORS
330
2DC24
102
}
330
2DC24
100
AcDbXrecord
 10
0.0
 20
0.0
 30
0.0
  0
XRECORD
  5
2DC3F
102
{ACAD_REACTORS
330
2DC24
102
}
330
2DC24
100
AcDbXrecord
 10
0.0
 20
0.0
 30
0.0
  0
XRECORD
  5
2DC3C
102
{ACAD_REACTORS
330
2DC24
102
}
330
2DC24
100
AcDbXrecord
340
0
  0
XRECORD
  5
2DC3D
102
{ACAD_REACTORS
330
2DC24
102
}
330
2DC24
100
AcDbXrecord
 70
     0
  0
XRECORD
  5
2DC30
102
{ACAD_REACTORS
330
2DC24
102
}
330
2DC24
100
AcDbXrecord
  1
{09BC8249-687D-4191-BA0F-C8C7DDE6D6B4}
  0
DICTIONARYVAR
  5
2DBF6
102
{ACAD_REACTORS
330
72CC
102
}
330
72CC
100
DictionaryVariables
280
     0
  1
1
  0
DICTIONARYVAR
  5
72CD
102
{ACAD_REACTORS
330
72CC
102
}
330
72CC
100
DictionaryVariables
280
     0
  1
96
  0
XRECORD
  5
2C17B
102
{ACAD_REACTORS
330
2C17A
102
}
330
2C17A
100
AcDbXrecord
  1
0
  1
*0
  1
*
  1
*
 70
     0
  1
*
  1
*
  0
XRECORD
  5
2C17C
102
{ACAD_REACTORS
330
2C17A
102
}
330
2C17A
100
AcDbXrecord
  1
11
  1
*11
  1
*
  1
*
 70
     0
  1
*
  1
*
  0
XRECORD
  5
2C17D
102
{ACAD_REACTORS
330
2C17A
102
}
330
2C17A
100
AcDbXrecord
  1
150_
  1
150_*
  1
*
  1
*
 70
     0
  1
*
  1
*
  0
XRECORD
  5
2C17E
102
{ACAD_REACTORS
330
2C17A
102
}
330
2C17A
100
AcDbXrecord
  1
160_
  1
160_*
  1
*
  1
*
 70
     0
  1
*
  1
*
  0
XRECORD
  5
2C17F
102
{ACAD_REACTORS
330
2C17A
102
}
330
2C17A
100
AcDbXrecord
  1
170_
  1
170_*
  1
*
  1
*
 70
     0
  1
*
  1
*
  0
XRECORD
  5
2C180
102
{ACAD_REACTORS
330
2C17A
102
}
330
2C17A
100
AcDbXrecord
  1
171_
  1
171_*
  1
*
  1
*
 70
     0
  1
*
  1
*
  0
XRECORD
  5
2C181
102
{ACAD_REACTORS
330
2C17A
102
}
330
2C17A
100
AcDbXrecord
  1
350_
  1
350_*
  1
*
  1
*
 70
     0
  1
*
  1
*
  0
XRECORD
  5
2C182
102
{ACAD_REACTORS
330
2C17A
102
}
330
2C17A
100
AcDbXrecord
  1
4
  1
*4
  1
*
  1
*
 70
     0
  1
*
  1
*
  0
XRECORD
  5
2C183
102
{ACAD_REACTORS
330
2C17A
102
}
330
2C17A
100
AcDbXrecord
  1
5
  1
*5
  1
*
  1
*
 70
     0
  1
*
  1
*
  0
XRECORD
  5
2C184
102
{ACAD_REACTORS
330
2C17A
102
}
330
2C17A
100
AcDbXrecord
  1
7
  1
*7
  1
*
  1
*
 70
     0
  1
*
  1
*
  0
XRECORD
  5
2C185
102
{ACAD_REACTORS
330
2C17A
102
}
330
2C17A
100
AcDbXrecord
  1
kiseki
  1
kiseki*
  1
*
  1
*
 70
     0
  1
*
  1
*
  0
ENDSEC
  0
EOF
