  0
SECTION
  2
HEADER
  9
$ACADVER
  1
AC1015
  9
$ACADMAINTVER
 70
     6
  9
$DWGCODEPAGE
  3
ANSI_932
  9
$INSBASE
 10
0.0
 20
0.0
 30
0.0
  9
$EXTMIN
 10
12617.14547390158
 20
-210.634058437358
 30
0.0
  9
$EXTMAX
 10
12861.86447784356
 20
-26.90533906509027
 30
0.0
  9
$LIMMIN
 10
0.0
 20
0.0
  9
$LIMMAX
 10
420.0
 20
297.0
  9
$ORTHOMODE
 70
     0
  9
$REGENMODE
 70
     1
  9
$FILLMODE
 70
     1
  9
$QTEXTMODE
 70
     0
  9
$MIRRTEXT
 70
     1
  9
$LTSCALE
 40
1.0
  9
$ATTMODE
 70
     1
  9
$TEXTSIZE
 40
2.5
  9
$TRACEWID
 40
1.0
  9
$TEXTSTYLE
  7
STANDARD
  9
$CLAYER
  8
0
  9
$CELTYPE
  6
BYLAYER
  9
$CECOLOR
 62
   256
  9
$CELTSCALE
 40
1.0
  9
$DISPSILH
 70
     0
  9
$DIMSCALE
 40
1.0
  9
$DIMASZ
 40
2.5
  9
$DIMEXO
 40
0.8
  9
$DIMDLI
 40
0.38
  9
$DIMRND
 40
0.0
  9
$DIMDLE
 40
0.0
  9
$DIMEXE
 40
0.8
  9
$DIMTP
 40
0.0
  9
$DIMTM
 40
0.0
  9
$DIMTXT
 40
3.0
  9
$DIMCEN
 40
0.0
  9
$DIMTSZ
 40
0.0
  9
$DIMTOL
 70
     0
  9
$DIMLIM
 70
     0
  9
$DIMTIH
 70
     0
  9
$DIMTOH
 70
     0
  9
$DIMSE1
 70
     0
  9
$DIMSE2
 70
     0
  9
$DIMTAD
 70
     3
  9
$DIMZIN
 70
     8
  9
$DIMBLK
  1
Open30
  9
$DIMASO
 70
     1
  9
$DIMSHO
 70
     1
  9
$DIMPOST
  1

  9
$DIMAPOST
  1

  9
$DIMALT
 70
     0
  9
$DIMALTD
 70
     2
  9
$DIMALTF
 40
25.4
  9
$DIMLFAC
 40
1.0
  9
$DIMTOFL
 70
     0
  9
$DIMTVP
 40
0.0
  9
$DIMTIX
 70
     0
  9
$DIMSOXD
 70
     0
  9
$DIMSAH
 70
     0
  9
$DIMBLK1
  1

  9
$DIMBLK2
  1

  9
$DIMSTYLE
  2
まこ
  9
$DIMCLRD
 70
     4
  9
$DIMCLRE
 70
     4
  9
$DIMCLRT
 70
   256
  9
$DIMTFAC
 40
1.0
  9
$DIMGAP
 40
0.5
  9
$DIMJUST
 70
     0
  9
$DIMSD1
 70
     0
  9
$DIMSD2
 70
     0
  9
$DIMTOLJ
 70
     1
  9
$DIMTZIN
 70
     0
  9
$DIMALTZ
 70
     0
  9
$DIMALTTZ
 70
     0
  9
$DIMUPT
 70
     0
  9
$DIMDEC
 70
     2
  9
$DIMTDEC
 70
     2
  9
$DIMALTU
 70
     2
  9
$DIMALTTD
 70
     2
  9
$DIMTXSTY
  7
まこ
  9
$DIMAUNIT
 70
     0
  9
$DIMADEC
 70
     0
  9
$DIMALTRND
 40
0.0
  9
$DIMAZIN
 70
     0
  9
$DIMDSEP
 70
    46
  9
$DIMATFIT
 70
     3
  9
$DIMFRAC
 70
     0
  9
$DIMLDRBLK
  1
Open30
  9
$DIMLUNIT
 70
     2
  9
$DIMLWD
 70
    13
  9
$DIMLWE
 70
    13
  9
$DIMTMOVE
 70
     0
  9
$LUNITS
 70
     2
  9
$LUPREC
 70
     4
  9
$SKETCHINC
 40
1.0
  9
$FILLETRAD
 40
2.0
  9
$AUNITS
 70
     0
  9
$AUPREC
 70
     0
  9
$MENU
  1
.
  9
$ELEVATION
 40
0.0
  9
$PELEVATION
 40
0.0
  9
$THICKNESS
 40
0.0
  9
$LIMCHECK
 70
     0
  9
$CHAMFERA
 40
1.0
  9
$CHAMFERB
 40
1.0
  9
$CHAMFERC
 40
20.0
  9
$CHAMFERD
 40
0.0
  9
$SKPOLY
 70
     0
  9
$TDCREATE
 40
2453095.611059641
  9
$TDUCREATE
 40
2453095.236059641
  9
$TDUPDATE
 40
2457604.559840266
  9
$TDUUPDATE
 40
2457604.184840266
  9
$TDINDWG
 40
10.7388948611
  9
$TDUSRTIMER
 40
2457604.184768044
  9
$USRTIMER
 70
     1
  9
$ANGBASE
 50
0.0
  9
$ANGDIR
 70
     0
  9
$PDMODE
 70
     0
  9
$PDSIZE
 40
0.0
  9
$PLINEWID
 40
0.0
  9
$SPLFRAME
 70
     0
  9
$SPLINETYPE
 70
     6
  9
$SPLINESEGS
 70
     8
  9
$HANDSEED
  5
2848C
  9
$SURFTAB1
 70
     6
  9
$SURFTAB2
 70
     6
  9
$SURFTYPE
 70
     6
  9
$SURFU
 70
     6
  9
$SURFV
 70
     6
  9
$UCSBASE
  2

  9
$UCSNAME
  2

  9
$UCSORG
 10
0.0
 20
0.0
 30
0.0
  9
$UCSXDIR
 10
1.0
 20
0.0
 30
0.0
  9
$UCSYDIR
 10
0.0
 20
1.0
 30
0.0
  9
$UCSORTHOREF
  2

  9
$UCSORTHOVIEW
 70
     0
  9
$UCSORGTOP
 10
0.0
 20
0.0
 30
0.0
  9
$UCSORGBOTTOM
 10
0.0
 20
0.0
 30
0.0
  9
$UCSORGLEFT
 10
0.0
 20
0.0
 30
0.0
  9
$UCSORGRIGHT
 10
0.0
 20
0.0
 30
0.0
  9
$UCSORGFRONT
 10
0.0
 20
0.0
 30
0.0
  9
$UCSORGBACK
 10
0.0
 20
0.0
 30
0.0
  9
$PUCSBASE
  2

  9
$PUCSNAME
  2

  9
$PUCSORG
 10
0.0
 20
0.0
 30
0.0
  9
$PUCSXDIR
 10
1.0
 20
0.0
 30
0.0
  9
$PUCSYDIR
 10
0.0
 20
1.0
 30
0.0
  9
$PUCSORTHOREF
  2

  9
$PUCSORTHOVIEW
 70
     0
  9
$PUCSORGTOP
 10
0.0
 20
0.0
 30
0.0
  9
$PUCSORGBOTTOM
 10
0.0
 20
0.0
 30
0.0
  9
$PUCSORGLEFT
 10
0.0
 20
0.0
 30
0.0
  9
$PUCSORGRIGHT
 10
0.0
 20
0.0
 30
0.0
  9
$PUCSORGFRONT
 10
0.0
 20
0.0
 30
0.0
  9
$PUCSORGBACK
 10
0.0
 20
0.0
 30
0.0
  9
$USERI1
 70
     0
  9
$USERI2
 70
     0
  9
$USERI3
 70
     0
  9
$USERI4
 70
     0
  9
$USERI5
 70
     0
  9
$USERR1
 40
0.0
  9
$USERR2
 40
0.0
  9
$USERR3
 40
0.0
  9
$USERR4
 40
0.0
  9
$USERR5
 40
0.0
  9
$WORLDVIEW
 70
     1
  9
$SHADEDGE
 70
     3
  9
$SHADEDIF
 70
    70
  9
$TILEMODE
 70
     1
  9
$MAXACTVP
 70
    48
  9
$PINSBASE
 10
0.0
 20
0.0
 30
0.0
  9
$PLIMCHECK
 70
     0
  9
$PEXTMIN
 10
1.000000000000000E+20
 20
1.000000000000000E+20
 30
1.000000000000000E+20
  9
$PEXTMAX
 10
-1.000000000000000E+20
 20
-1.000000000000000E+20
 30
-1.000000000000000E+20
  9
$PLIMMIN
 10
-7.5
 20
-20.0
  9
$PLIMMAX
 10
412.5
 20
277.0
  9
$UNITMODE
 70
     0
  9
$VISRETAIN
 70
     1
  9
$PLINEGEN
 70
     0
  9
$PSLTSCALE
 70
     1
  9
$TREEDEPTH
 70
  3020
  9
$CMLSTYLE
  2
STANDARD
  9
$CMLJUST
 70
     0
  9
$CMLSCALE
 40
20.0
  9
$PROXYGRAPHICS
 70
     1
  9
$MEASUREMENT
 70
     1
  9
$CELWEIGHT
370
    -1
  9
$ENDCAPS
280
     0
  9
$JOINSTYLE
280
     0
  9
$LWDISPLAY
290
     1
  9
$INSUNITS
 70
     0
  9
$HYPERLINKBASE
  1

  9
$STYLESHEET
  1
monochrome.ctb
  9
$XEDIT
290
     1
  9
$CEPSNTYPE
380
     0
  9
$PSTYLEMODE
290
     1
  9
$FINGERPRINTGUID
  2
{0FC43A6F-16A9-11D5-BFD6-00004C030E53}
  9
$VERSIONGUID
  2
{2E397D93-D470-4334-AC29-321E817CF3F4}
  9
$EXTNAMES
290
     1
  9
$PSVPSCALE
 40
0.0
  9
$OLESTARTUP
290
     0
  0
ENDSEC
  0
SECTION
  2
CLASSES
  0
CLASS
  1
HATCH
  2
AcDbHatch
  3
ObjectDBX Classes
 90
        0
280
     0
281
     1
  0
CLASS
  1
LWPOLYLINE
  2
AcDbPolyline
  3
ObjectDBX Classes
 90
        0
280
     0
281
     1
  0
CLASS
  1
ACDBDICTIONARYWDFLT
  2
AcDbDictionaryWithDefault
  3
ObjectDBX Classes
 90
        0
280
     0
281
     0
  0
CLASS
  1
ACDBPLACEHOLDER
  2
AcDbPlaceHolder
  3
ObjectDBX Classes
 90
        0
280
     0
281
     0
  0
CLASS
  1
LAYOUT
  2
AcDbLayout
  3
ObjectDBX Classes
 90
        0
280
     0
281
     0
  0
CLASS
  1
DICTIONARYVAR
  2
AcDbDictionaryVar
  3
ObjectDBX Classes
 90
        0
280
     0
281
     0
  0
CLASS
  1
VISUALSTYLE
  2
AcDbVisualStyle
  3
ObjectDBX Classes
 90
     4095
280
     0
281
     0
  0
CLASS
  1
SCALE
  2
AcDbScale
  3
ObjectDBX Classes
 90
     1153
280
     0
281
     0
  0
CLASS
  1
MATERIAL
  2
AcDbMaterial
  3
ObjectDBX Classes
 90
     1153
280
     0
281
     0
  0
CLASS
  1
TABLESTYLE
  2
AcDbTableStyle
  3
ObjectDBX Classes
 90
     4095
280
     0
281
     0
  0
CLASS
  1
MLEADERSTYLE
  2
AcDbMLeaderStyle
  3
ACDB_MLEADERSTYLE_CLASS
 90
     4095
280
     0
281
     0
  0
CLASS
  1
SUN
  2
AcDbSun
  3
SCENEOE
 90
     1153
280
     0
281
     0
  0
CLASS
  1
RASTERVARIABLES
  2
AcDbRasterVariables
  3
ISM
 90
        0
280
     0
281
     0
  0
ENDSEC
  0
SECTION
  2
TABLES
  0
TABLE
  2
VPORT
  5
8
330
0
100
AcDbSymbolTable
 70
     1
  0
VPORT
  5
281F2
330
8
100
AcDbSymbolTableRecord
100
AcDbViewportTableRecord
  2
*Active
 70
     0
 10
0.0
 20
0.0
 11
1.0
 21
1.0
 12
12739.50497587257
 22
-118.7696987512241
 13
0.0
 23
0.0
 14
10.0
 24
10.0
 15
10.0
 25
10.0
 16
0.0
 26
0.0
 36
1.0
 17
0.0
 27
0.0
 37
0.0
 40
187.4032937597131
 41
1.890132248219736
 42
50.0
 43
0.0
 44
0.0
 50
0.0
 51
0.0
 71
    16
 72
   100
 73
     1
 74
     0
 75
     0
 76
     0
 77
     0
 78
     0
281
     0
 65
     1
110
0.0
120
0.0
130
0.0
111
1.0
121
0.0
131
0.0
112
0.0
122
1.0
132
0.0
 79
     0
146
0.0
  0
ENDTAB
  0
TABLE
  2
LTYPE
  5
5
330
0
100
AcDbSymbolTable
 70
     8
  0
LTYPE
  5
12
330
5
100
AcDbSymbolTableRecord
100
AcDbLinetypeTableRecord
  2
BYBLOCK
 70
     0
  3

 72
    65
 73
     0
 40
0.0
  0
LTYPE
  5
13
330
5
100
AcDbSymbolTableRecord
100
AcDbLinetypeTableRecord
  2
BYLAYER
 70
     0
  3

 72
    65
 73
     0
 40
0.0
  0
LTYPE
  5
14
330
5
100
AcDbSymbolTableRecord
100
AcDbLinetypeTableRecord
  2
CONTINUOUS
 70
     0
  3
Solid line
 72
    65
 73
     0
 40
0.0
  0
LTYPE
  5
2843
330
5
100
AcDbSymbolTableRecord
100
AcDbLinetypeTableRecord
  2
CENTER
 70
     0
  3
____ _ ____ _ ____ _ ____ _ ____ _ ____ _ ____ 
 72
    65
 73
     4
 40
2.0
 49
1.25
 74
     0
 49
-0.25
 74
     0
 49
0.25
 74
     0
 49
-0.25
 74
     0
  0
LTYPE
  5
2844
330
5
100
AcDbSymbolTableRecord
100
AcDbLinetypeTableRecord
  2
HIDDEN
 70
     0
  3
__ __ __ __ __ __ __ __ __ __ __ __ __ __ __ __
 72
    65
 73
     2
 40
0.375
 49
0.25
 74
     0
 49
-0.125
 74
     0
  0
LTYPE
  5
2845
330
5
100
AcDbSymbolTableRecord
100
AcDbLinetypeTableRecord
  2
PHANTOM
 70
     0
  3
Phantom ______  __  __  ______  __  __  ______
 72
    65
 73
     6
 40
2.5
 49
1.25
 74
     0
 49
-0.25
 74
     0
 49
0.25
 74
     0
 49
-0.25
 74
     0
 49
0.25
 74
     0
 49
-0.25
 74
     0
  0
ENDTAB
  0
TABLE
  2
LAYER
  5
2
102
{ACAD_XDICTIONARY
360
B18F
102
}
330
0
100
AcDbSymbolTable
 70
    29
  0
LAYER
  5
E
330
2
100
AcDbSymbolTableRecord
100
AcDbLayerTableRecord
  2
0
 70
     0
 62
     7
  6
CONTINUOUS
370
    -3
390
682
  0
LAYER
  5
A19
330
2
100
AcDbSymbolTableRecord
100
AcDbLayerTableRecord
  2
基板
 70
     0
 62
     3
  6
CONTINUOUS
370
    30
390
682
  0
LAYER
  5
C05
330
2
100
AcDbSymbolTableRecord
100
AcDbLayerTableRecord
  2
寸法
 70
     0
 62
     4
  6
CONTINUOUS
370
    13
390
682
  0
LAYER
  5
43CD
330
2
100
AcDbSymbolTableRecord
100
AcDbLayerTableRecord
  2
実線
 70
     0
 62
     3
  6
CONTINUOUS
370
    30
390
682
  0
LAYER
  5
43CE
330
2
100
AcDbSymbolTableRecord
100
AcDbLayerTableRecord
  2
破線
 70
     0
 62
     8
  6
HIDDEN
370
    13
390
682
  0
LAYER
  5
43D0
330
2
100
AcDbSymbolTableRecord
100
AcDbLayerTableRecord
  2
細線
 70
     0
 62
     7
  6
CONTINUOUS
370
    13
390
682
  0
LAYER
  5
43D1
330
2
100
AcDbSymbolTableRecord
100
AcDbLayerTableRecord
  2
隠れ線
 70
     0
 62
   252
  6
HIDDEN
370
    13
390
682
  0
LAYER
  5
43D2
330
2
100
AcDbSymbolTableRecord
100
AcDbLayerTableRecord
  2
Bolt
 70
     0
 62
    31
  6
CONTINUOUS
370
    30
390
682
  0
LAYER
  5
43D3
330
2
100
AcDbSymbolTableRecord
100
AcDbLayerTableRecord
  2
CENTER
 70
     0
 62
     1
  6
CENTER
370
    13
390
682
  0
LAYER
  5
B442
330
2
100
AcDbSymbolTableRecord
100
AcDbLayerTableRecord
  2
A
 70
     0
 62
     7
  6
CONTINUOUS
370
    -3
390
682
  0
LAYER
  5
B443
330
2
100
AcDbSymbolTableRecord
100
AcDbLayerTableRecord
  2
PIC11
 70
     0
 62
     7
  6
CONTINUOUS
370
    -3
390
682
  0
ENDTAB
  0
TABLE
  2
STYLE
  5
3
330
0
100
AcDbSymbolTable
 70
     7
  0
STYLE
  5
F
330
3
100
AcDbSymbolTableRecord
100
AcDbTextStyleTableRecord
  2
STANDARD
 70
     0
 40
0.0
 41
1.0
 50
0.0
 71
     0
 42
2.5
  3
isocp.shx
  4
bigfont.shx
  0
STYLE
  5
1B47
330
3
100
AcDbSymbolTableRecord
100
AcDbTextStyleTableRecord
  2
まこ
 70
     0
 40
0.0
 41
1.0
 50
0.0
 71
     0
 42
2.5
  3
simplex.shx
  4
bigfont.shx
  0
ENDTAB
  0
TABLE
  2
VIEW
  5
6
330
0
100
AcDbSymbolTable
 70
     0
  0
ENDTAB
  0
TABLE
  2
UCS
  5
7
330
0
100
AcDbSymbolTable
 70
     0
  0
ENDTAB
  0
TABLE
  2
APPID
  5
9
330
0
100
AcDbSymbolTable
 70
     2
  0
APPID
  5
10
330
9
100
AcDbSymbolTableRecord
100
AcDbRegAppTableRecord
  2
ACAD
 70
     0
  0
APPID
  5
2825D
330
9
100
AcDbSymbolTableRecord
100
AcDbRegAppTableRecord
  2
PLOTTRANSPARENCY
 70
     0
  0
ENDTAB
  0
TABLE
  2
DIMSTYLE
  5
A
330
0
100
AcDbSymbolTable
 70
     8
100
AcDbDimStyleTable
  0
DIMSTYLE
105
1D
330
A
100
AcDbSymbolTableRecord
100
AcDbDimStyleTableRecord
  2
STANDARD
 70
     0
178
     0
340
F
  0
DIMSTYLE
105
1B48
330
A
100
AcDbSymbolTableRecord
100
AcDbDimStyleTableRecord
  2
まこ
 70
     0
 41
2.5
 42
0.8
 44
0.8
 73
     0
 74
     0
 77
     3
 78
     8
140
3.0
141
0.0
147
0.5
176
     4
177
     4
271
     2
178
   256
271
     2
272
     2
340
1B47
341
83F
342
83F
371
    13
372
    13
  0
ENDTAB
  0
TABLE
  2
BLOCK_RECORD
  5
1
330
0
100
AcDbSymbolTable
 70
     2
  0
BLOCK_RECORD
  5
18
330
1
100
AcDbSymbolTableRecord
100
AcDbBlockTableRecord
  2
*MODEL_SPACE
340
685
  0
BLOCK_RECORD
  5
28408
330
1
100
AcDbSymbolTableRecord
100
AcDbBlockTableRecord
  2
*Paper_Space
340
28409
  0
BLOCK_RECORD
  5
83F
330
1
100
AcDbSymbolTableRecord
100
AcDbBlockTableRecord
  2
_Open30
340
0
  0
ENDTAB
  0
ENDSEC
  0
SECTION
  2
BLOCKS
  0
BLOCK
  5
19
330
18
100
AcDbEntity
  8
0
100
AcDbBlockBegin
  2
*MODEL_SPACE
 70
     0
 10
0.0
 20
0.0
 30
0.0
  3
*MODEL_SPACE
  1
*MODEL_SPACE
  0
ENDBLK
  5
1A
330
18
100
AcDbEntity
  8
0
100
AcDbBlockEnd
  0
BLOCK
  5
2840A
330
28408
100
AcDbEntity
 67
     1
  8
0
100
AcDbBlockBegin
  2
*Paper_Space
 70
     0
 10
0.0
 20
0.0
 30
0.0
  3
*Paper_Space
  1
*Paper_Space
  0
ENDBLK
  5
2840B
330
28408
100
AcDbEntity
 67
     1
  8
0
100
AcDbBlockEnd
  0
BLOCK
  5
843
330
83F
100
AcDbEntity
  8
0
100
AcDbBlockBegin
  2
_Open30
 70
     0
 10
0.0
 20
0.0
 30
0.0
  3
_Open30
  1
_Open30
  0
LINE
  5
840
330
83F
100
AcDbEntity
  8
0
  6
ByBlock
 62
     0
370
    -2
100
AcDbLine
 10
-1.0
 20
0.26794919
 30
0.0
 11
0.0
 21
0.0
 31
0.0
  0
LINE
  5
841
330
83F
100
AcDbEntity
  8
0
  6
ByBlock
 62
     0
370
    -2
100
AcDbLine
 10
0.0
 20
0.0
 30
0.0
 11
-1.0
 21
-0.26794919
 31
0.0
  0
LINE
  5
842
330
83F
100
AcDbEntity
  8
0
  6
ByBlock
 62
     0
370
    -2
100
AcDbLine
 10
0.0
 20
0.0
 30
0.0
 11
-1.0
 21
0.0
 31
0.0
  0
ENDBLK
  5
844
330
83F
100
AcDbEntity
  8
0
100
AcDbBlockEnd
  0
ENDSEC
  0
SECTION
  2
ENTITIES
  0
LINE
  5
2769B
330
18
100
AcDbEntity
  8
隠れ線
  6
PHANTOM
 48
2.0
100
AcDbLine
 10
12623.80775850857
 20
-77.58556688128004
 30
0.0
 11
12622.32045122863
 21
-94.5855668812809
 31
0.0
  0
LINE
  5
2769C
330
18
100
AcDbEntity
  8
隠れ線
  6
PHANTOM
 48
2.0
100
AcDbLine
 10
12621.80775850857
 20
-77.58556688128007
 30
0.0
 11
12620.32045122863
 21
-94.58556688128087
 31
0.0
  0
LINE
  5
2769D
330
18
100
AcDbEntity
  8
隠れ線
  6
PHANTOM
 48
2.0
100
AcDbLine
 10
12715.80775850857
 20
-77.58556688128004
 30
0.0
 11
12714.32045122863
 21
-94.5855668812809
 31
0.0
  0
LINE
  5
276A0
330
18
100
AcDbEntity
  8
隠れ線
  6
PHANTOM
 48
2.0
100
AcDbLine
 10
12713.80775850857
 20
-77.58556688128007
 30
0.0
 11
12712.32045122863
 21
-94.58556688128087
 31
0.0
  0
LINE
  5
276A6
330
18
100
AcDbEntity
  8
破線
 48
10.0
100
AcDbLine
 10
12661.54529251799
 20
-80.08556688128004
 30
0.0
 11
12661.54529251799
 21
-94.58556688128047
 31
0.0
  0
LINE
  5
276A7
330
18
100
AcDbEntity
  8
破線
 48
10.0
100
AcDbLine
 10
12661.54529251799
 20
-80.58556688128368
 30
0.0
 11
12661.54529251799
 21
-94.58556688128047
 31
0.0
  0
LINE
  5
276A8
330
18
100
AcDbEntity
  8
破線
 48
10.0
100
AcDbLine
 10
12661.54529251799
 20
-80.58556688128368
 30
0.0
 11
12661.54529251799
 21
-94.58556688128047
 31
0.0
  0
LINE
  5
276A9
102
{ACAD_REACTORS
330
27856
330
27857
102
}
330
18
100
AcDbEntity
  8
PIC11
  6
Continuous
100
AcDbLine
 10
12850.79848775021
 20
-115.2903539112166
 30
0.0
 11
12846.13243635021
 21
-113.3123539112165
 31
0.0
  0
LINE
  5
276AA
102
{ACAD_REACTORS
330
27856
330
27857
102
}
330
18
100
AcDbEntity
  8
PIC11
  6
Continuous
100
AcDbLine
 10
12856.48243635021
 20
-113.4963539112172
 30
0.0
 11
12856.48243635021
 21
-114.7066295512185
 31
0.0
  0
LWPOLYLINE
  5
276AB
102
{ACAD_REACTORS
330
27856
330
27857
102
}
330
18
100
AcDbEntity
  8
0
100
AcDbPolyline
 90
        4
 70
     1
 43
0.0
 10
12798.59957595551
 20
-114.8956900289508
 10
12808.59957595551
 20
-114.8956900289508
 10
12808.59957595551
 20
-109.8956900289508
 10
12798.59957595551
 20
-109.8956900289508
  0
LINE
  5
276B3
102
{ACAD_REACTORS
330
27856
330
27857
102
}
330
18
100
AcDbEntity
  8
実線
 48
0.5
100
AcDbLine
 10
12804.09957595551
 20
-122.8956900289508
 30
0.0
 11
12811.58298302928
 21
-122.8956900289508
 31
0.0
  0
LINE
  5
276B4
102
{ACAD_REACTORS
330
27856
330
27857
102
}
330
18
100
AcDbEntity
  8
実線
 48
0.5
100
AcDbLine
 10
12804.09957595551
 20
-118.2956900289504
 30
0.0
 11
12812.23216821446
 21
-118.2956900289504
 31
0.0
  0
SPLINE
  5
276B5
102
{ACAD_REACTORS
330
27857
330
27858
102
}
330
18
100
AcDbEntity
  8
0
100
AcDbSpline
210
0.0
220
0.0
230
1.0
 70
  1064
 71
     3
 72
    15
 73
    11
 74
     9
 42
0.000000001
 43
0.0000000001
 44
0.0000000001
 40
0.0
 40
0.0
 40
0.0
 40
0.0
 40
1.133765210141823
 40
1.425571067546389
 40
2.051284944323568
 40
4.934222909625498
 40
6.972093565134118
 40
8.878290202796295
 40
9.500751037249756
 40
9.874702562887016
 40
9.874702562887016
 40
9.874702562887016
 40
9.874702562887016
 10
12770.907575001
 20
-123.4956900289511
 30
0.0
 10
12771.02159955771
 20
-123.8902367073676
 30
0.0
 10
12771.16497149008
 20
-124.3863308938144
 30
0.0
 10
12771.932672819
 20
-124.6115485768896
 30
0.0
 10
12772.29542124085
 20
-122.9990089176786
 30
0.0
 10
12772.81654155333
 20
-121.5582100641953
 30
0.0
 10
12773.57194624774
 20
-119.2993258708102
 30
0.0
 10
12773.94755098765
 20
-117.8993592230738
 30
0.0
 10
12774.23934790389
 20
-116.8932344418245
 30
0.0
 10
12774.55299850488
 20
-116.7514355164996
 30
0.0
 10
12774.67071093544
 20
-116.6982186691552
 30
0.0
 11
12770.907575001
 21
-123.4956900289511
 31
0.0
 11
12771.49642532881
 21
-124.4645444262464
 31
0.0
 11
12771.78183185601
 21
-124.5253208414837
 31
0.0
 11
12772.07980559737
 21
-123.9751122400889
 31
0.0
 11
12772.92413763549
 21
-121.2185863974395
 31
0.0
 11
12773.55661438023
 21
-119.2813486794661
 31
0.0
 11
12774.07940449626
 21
-117.4482430862121
 31
0.0
 11
12774.34764228678
 21
-116.8865438978868
 31
0.0
 11
12774.67071093544
 21
-116.6982186691552
 31
0.0
  0
SPLINE
  5
276B6
102
{ACAD_REACTORS
330
27857
330
27858
102
}
330
18
100
AcDbEntity
  8
0
100
AcDbSpline
210
0.0
220
0.0
230
1.0
 70
  1064
 71
     3
 72
    15
 73
    11
 74
     9
 42
0.000000001
 43
0.0000000001
 44
0.0000000001
 40
0.0
 40
0.0
 40
0.0
 40
0.0
 40
1.133765210139323
 40
1.425571067545669
 40
2.051284944313251
 40
4.934222909621464
 40
6.972093565135272
 40
8.878290202792455
 40
9.500751037245058
 40
9.87470256288873
 40
9.87470256288873
 40
9.87470256288873
 40
9.87470256288873
 10
12777.24936761244
 20
-123.5975189273708
 30
0.0
 10
12777.36339216915
 20
-123.9920656057863
 30
0.0
 10
12777.50676410152
 20
-124.4881597922328
 30
0.0
 10
12778.27446543045
 20
-124.7133774753069
 30
0.0
 10
12778.63721385231
 20
-123.1008378161092
 30
0.0
 10
12779.15833416478
 20
-121.6600389626163
 30
0.0
 10
12779.9137388592
 20
-119.4011547692346
 30
0.0
 10
12780.28934359908
 20
-118.0011881214871
 30
0.0
 10
12780.58114051534
 20
-116.9950633402504
 30
0.0
 10
12780.89479111632
 20
-116.8532644149147
 30
0.0
 10
12781.01250354689
 20
-116.8000475675657
 30
0.0
 11
12777.24936761244
 21
-123.5975189273708
 31
0.0
 11
12777.83821794026
 21
-124.5663733246642
 31
0.0
 11
12778.12362446746
 21
-124.6271497399015
 31
0.0
 11
12778.42159820882
 21
-124.0769411385176
 31
0.0
 11
12779.26593024694
 21
-121.3204152958628
 31
0.0
 11
12779.89840699168
 21
-119.3831775778839
 31
0.0
 11
12780.42119710771
 21
-117.5500719846335
 31
0.0
 11
12780.68943489823
 21
-116.9883727963101
 31
0.0
 11
12781.01250354689
 21
-116.8000475675657
 31
0.0
  0
SPLINE
  5
276B7
102
{ACAD_REACTORS
330
27857
330
27858
102
}
330
18
100
AcDbEntity
  8
0
100
AcDbSpline
210
0.0
220
0.0
230
1.0
 70
  1064
 71
     3
 72
    15
 73
    11
 74
     9
 42
0.000000001
 43
0.0000000001
 44
0.0000000001
 40
0.0
 40
0.0
 40
0.0
 40
0.0
 40
1.499034603685081
 40
1.790840461089912
 40
2.416554337860692
 40
5.299492303166634
 40
7.337362958678712
 40
9.226363591831973
 40
9.895149180259745
 40
10.25000639397784
 40
10.25000639397784
 40
10.25000639397784
 40
10.25000639397784
 10
12786.76495682448
 20
-117.9027694601904
 30
0.0
 10
12786.48942148041
 20
-117.4778863919667
 30
0.0
 10
12786.16024973121
 20
-116.9702945138762
 30
0.0
 10
12785.28098934162
 20
-116.6845155016361
 30
0.0
 10
12784.90364694095
 20
-118.3073314615159
 30
0.0
 10
12784.41738293056
 20
-119.747738872183
 30
0.0
 10
12783.5842324021
 20
-121.9764151674982
 30
0.0
 10
12783.39669872227
 20
-123.4519587471213
 30
0.0
 10
12782.98293220445
 20
-124.4086141245791
 30
0.0
 10
12782.66441876299
 20
-124.5515632387512
 30
0.0
 10
12782.55400252
 20
-124.6011181462367
 30
0.0
 11
12786.76495682448
 21
-117.9027694601904
 31
0.0
 11
12785.71244047151
 21
-116.8353828995718
 31
0.0
 11
12785.42703394431
 21
-116.7746064843417
 31
0.0
 11
12785.12906020295
 21
-117.3248150857293
 31
0.0
 11
12784.28472816483
 21
-120.0813409283823
 31
0.0
 11
12783.65225142009
 21
-122.0185786463593
 31
0.0
 11
12783.20565077432
 21
-123.8540271624592
 31
0.0
 11
12782.86444961414
 21
-124.4292279374789
 31
0.0
 11
12782.55400252
 21
-124.6011181462367
 31
0.0
  0
SPLINE
  5
276B8
102
{ACAD_REACTORS
330
27857
330
27858
102
}
330
18
100
AcDbEntity
  8
0
100
AcDbSpline
210
0.0
220
0.0
230
1.0
 70
     8
 71
     3
 72
    15
 73
    11
 74
     0
 42
0.000000001
 43
0.0000000001
 40
0.6100820140234918
 40
0.6100820140234918
 40
0.6100820140234918
 40
0.6100820140234918
 40
1.787223353028587
 40
2.079029210433615
 40
2.704743087200241
 40
5.58768105250932
 40
7.625551708021411
 40
9.514552341177442
 40
10.18333792959924
 40
10.53819514332271
 40
10.53819514332271
 40
10.53819514332271
 40
10.53819514332271
 10
12779.97771061364
 20
-117.6956900289507
 30
0.0
 10
12779.90325515907
 20
-117.2731572275423
 30
0.0
 10
12779.71321026711
 20
-116.8232087615044
 30
0.0
 10
12778.93587643897
 20
-116.5846972176518
 30
0.0
 10
12778.5677507315
 20
-118.2019319753748
 30
0.0
 10
12778.07394765176
 20
-119.6469046969636
 30
0.0
 10
12777.2427950278
 20
-121.8743711539231
 30
0.0
 10
12777.05487616655
 20
-123.3501479815644
 30
0.0
 10
12776.64114156664
 20
-124.3067840310199
 30
0.0
 10
12776.3226266596
 20
-124.449734032671
 30
0.0
 10
12776.21220990855
 20
-124.4992892478134
 30
0.0
  0
LWPOLYLINE
  5
276B9
102
{ACAD_REACTORS
330
27856
330
27857
102
}
330
18
100
AcDbEntity
  8
実線
 48
10.0
100
AcDbPolyline
 90
        3
 70
     0
 43
0.0
 10
12770.907575001
 20
-117.695690028951
 10
12770.907575001
 20
-123.4956900289511
 10
12772.20093488423
 20
-123.4956900289511
  0
SPLINE
  5
276BA
102
{ACAD_REACTORS
330
27856
330
27857
102
}
330
18
100
AcDbEntity
  8
0
 48
0.5
100
AcDbSpline
210
0.0
220
0.0
230
1.0
 70
  1064
 71
     3
 72
    11
 73
     7
 74
     5
 42
0.000000001
 43
0.0000000001
 44
0.0000000001
 40
0.0
 40
0.0
 40
0.0
 40
0.0
 40
1.58113883008419
 40
3.16227766016838
 40
4.743416490252569
 40
6.324555320336759
 40
6.324555320336759
 40
6.324555320336759
 40
6.324555320336759
 10
12795.40757534937
 20
-123.5956893322094
 30
0.0
 10
12795.15757534937
 20
-123.0956893322095
 30
0.0
 10
12794.65757534937
 20
-122.0956893322095
 30
0.0
 10
12795.40757534936
 20
-120.5956893322094
 30
0.0
 10
12796.15757534937
 20
-119.0956893322095
 30
0.0
 10
12795.65757534937
 20
-118.0956893322094
 30
0.0
 10
12795.40757534937
 20
-117.5956893322094
 30
0.0
 11
12795.40757534937
 21
-123.5956893322094
 31
0.0
 11
12794.90757534937
 21
-122.0956893322094
 31
0.0
 11
12795.40757534937
 21
-120.5956893322094
 31
0.0
 11
12795.90757534937
 21
-119.0956893322094
 31
0.0
 11
12795.40757534937
 21
-117.5956893322094
 31
0.0
  0
SPLINE
  5
276BB
102
{ACAD_REACTORS
330
27856
330
27857
102
}
330
18
100
AcDbEntity
  8
0
 48
0.5
100
AcDbSpline
210
0.0
220
0.0
230
1.0
 70
  1064
 71
     3
 72
    11
 73
     7
 74
     5
 42
0.000000001
 43
0.0000000001
 44
0.0000000001
 40
0.0
 40
0.0
 40
0.0
 40
0.0
 40
1.58113883008419
 40
3.16227766016838
 40
4.743416490252569
 40
6.324555320336759
 40
6.324555320336759
 40
6.324555320336759
 40
6.324555320336759
 10
12794.40757534937
 20
-123.5956893322094
 30
0.0
 10
12794.15757534937
 20
-123.0956893322095
 30
0.0
 10
12793.65757534937
 20
-122.0956893322095
 30
0.0
 10
12794.40757534937
 20
-120.5956893322094
 30
0.0
 10
12795.15757534937
 20
-119.0956893322095
 30
0.0
 10
12794.65757534937
 20
-118.0956893322094
 30
0.0
 10
12794.40757534937
 20
-117.5956893322094
 30
0.0
 11
12794.40757534937
 21
-123.5956893322094
 31
0.0
 11
12793.90757534937
 21
-122.0956893322094
 31
0.0
 11
12794.40757534937
 21
-120.5956893322094
 31
0.0
 11
12794.90757534937
 21
-119.0956893322094
 31
0.0
 11
12794.40757534937
 21
-117.5956893322094
 31
0.0
  0
LWPOLYLINE
  5
276BC
102
{ACAD_REACTORS
330
27856
330
27857
102
}
330
18
100
AcDbEntity
  8
0
100
AcDbPolyline
 90
        4
 70
     1
 43
0.0
 10
12803.09957595551
 20
-124.3956900289508
 10
12804.09957595551
 20
-124.3956900289508
 10
12804.09957595551
 20
-114.8956900289508
 10
12803.09957595551
 20
-114.8956900289508
  0
LWPOLYLINE
  5
276C2
102
{ACAD_REACTORS
330
27856
330
27857
102
}
330
18
100
AcDbEntity
  8
実線
 48
10.0
100
AcDbPolyline
 90
        2
 70
     0
 43
0.0
 10
12783.46242901215
 20
-122.8956900289508
 10
12794.08298302928
 20
-122.8956900289508
  0
LWPOLYLINE
  5
276C3
102
{ACAD_REACTORS
330
27856
330
27857
102
}
330
18
100
AcDbEntity
  8
実線
 48
10.0
100
AcDbPolyline
 90
        2
 70
     0
 43
0.0
 10
12776.94726781905
 20
-123.4956900289511
 10
12778.56996732625
 20
-123.4956900289511
  0
LINE
  5
276C4
102
{ACAD_REACTORS
330
27857
330
27858
102
}
330
18
100
AcDbEntity
  8
0
100
AcDbLine
 10
12782.55400252001
 20
-124.6011181462367
 30
0.0
 11
12778.13877412589
 21
-124.6233846569434
 31
0.0
  0
LINE
  5
276C5
102
{ACAD_REACTORS
330
27857
330
27858
102
}
330
18
100
AcDbEntity
  8
0
100
AcDbLine
 10
12776.21220990856
 20
-124.4992892478134
 30
0.0
 11
12771.79698151445
 21
-124.5215557585219
 31
0.0
  0
LINE
  5
276C6
102
{ACAD_REACTORS
330
27856
330
27857
102
}
330
18
100
AcDbEntity
  8
実線
 48
0.5
100
AcDbLine
 10
12795.08298302928
 20
-122.8956900289508
 30
0.0
 11
12803.09957595551
 21
-122.8956900289508
 31
0.0
  0
LWPOLYLINE
  5
276CF
102
{ACAD_REACTORS
330
27856
330
27857
102
}
330
18
100
AcDbEntity
  8
実線
 48
10.0
100
AcDbPolyline
 90
        2
 70
     0
 43
0.0
 10
12780.37983194357
 20
-117.695690028951
 10
12778.66873092759
 20
-117.695690028951
  0
LWPOLYLINE
  5
276D0
102
{ACAD_REACTORS
330
27856
330
27857
102
}
330
18
100
AcDbEntity
  8
実線
 48
10.0
100
AcDbPolyline
 90
        3
 70
     0
 43
0.0
 10
12774.00927824255
 20
-117.695690028951
 10
12770.907575001
 20
-117.695690028951
 10
12770.907575001
 20
-117.695690028951
  0
LINE
  5
276D1
102
{ACAD_REACTORS
330
27857
330
27858
102
}
330
18
100
AcDbEntity
  8
0
100
AcDbLine
 10
12785.46816864017
 20
-116.7700386224955
 30
0.0
 11
12781.01250354689
 21
-116.8000475675675
 31
0.0
  0
LINE
  5
276D2
102
{ACAD_REACTORS
330
27857
330
27858
102
}
330
18
100
AcDbEntity
  8
0
100
AcDbLine
 10
12779.12637602872
 20
-116.6682097240795
 30
0.0
 11
12774.67071093544
 21
-116.6982186691552
 31
0.0
  0
LWPOLYLINE
  5
276D3
102
{ACAD_REACTORS
330
27856
330
27857
102
}
330
18
100
AcDbEntity
  8
実線
 48
10.0
100
AcDbPolyline
 90
        2
 70
     0
 43
0.0
 10
12794.73216821447
 20
-118.2956900289504
 10
12784.87232811335
 20
-118.2956900289504
  0
LINE
  5
276D4
102
{ACAD_REACTORS
330
27856
330
27857
102
}
330
18
100
AcDbEntity
  8
0
 48
0.5
100
AcDbLine
 10
12803.09957595551
 20
-116.7956900289504
 30
0.0
 11
12804.09957595551
 21
-116.7956900289504
 31
0.0
  0
LINE
  5
276D5
102
{ACAD_REACTORS
330
27856
330
27857
102
}
330
18
100
AcDbEntity
  8
実線
 48
0.5
100
AcDbLine
 10
12795.73216821446
 20
-118.2956900289504
 30
0.0
 11
12803.09957595551
 21
-118.2956900289504
 31
0.0
  0
LINE
  5
276D8
102
{ACAD_REACTORS
330
27856
330
27857
102
}
330
18
100
AcDbEntity
  8
A
 62
     7
100
AcDbLine
 10
12825.06443635021
 20
-123.509023362284
 30
0.0
 11
12825.06443635021
 21
-117.6823566956176
 31
0.0
  0
LINE
  5
276D9
102
{ACAD_REACTORS
330
27856
330
27857
102
}
330
18
100
AcDbEntity
  8
A
 62
     7
100
AcDbLine
 10
12840.70443635021
 20
-125.042353911217
 30
0.0
 11
12840.70443635021
 21
-116.0263594800162
 31
0.0
  0
LINE
  5
276DA
102
{ACAD_REACTORS
330
27856
330
27857
102
}
330
18
100
AcDbEntity
  8
A
 62
     7
100
AcDbLine
 10
12853.58443635021
 20
-125.042353911217
 30
0.0
 11
12853.58443635021
 21
-116.0263539112174
 31
0.0
  0
LINE
  5
276DB
102
{ACAD_REACTORS
330
27856
330
27857
102
}
330
18
100
AcDbEntity
  8
A
 62
     7
100
AcDbLine
 10
12838.25110301688
 20
-115.842356695618
 30
0.0
 11
12838.25110301688
 21
-125.3490233622842
 31
0.0
  0
SPLINE
  5
276DC
102
{ACAD_REACTORS
330
27856
330
27857
102
}
330
18
100
AcDbEntity
  8
0
 48
0.5
100
AcDbSpline
210
0.0
220
0.0
230
1.0
 70
  1064
 71
     3
 72
    11
 73
     7
 74
     5
 42
0.000000001
 43
0.0000000001
 44
0.0000000001
 40
0.0
 40
0.0
 40
0.0
 40
0.0
 40
1.58113883008419
 40
3.16227766016838
 40
4.743416490252569
 40
6.324555320336759
 40
6.324555320336759
 40
6.324555320336759
 40
6.324555320336759
 10
12812.90757534937
 20
-123.5956893322094
 30
0.0
 10
12812.65757534937
 20
-123.0956893322095
 30
0.0
 10
12812.15757534937
 20
-122.0956893322095
 30
0.0
 10
12812.90757534937
 20
-120.5956893322094
 30
0.0
 10
12813.65757534937
 20
-119.0956893322095
 30
0.0
 10
12813.15757534937
 20
-118.0956893322094
 30
0.0
 10
12812.90757534937
 20
-117.5956893322094
 30
0.0
 11
12812.90757534937
 21
-123.5956893322094
 31
0.0
 11
12812.40757534937
 21
-122.0956893322094
 31
0.0
 11
12812.90757534937
 21
-120.5956893322094
 31
0.0
 11
12813.40757534937
 21
-119.0956893322094
 31
0.0
 11
12812.90757534937
 21
-117.5956893322094
 31
0.0
  0
SPLINE
  5
276DD
102
{ACAD_REACTORS
330
27856
330
27857
102
}
330
18
100
AcDbEntity
  8
0
 48
0.5
100
AcDbSpline
210
0.0
220
0.0
230
1.0
 70
  1064
 71
     3
 72
    11
 73
     7
 74
     5
 42
0.000000001
 43
0.0000000001
 44
0.0000000001
 40
0.0
 40
0.0
 40
0.0
 40
0.0
 40
1.58113883008419
 40
3.16227766016838
 40
4.743416490252569
 40
6.324555320336759
 40
6.324555320336759
 40
6.324555320336759
 40
6.324555320336759
 10
12811.90757534937
 20
-123.5956893322094
 30
0.0
 10
12811.65757534937
 20
-123.0956893322095
 30
0.0
 10
12811.15757534937
 20
-122.0956893322095
 30
0.0
 10
12811.90757534936
 20
-120.5956893322094
 30
0.0
 10
12812.65757534937
 20
-119.0956893322095
 30
0.0
 10
12812.15757534937
 20
-118.0956893322094
 30
0.0
 10
12811.90757534937
 20
-117.5956893322094
 30
0.0
 11
12811.90757534937
 21
-123.5956893322094
 31
0.0
 11
12811.40757534937
 21
-122.0956893322094
 31
0.0
 11
12811.90757534937
 21
-120.5956893322094
 31
0.0
 11
12812.40757534937
 21
-119.0956893322094
 31
0.0
 11
12811.90757534937
 21
-117.5956893322094
 31
0.0
  0
LWPOLYLINE
  5
276DE
102
{ACAD_REACTORS
330
27856
330
27857
102
}
330
18
100
AcDbEntity
  8
0
100
AcDbPolyline
 90
        4
 70
     1
 43
0.0
 10
12853.58447784357
 20
-124.1223594800162
 10
12861.86447784356
 20
-124.1223594800162
 10
12861.86447784356
 20
-120.9023594800168
 10
12853.58447784357
 20
-120.9023594800168
  0
LINE
  5
276DF
102
{ACAD_REACTORS
330
27856
330
27857
102
}
330
18
100
AcDbEntity
  8
A
 62
     7
100
AcDbLine
 10
12832.11776968355
 20
-125.3490233622842
 30
0.0
 11
12838.25110301688
 21
-125.3490233622842
 31
0.0
  0
ARC
  5
276E0
102
{ACAD_REACTORS
330
27856
330
27857
102
}
330
18
100
AcDbEntity
  8
A
 62
     7
100
AcDbCircle
 10
12832.11776968355
 20
-124.4290233622841
 30
0.0
 40
0.9199999999999502
100
AcDbArc
 50
180.0
 51
270.0
  0
LINE
  5
276E1
102
{ACAD_REACTORS
330
27856
330
27857
102
}
330
18
100
AcDbEntity
  8
A
 62
     7
100
AcDbLine
 10
12830.27776968355
 20
-123.509023362284
 30
0.0
 11
12825.06443635021
 21
-123.509023362284
 31
0.0
  0
ARC
  5
276E2
102
{ACAD_REACTORS
330
27856
330
27857
102
}
330
18
100
AcDbEntity
  8
A
 62
     7
100
AcDbCircle
 10
12830.27776968355
 20
-124.4290233622841
 30
0.0
 40
0.9199999999999502
100
AcDbArc
 50
0.0
 51
90.0
  0
LINE
  5
276E3
102
{ACAD_REACTORS
330
27856
330
27857
102
}
330
18
100
AcDbEntity
  8
A
 62
     7
100
AcDbLine
 10
12841.62443635021
 20
-125.9623539112171
 30
0.0
 11
12841.62443635021
 21
-125.042353911217
 31
0.0
  0
LINE
  5
276E4
102
{ACAD_REACTORS
330
27856
330
27857
102
}
330
18
100
AcDbEntity
  8
A
 62
     7
100
AcDbLine
 10
12840.70443635021
 20
-125.9623539112171
 30
0.0
 11
12840.70443635021
 21
-125.042353911217
 31
0.0
  0
LINE
  5
276E5
102
{ACAD_REACTORS
330
27856
330
27857
102
}
330
18
100
AcDbEntity
  8
A
 62
     7
100
AcDbLine
 10
12840.70447784357
 20
-125.9623594800163
 30
0.0
 11
12841.62447784357
 21
-125.9623594800163
 31
0.0
  0
LINE
  5
276E6
102
{ACAD_REACTORS
330
27856
330
27857
102
}
330
18
100
AcDbEntity
  8
A
 62
     7
100
AcDbLine
 10
12840.70447784357
 20
-125.0423594800162
 30
0.0
 11
12853.58447784357
 21
-125.0423594800162
 31
0.0
  0
LINE
  5
276E7
102
{ACAD_REACTORS
330
27856
330
27857
102
}
330
18
100
AcDbEntity
  8
A
 62
     7
100
AcDbLine
 10
12840.70443635021
 20
-123.6010196497504
 30
0.0
 11
12838.25110301688
 21
-123.6010196497504
 31
0.0
  0
LINE
  5
276E8
102
{ACAD_REACTORS
330
27856
330
27857
102
}
330
18
100
AcDbEntity
  8
A
 62
     7
100
AcDbLine
 10
12840.70443635021
 20
-122.3743529830839
 30
0.0
 11
12838.25110301688
 21
-122.3743529830839
 31
0.0
  0
LINE
  5
276E9
102
{ACAD_REACTORS
330
27856
330
27857
102
}
330
18
100
AcDbEntity
  8
A
 62
     7
100
AcDbLine
 10
12840.70443635021
 20
-121.147686316417
 30
0.0
 11
12838.25110301688
 21
-121.147686316417
 31
0.0
  0
LINE
  5
276EA
102
{ACAD_REACTORS
330
27856
330
27857
102
}
330
18
100
AcDbEntity
  8
実線
 48
0.5
100
AcDbLine
 10
12812.58298302928
 20
-122.8956900289508
 30
0.0
 11
12825.06443635021
 21
-122.8956900289508
 31
0.0
  0
LINE
  5
276EB
102
{ACAD_REACTORS
330
27856
330
27857
102
}
330
18
100
AcDbEntity
  8
A
 62
     7
100
AcDbLine
 10
12832.11776968355
 20
-115.842356695618
 30
0.0
 11
12838.25110301688
 21
-115.842356695618
 31
0.0
  0
ARC
  5
276EC
102
{ACAD_REACTORS
330
27856
330
27857
102
}
330
18
100
AcDbEntity
  8
A
 62
     7
100
AcDbCircle
 10
12832.11776968355
 20
-116.7623566956176
 30
0.0
 40
0.9199999999999502
100
AcDbArc
 50
90.0
 51
180.0
  0
LINE
  5
276ED
102
{ACAD_REACTORS
330
27856
330
27857
102
}
330
18
100
AcDbEntity
  8
PIC11
  6
Continuous
100
AcDbLine
 10
12856.48243635021
 20
-114.7066295512185
 30
0.0
 11
12853.58443635021
 21
-115.1063539112173
 31
0.0
  0
LINE
  5
276EE
102
{ACAD_REACTORS
330
27856
330
27857
102
}
330
18
100
AcDbEntity
  8
0
100
AcDbLine
 10
12853.58443635021
 20
-115.1063539112173
 30
0.0
 11
12853.58447784357
 21
-116.0263594800162
 31
0.0
  0
LINE
  5
276EF
102
{ACAD_REACTORS
330
27856
330
27857
102
}
330
18
100
AcDbEntity
  8
0
100
AcDbLine
 10
12850.79848775021
 20
-115.2903539112166
 30
0.0
 11
12850.79848775021
 21
-116.0263594800162
 31
0.0
  0
LINE
  5
276F0
102
{ACAD_REACTORS
330
27856
330
27857
102
}
330
18
100
AcDbEntity
  8
A
 62
     7
100
AcDbLine
 10
12840.70447784357
 20
-115.1063594800166
 30
0.0
 11
12841.62447784357
 21
-115.1063594800166
 31
0.0
  0
LINE
  5
276F1
102
{ACAD_REACTORS
330
27856
330
27857
102
}
330
18
100
AcDbEntity
  8
A
 62
     7
100
AcDbLine
 10
12840.70443635021
 20
-116.0263539112174
 30
0.0
 11
12840.70443635021
 21
-115.1063539112173
 31
0.0
  0
LINE
  5
276F2
102
{ACAD_REACTORS
330
27856
330
27857
102
}
330
18
100
AcDbEntity
  8
A
 62
     7
100
AcDbLine
 10
12841.62443635021
 20
-116.0263539112174
 30
0.0
 11
12841.62443635021
 21
-115.1063539112173
 31
0.0
  0
LINE
  5
276F3
102
{ACAD_REACTORS
330
27856
330
27857
102
}
330
18
100
AcDbEntity
  8
A
 62
     7
100
AcDbLine
 10
12840.70447784357
 20
-116.0263594800162
 30
0.0
 11
12853.58447784357
 21
-116.0263594800162
 31
0.0
  0
LWPOLYLINE
  5
276F4
102
{ACAD_REACTORS
330
27856
330
27857
102
}
330
18
100
AcDbEntity
  8
0
100
AcDbPolyline
 90
        4
 70
     1
 43
0.0
 10
12853.58447784357
 20
-116.9463483424182
 10
12861.86447784356
 20
-116.9463483424182
 10
12861.86447784356
 20
-120.1663483424185
 10
12853.58447784357
 20
-120.1663483424185
  0
LINE
  5
276F5
102
{ACAD_REACTORS
330
27856
330
27857
102
}
330
18
100
AcDbEntity
  8
A
 62
     7
100
AcDbLine
 10
12825.06443635021
 20
-117.6823566956176
 30
0.0
 11
12830.27776968355
 21
-117.6823566956176
 31
0.0
  0
LINE
  5
276F6
102
{ACAD_REACTORS
330
27856
330
27857
102
}
330
18
100
AcDbEntity
  8
A
 62
     7
100
AcDbLine
 10
12840.70443635021
 20
-119.9210196497505
 30
0.0
 11
12838.25110301688
 21
-119.9210196497505
 31
0.0
  0
LINE
  5
276F7
102
{ACAD_REACTORS
330
27856
330
27857
102
}
330
18
100
AcDbEntity
  8
A
 62
     7
100
AcDbLine
 10
12840.70443635021
 20
-118.6943529830841
 30
0.0
 11
12838.25110301688
 21
-118.6943529830841
 31
0.0
  0
LINE
  5
276F8
102
{ACAD_REACTORS
330
27856
330
27857
102
}
330
18
100
AcDbEntity
  8
A
 62
     7
100
AcDbLine
 10
12840.70443635021
 20
-117.4676863164172
 30
0.0
 11
12838.25110301688
 21
-117.4676863164172
 31
0.0
  0
ARC
  5
276F9
102
{ACAD_REACTORS
330
27856
330
27857
102
}
330
18
100
AcDbEntity
  8
A
 62
     7
100
AcDbCircle
 10
12830.27776968355
 20
-116.7623566956176
 30
0.0
 40
0.9199999999999502
100
AcDbArc
 50
270.0
 51
0.0
  0
LINE
  5
276FA
102
{ACAD_REACTORS
330
27856
330
27857
102
}
330
18
100
AcDbEntity
  8
実線
 48
0.5
100
AcDbLine
 10
12813.23216821446
 20
-118.2956900289504
 30
0.0
 11
12825.06443635021
 21
-118.2956900289504
 31
0.0
  0
LINE
  5
276FC
102
{ACAD_REACTORS
330
27856
330
27857
102
}
330
18
100
AcDbEntity
  8
PIC11
  6
Continuous
100
AcDbLine
 10
12845.71843635021
 20
-111.7023539112191
 30
0.0
 11
12856.48243635021
 21
-113.4963539112172
 31
0.0
  0
LINE
  5
276FD
102
{ACAD_REACTORS
330
27856
330
27857
102
}
330
18
100
AcDbEntity
  8
PIC11
  6
Continuous
100
AcDbLine
 10
12846.13243635021
 20
-113.3123539112188
 30
0.0
 11
12845.71843635021
 21
-111.7023539112191
 31
0.0
  0
LINE
  5
276FF
330
18
100
AcDbEntity
  8
隠れ線
  6
PHANTOM
 48
2.0
100
AcDbLine
 10
12622.14547390158
 20
-96.58556688128022
 30
0.0
 11
12712.14547390158
 21
-96.58556688128087
 31
0.0
  0
LINE
  5
27700
330
18
100
AcDbEntity
  8
隠れ線
  6
PHANTOM
 48
2.0
100
AcDbLine
 10
12622.14547390158
 20
-96.5855668812809
 30
0.0
 11
12621.883007911
 21
-99.58556688128087
 31
0.0
  0
LINE
  5
27701
330
18
100
AcDbEntity
  8
隠れ線
  6
PHANTOM
 48
2.0
100
AcDbLine
 10
12620.14547390158
 20
-96.58556688128087
 30
0.0
 11
12619.883007911
 21
-99.58556688128087
 31
0.0
  0
LINE
  5
27702
330
18
100
AcDbEntity
  8
隠れ線
  6
PHANTOM
 48
2.0
100
AcDbLine
 10
12617.14547390158
 20
-96.58556688128016
 30
0.0
 11
12620.14547390158
 21
-96.58556688128019
 31
0.0
  0
LINE
  5
27703
330
18
100
AcDbEntity
  8
隠れ線
  6
PHANTOM
 48
2.0
100
AcDbLine
 10
12714.14547390158
 20
-96.5855668812809
 30
0.0
 11
12717.14547390158
 21
-96.5855668812809
 31
0.0
  0
LINE
  5
27704
330
18
100
AcDbEntity
  8
隠れ線
  6
PHANTOM
 48
2.0
100
AcDbLine
 10
12714.14547390158
 20
-96.5855668812809
 30
0.0
 11
12713.883007911
 21
-99.58556688128087
 31
0.0
  0
LINE
  5
27705
330
18
100
AcDbEntity
  8
隠れ線
  6
PHANTOM
 48
2.0
100
AcDbLine
 10
12712.14547390158
 20
-96.58556688128087
 30
0.0
 11
12711.883007911
 21
-99.58556688128087
 31
0.0
  0
LINE
  5
27706
330
18
100
AcDbEntity
  8
隠れ線
  6
PHANTOM
 48
2.0
100
AcDbLine
 10
12622.32045122863
 20
-94.58556688128019
 30
0.0
 11
12712.32045122863
 21
-94.58556688128087
 31
0.0
  0
LINE
  5
27707
330
18
100
AcDbEntity
  8
隠れ線
  6
PHANTOM
 48
2.0
100
AcDbLine
 10
12617.32045122863
 20
-94.58556688128019
 30
0.0
 11
12620.32045122863
 21
-94.58556688128022
 31
0.0
  0
LINE
  5
27708
330
18
100
AcDbEntity
  8
隠れ線
  6
PHANTOM
 48
2.0
100
AcDbLine
 10
12714.32045122863
 20
-94.5855668812809
 30
0.0
 11
12717.32045122863
 21
-94.5855668812809
 31
0.0
  0
HATCH
  5
27713
330
18
100
AcDbEntity
  8
隠れ線
  6
PHANTOM
 48
2.0
100
AcDbHatch
 10
0.0
 20
0.0
 30
0.0
210
0.0
220
0.0
230
1.0
  2
ANSI31
 70
     0
 71
     0
 91
        1
 92
        7
 72
     0
 73
     1
 93
        4
 10
12634.04529251799
 20
-39.5855668812801
 10
12627.04529251799
 20
-39.5855668812801
 10
12627.04529251799
 20
-79.5855668812801
 10
12634.04529251799
 20
-79.5855668812801
 97
        0
 75
     0
 76
     1
 52
0.0
 41
1.0
 77
     0
 78
     1
 53
45.0
 43
0.0
 44
-280.0
 45
-2.245064030267288
 46
2.245064030267288
 79
     0
 47
0.1469446258088648
 98
        1
 10
12630.9253979346
 20
-49.45040880244778
  0
LINE
  5
27719
102
{ACAD_REACTORS
330
2784F
102
}
330
18
100
AcDbEntity
  8
隠れ線
  6
PHANTOM
 48
2.0
100
AcDbLine
 10
12627.04529251799
 20
-79.5855668812801
 30
0.0
 11
12627.04529251799
 21
-39.5855668812801
 31
0.0
  0
LINE
  5
2771A
102
{ACAD_REACTORS
330
2784F
102
}
330
18
100
AcDbEntity
  8
隠れ線
  6
PHANTOM
 48
2.0
100
AcDbLine
 10
12634.04529251799
 20
-79.5855668812801
 30
0.0
 11
12634.04529251799
 21
-39.5855668812801
 31
0.0
  0
ARC
  5
27724
330
18
100
AcDbEntity
  8
破線
 48
10.0
100
AcDbCircle
 10
12689.54529251799
 20
-81.83556688127953
 30
0.0
 40
0.75
100
AcDbArc
 50
180.0
 51
270.0
  0
ARC
  5
27725
330
18
100
AcDbEntity
  8
破線
 48
10.0
100
AcDbCircle
 10
12706.54529251799
 20
-81.83556688127953
 30
0.0
 40
0.75
100
AcDbArc
 50
270.0
 51
0.0
  0
LINE
  5
27728
330
18
100
AcDbEntity
  8
隠れ線
  6
PHANTOM
 48
2.0
100
AcDbLine
 10
12689.54529251799
 20
-82.58556688128004
 30
0.0
 11
12706.54529251799
 21
-82.58556688128004
 31
0.0
  0
LINE
  5
2772A
330
18
100
AcDbEntity
  8
隠れ線
  6
PHANTOM
 48
2.0
100
AcDbLine
 10
12661.04529251799
 20
-79.58556688128004
 30
0.0
 11
12623.63278118152
 21
-79.58556688128004
 31
0.0
  0
LINE
  5
2772B
102
{ACAD_REACTORS
330
2784F
102
}
330
18
100
AcDbEntity
  8
隠れ線
  6
PHANTOM
 48
2.0
100
AcDbLine
 10
12627.04529251799
 20
-79.5855668812801
 30
0.0
 11
12634.04529251799
 21
-79.5855668812801
 31
0.0
  0
LINE
  5
27731
330
18
100
AcDbEntity
  8
破線
 48
10.0
100
AcDbLine
 10
12688.79529251799
 20
-81.83556688128004
 30
0.0
 11
12688.79529251799
 21
-81.33556688128004
 31
0.0
  0
LINE
  5
27732
330
18
100
AcDbEntity
  8
破線
 48
10.0
100
AcDbLine
 10
12688.79529251799
 20
-81.33556688128004
 30
0.0
 11
12688.79529251799
 21
-81.33556688128004
 31
0.0
  0
ARC
  5
27733
330
18
100
AcDbEntity
  8
破線
 48
10.0
100
AcDbCircle
 10
12688.04529251799
 20
-81.33556688127953
 30
0.0
 40
0.75
100
AcDbArc
 50
0.0
 51
90.00000000000001
  0
LINE
  5
27734
330
18
100
AcDbEntity
  8
破線
 48
10.0
100
AcDbLine
 10
12707.29529251799
 20
-81.83556688128004
 30
0.0
 11
12707.29529251799
 21
-81.33556688128004
 31
0.0
  0
LINE
  5
27735
330
18
100
AcDbEntity
  8
破線
 48
10.0
100
AcDbLine
 10
12707.29529251799
 20
-81.33556688128004
 30
0.0
 11
12707.29529251799
 21
-81.33556688128004
 31
0.0
  0
ARC
  5
27736
330
18
100
AcDbEntity
  8
破線
 48
10.0
100
AcDbCircle
 10
12708.04529251799
 20
-81.33556688127953
 30
0.0
 40
0.75
100
AcDbArc
 50
90.00000000000001
 51
180.0
  0
LINE
  5
27737
330
18
100
AcDbEntity
  8
隠れ線
  6
PHANTOM
 48
2.0
100
AcDbLine
 10
12708.04529251799
 20
-80.58556688128004
 30
0.0
 11
12713.54529251799
 21
-80.58556688128004
 31
0.0
  0
LINE
  5
27738
330
18
100
AcDbEntity
  8
破線
 48
10.0
100
AcDbLine
 10
12661.04529251799
 20
-79.58556688128004
 30
0.0
 11
12661.54529251799
 21
-80.08556688128004
 31
0.0
  0
LINE
  5
2773A
330
18
100
AcDbEntity
  8
隠れ線
  6
PHANTOM
 48
2.0
100
AcDbLine
 10
12661.54529251799
 20
-80.58556688128186
 30
0.0
 11
12688.04529251799
 21
-80.58556688128004
 31
0.0
  0
SPLINE
  5
27866
330
18
100
AcDbEntity
  8
寸法
100
AcDbSpline
210
0.0
220
0.0
230
1.0
 70
     8
 71
     3
 72
    11
 73
     7
 74
     0
 42
0.000000001
 43
0.0000000001
 40
3.049748475136758
 40
3.049748475136758
 40
3.049748475136758
 40
3.049748475136758
 40
4.858663225114475
 40
8.346691592514048
 40
12.75531936637458
 40
14.56158052114306
 40
14.56158052114306
 40
14.56158052114306
 40
14.56158052114306
 10
12657.88974109994
 20
-62.29454428091893
 30
0.0
 10
12658.06686630577
 20
-62.87309460153658
 30
0.0
 10
12658.7913565822
 20
-64.51298026505205
 30
0.0
 10
12661.07396410681
 20
-66.9716882906728
 30
0.0
 10
12664.22132405119
 20
-68.02469343895453
 30
0.0
 10
12666.22343541375
 20
-68.53598424994902
 30
0.0
 10
12666.80531805449
 20
-68.68458300067411
 30
0.0
  0
SPLINE
  5
27867
330
18
100
AcDbEntity
  8
寸法
100
AcDbSpline
210
0.0
220
0.0
230
1.0
 70
     8
 71
     3
 72
    10
 73
     6
 74
     0
 42
0.000000001
 43
0.0000000001
 40
2.979988179074869
 40
2.979988179074869
 40
2.979988179074869
 40
2.979988179074869
 40
4.754009779385567
 40
8.56439224730477
 40
12.97131661871374
 40
12.97131661871374
 40
12.97131661871374
 40
12.97131661871374
 10
12658.81899081388
 20
-62.29792785978735
 30
0.0
 10
12658.99855457387
 20
-62.85719951037366
 30
0.0
 10
12659.74709229475
 20
-64.51069799403514
 30
0.0
 10
12662.73319265347
 20
-66.50749052380424
 30
0.0
 10
12665.39949975087
 20
-67.08742335329154
 30
0.0
 10
12666.82943463816
 20
-67.39844010975682
 30
0.0
  0
SPLINE
  5
27868
330
18
100
AcDbEntity
  8
寸法
100
AcDbSpline
210
0.0
220
0.0
230
1.0
 70
     8
 71
     3
 72
    10
 73
     6
 74
     0
 42
0.000000001
 43
0.0000000001
 40
2.967842006221622
 40
2.967842006221622
 40
2.967842006221622
 40
2.967842006221622
 40
4.681442706891107
 40
10.40492595866938
 40
16.22289277841126
 40
16.22289277841126
 40
16.22289277841126
 40
16.22289277841126
 10
12656.93058183284
 20
-62.29105179554346
 30
0.0
 10
12657.03664047
 20
-62.84940713668328
 30
0.0
 10
12657.69752407321
 20
-65.19452787902114
 30
0.0
 10
12661.32284215348
 20
-68.42055293249689
 30
0.0
 10
12664.97809696026
 20
-69.57215093811462
 30
0.0
 10
12666.82068615414
 20
-70.15266369386424
 30
0.0
  0
LWPOLYLINE
  5
27875
330
18
100
AcDbEntity
  8
0
370
    30
100
AcDbPolyline
 90
        4
 70
     0
 43
0.0
 10
12653.49694440585
 20
-55.21751023501819
 10
12653.452258981
 20
-62.27838654576911
 10
12659.8613208272
 20
-62.30172318602908
 10
12659.90610639025
 20
-57.10595289069276
  0
LINE
  5
27880
330
18
100
AcDbEntity
  8
0
100
AcDbLine
 10
12660.99116227747
 20
-57.56603533994252
 30
0.0
 11
12660.90874087053
 21
-53.11103156083101
 31
0.0
  0
SPLINE
  5
27881
330
18
100
AcDbEntity
  8
0
100
AcDbSpline
210
0.0
220
0.0
230
1.0
 70
  1064
 71
     3
 72
    15
 73
    11
 74
     9
 42
0.000000001
 43
0.0000000001
 44
0.0000000001
 40
0.0
 40
0.0
 40
0.0
 40
0.0
 40
1.499034603686761
 40
1.790840461092012
 40
2.416554337861778
 40
5.299492303167527
 40
7.337362958679617
 40
9.226363591835636
 40
9.895149180261722
 40
10.25000639398089
 40
10.25000639398089
 40
10.25000639398089
 40
10.25000639398089
 10
12659.87376467856
 20
-58.87605875637192
 30
0.0
 10
12660.29537706783
 20
-58.59554433480987
 30
0.0
 10
12660.79906158836
 20
-58.26042426832336
 30
0.0
 10
12661.07447758351
 20
-57.37786293551419
 30
0.0
 10
12659.44733501688
 20
-57.01963675718181
 30
0.0
 10
12658.0013070708
 20
-56.55035072961949
 30
0.0
 10
12655.76298415831
 20
-55.74347504415236
 30
0.0
 10
12654.28533661028
 20
-55.57331200389964
 30
0.0
 10
12653.32388005456
 20
-55.1708278005753
 30
0.0
 10
12653.17719397561
 20
-54.8540179903106
 30
0.0
 10
12653.12634360753
 20
-54.74419233011562
 30
0.0
 11
12659.87376467856
 21
-58.87605875637192
 31
0.0
 11
12660.92869603111
 21
-57.81105895146041
 31
0.0
 11
12660.98611084072
 21
-57.52495722470306
 31
0.0
 11
12660.4324350744
 21
-57.23347651973822
 31
0.0
 11
12657.66616760367
 21
-56.42162949459535
 31
0.0
 11
12655.72162374351
 21
-55.8119853488208
 31
0.0
 11
12653.88104860901
 21
-55.38700703602748
 31
0.0
 11
12653.30187388948
 21
-55.05259590053592
 31
0.0
 11
12653.12634360753
 21
-54.74419233011562
 31
0.0
  0
ARC
  5
27882
330
18
100
AcDbEntity
  8
CENTER
 48
2.0
100
AcDbCircle
 10
12635.69469164504
 20
-43.08556688128007
 30
0.0
 40
21.0
100
AcDbArc
 50
0.0
 51
47.90948317054166
  0
ARC
  5
27883
330
18
100
AcDbEntity
  8
0
370
    30
100
AcDbCircle
 10
12635.69469164504
 20
-43.08556688128007
 30
0.0
 40
23.6
100
AcDbArc
 50
0.0
 51
43.28303819965607
  0
ARC
  5
27884
330
18
100
AcDbEntity
  8
0
370
    30
100
AcDbCircle
 10
12635.69469164504
 20
-43.08556688128007
 30
0.0
 40
18.4
100
AcDbArc
 50
0.0
 51
42.79759711658824
  0
SPLINE
  5
27885
330
18
100
AcDbEntity
  8
0
100
AcDbSpline
210
0.0
220
0.0
230
1.0
 70
  1064
 71
     3
 72
    15
 73
    11
 74
     9
 42
0.000000001
 43
0.0000000001
 44
0.0000000001
 40
0.0
 40
0.0
 40
0.0
 40
0.0
 40
1.13376521014135
 40
1.425571067547809
 40
2.051284944314515
 40
4.934222909624203
 40
6.972093565136378
 40
8.87829020279397
 40
9.500751037247383
 40
9.874702562890898
 40
9.874702562890898
 40
9.874702562890898
 40
9.874702562890898
 10
12654.06747192812
 20
-49.42811855534407
 30
0.0
 10
12653.67429388576
 20
-49.54677650068734
 30
0.0
 10
12653.17992059175
 20
-49.69597435250267
 30
0.0
 10
12652.96374940227
 20
-50.46627192619413
 30
0.0
 10
12654.58044470194
 20
-50.81002602153475
 30
0.0
 10
12656.02727409838
 20
-51.31416133459292
 30
0.0
 10
12658.29488825002
 20
-52.0429412127038
 30
0.0
 10
12659.69917648309
 20
-52.40205135447575
 30
0.0
 10
12660.70866422142
 20
-52.6819924588026
 30
0.0
 10
12660.85414298675
 20
-52.99395329539101
 30
0.0
 10
12660.90874087053
 20
-53.11103156083115
 30
0.0
 11
12654.06747192812
 21
-49.42811855534407
 31
0.0
 11
12653.10561155235
 21
-50.02832532742403
 31
0.0
 11
12653.04819674273
 21
-50.31442705418115
 31
0.0
 11
12653.60187250905
 21
-50.60590775914633
 31
0.0
 11
12656.36813997978
 21
-51.41775478429079
 31
0.0
 11
12658.31268383994
 21
-52.02739893006563
 31
0.0
 11
12660.15181247404
 21
-52.52858900245977
 31
0.0
 11
12660.71662823122
 21
-52.79020064376036
 31
0.0
 11
12660.90874087053
 21
-53.11103156083115
 31
0.0
  0
LINE
  5
27886
330
18
100
AcDbEntity
  8
0
100
AcDbLine
 10
12653.12634360753
 20
-54.74419233011844
 30
0.0
 11
12653.05213977927
 21
-50.32953137353761
 31
0.0
  0
LINE
  5
27887
330
18
100
AcDbEntity
  8
0
100
AcDbLine
 10
12653.15356332446
 20
-48.40164065605202
 30
0.0
 11
12653.0793594962
 21
-43.98697969947628
 31
0.0
  0
SPLINE
  5
27888
330
18
100
AcDbEntity
  8
0
100
AcDbSpline
210
0.0
220
0.0
230
1.0
 70
  1064
 71
     3
 72
    15
 73
    11
 74
     9
 42
0.000000001
 43
0.0000000001
 44
0.0000000001
 40
0.0
 40
0.0
 40
0.0
 40
0.0
 40
1.133765210139828
 40
1.425571067544003
 40
2.051284944320075
 40
4.93422290962222
 40
6.972093565130873
 40
8.878290202793245
 40
9.500751037245703
 40
9.874702562883122
 40
9.874702562883122
 40
9.874702562883122
 40
9.874702562883122
 10
12654.09469164504
 20
-43.08556688128007
 30
0.0
 10
12653.70151360269
 20
-43.20422482662491
 30
0.0
 10
12653.20714030867
 20
-43.35342267844198
 30
0.0
 10
12652.99096911919
 20
-44.12372025213477
 30
0.0
 10
12654.60766441887
 20
-44.46747434745825
 30
0.0
 10
12656.05449381531
 20
-44.9716096605315
 30
0.0
 10
12658.32210796695
 20
-45.70038953863442
 30
0.0
 10
12659.72639620001
 20
-46.05949968041946
 30
0.0
 10
12660.73588393835
 20
-46.33944078473571
 30
0.0
 10
12660.88136270367
 20
-46.65140162132688
 30
0.0
 10
12660.93596058745
 20
-46.76847988676698
 30
0.0
 11
12654.09469164504
 21
-43.08556688128007
 31
0.0
 11
12653.13283126927
 21
-43.68577365336299
 31
0.0
 11
12653.07541645965
 21
-43.97187538011778
 31
0.0
 11
12653.62909222599
 21
-44.26335608508234
 31
0.0
 11
12656.3953596967
 21
-45.07520311022481
 31
0.0
 11
12658.33990355687
 21
-45.68484725599947
 31
0.0
 11
12660.17903219097
 21
-46.18603732839844
 31
0.0
 11
12660.74384794815
 21
-46.44764896969676
 31
0.0
 11
12660.93596058745
 21
-46.76847988676698
 31
0.0
  0
LWPOLYLINE
  5
27889
330
18
100
AcDbEntity
  8
0
370
    30
100
AcDbPolyline
 90
        2
 70
     0
 43
0.0
 10
12659.30704346268
 20
-52.3016998930544
 10
12659.3132408292
 20
-50.59968516964398
  0
LWPOLYLINE
  5
2788A
330
18
100
AcDbEntity
  8
0
370
    30
100
AcDbPolyline
 90
        2
 70
     0
 43
0.0
 10
12654.06868053517
 20
-49.09619256854288
 10
12654.06278112538
 20
-50.71637789562786
  0
LINE
  5
2788B
330
18
100
AcDbEntity
  8
0
100
AcDbLine
 10
12661.01838199439
 20
-51.22348366587843
 30
0.0
 11
12660.93596058745
 21
-46.76847988676693
 31
0.0
  0
SPLINE
  5
2788C
330
18
100
AcDbEntity
  8
0
100
AcDbSpline
210
0.0
220
0.0
230
1.0
 70
  1064
 71
     3
 72
    15
 73
    11
 74
     9
 42
0.000000001
 43
0.0000000001
 44
0.0000000001
 40
0.0
 40
0.0
 40
0.0
 40
0.0
 40
1.787223353028587
 40
2.079029210433615
 40
2.704743087200241
 40
5.58768105250932
 40
7.625551708021411
 40
9.514552341177442
 40
10.18333792959924
 40
10.53819514332271
 40
10.53819514332271
 40
10.53819514332271
 40
10.53819514332271
 10
12659.31165222752
 20
-52.16891058172078
 30
0.0
 10
12660.00127613367
 20
-52.10899882972429
 30
0.0
 10
12660.80349721179
 20
-52.0393050881794
 30
0.0
 10
12661.09964776663
 20
-51.03201485199935
 30
0.0
 10
12659.47819443722
 20
-50.68293907426528
 30
0.0
 10
12658.02751280971
 20
-50.20616820336323
 30
0.0
 10
12655.79042315436
 20
-49.401276052141
 30
0.0
 10
12654.31253784336
 20
-49.23073060094486
 30
0.0
 10
12653.35110098975
 20
-48.82827808594934
 30
0.0
 10
12653.20441400615
 20
-48.5114668206497
 30
0.0
 10
12653.15356332446
 20
-48.4016406560493
 30
0.0
 11
12659.31165222752
 21
-52.16891058172078
 31
0.0
 11
12660.95591574804
 21
-51.46850727739618
 31
0.0
 11
12661.01333055765
 21
-51.18240555063906
 31
0.0
 11
12660.45965479132
 21
-50.89092484567405
 31
0.0
 11
12657.6933873206
 21
-50.07907782053175
 31
0.0
 11
12655.74884346043
 21
-49.4694336747572
 31
0.0
 11
12653.90826832594
 21
-49.04445536196383
 31
0.0
 11
12653.32909360641
 21
-48.71004422647454
 31
0.0
 11
12653.15356332446
 21
-48.4016406560493
 31
0.0
  0
LINE
  5
2788D
330
18
100
AcDbEntity
  8
CENTER
 48
2.0
100
AcDbLine
 10
12656.69469164504
 20
-43.08556688128007
 30
0.0
 11
12656.69469164504
 21
-46.08556688128007
 31
0.0
  0
LINE
  5
2788E
330
18
100
AcDbEntity
  8
0
370
    30
100
AcDbLine
 10
12654.09469164504
 20
-44.37500524878496
 30
0.0
 11
12654.09469164504
 21
-43.08556688128007
 31
0.0
  0
LINE
  5
2788F
330
18
100
AcDbEntity
  8
0
370
    30
100
AcDbLine
 10
12659.29469164504
 20
-45.94854595409177
 30
0.0
 11
12659.29469164504
 21
-43.08556688128007
 31
0.0
  0
LINE
  5
27CC8
102
{ACAD_REACTORS
330
27EB5
102
}
330
18
100
AcDbEntity
  8
基板
 62
     3
 48
0.5
100
AcDbLine
 10
12703.04529251799
 20
-64.08556688127867
 30
0.0
 11
12660.04529251799
 21
-64.08556688127867
 31
0.0
  0
LINE
  5
27CC9
102
{ACAD_REACTORS
330
27EB5
102
}
330
18
100
AcDbEntity
  8
基板
 62
     3
 48
0.5
100
AcDbLine
 10
12660.04529251799
 20
-78.5855668812823
 30
0.0
 11
12692.04529251799
 21
-78.58556688127867
 31
0.0
  0
LINE
  5
27CCA
102
{ACAD_REACTORS
330
27EB5
102
}
330
18
100
AcDbEntity
  8
実線
 62
     2
100
AcDbLine
 10
12661.54529251799
 20
-80.58556688128049
 30
0.0
 11
12661.54529251799
 21
-102.5855668812805
 31
0.0
  0
CIRCLE
  5
27CCB
102
{ACAD_REACTORS
330
27EB5
102
}
330
18
100
AcDbEntity
  8
実線
 62
     2
100
AcDbCircle
 10
12656.54529251799
 20
-97.58556688128095
 30
0.0
 40
1.75
  0
CIRCLE
  5
27CCC
102
{ACAD_REACTORS
330
27EB5
102
}
330
18
100
AcDbEntity
  8
隠れ線
 48
7.0
100
AcDbCircle
 10
12656.54529251799
 20
-97.58556688128095
 30
0.0
 40
3.0
  0
LINE
  5
27CCD
102
{ACAD_REACTORS
330
27EB5
102
}
330
18
100
AcDbEntity
  8
実線
 62
     2
100
AcDbLine
 10
12651.54529251799
 20
-102.0855668812805
 30
0.0
 11
12651.54529251799
 21
-63.08556688128049
 31
0.0
  0
LINE
  5
27CCE
102
{ACAD_REACTORS
330
27EB5
102
}
330
18
100
AcDbEntity
  8
実線
 62
     2
100
AcDbLine
 10
12651.54529251799
 20
-79.58556688128049
 30
0.0
 11
12661.54529251799
 21
-79.58556688128049
 31
0.0
  0
CIRCLE
  5
27CCF
102
{ACAD_REACTORS
330
27EB5
102
}
330
18
100
AcDbEntity
  8
Bolt
100
AcDbCircle
 10
12657.54529251799
 20
-71.08556688128095
 30
0.0
 40
4.0
  0
LINE
  5
27CD0
102
{ACAD_REACTORS
330
27EB5
102
}
330
18
100
AcDbEntity
  8
実線
 62
     2
100
AcDbLine
 10
12651.54529251799
 20
-63.08556688128049
 30
0.0
 11
12661.54529251799
 21
-63.08556688128049
 31
0.0
  0
CIRCLE
  5
27CD1
102
{ACAD_REACTORS
330
27EB5
102
}
330
18
100
AcDbEntity
  8
実線
 62
     2
100
AcDbCircle
 10
12656.54529251799
 20
-87.58556688128095
 30
0.0
 40
1.75
  0
CIRCLE
  5
27CD2
102
{ACAD_REACTORS
330
27EB5
102
}
330
18
100
AcDbEntity
  8
隠れ線
 48
7.0
100
AcDbCircle
 10
12656.54529251799
 20
-87.58556688128095
 30
0.0
 40
3.0
  0
LINE
  5
27CD3
102
{ACAD_REACTORS
330
27EB5
102
}
330
18
100
AcDbEntity
  8
基板
 62
     3
 48
0.5
100
AcDbLine
 10
12653.04529251799
 20
-76.0855668812823
 30
0.0
 11
12653.04529251799
 21
-66.08556688127867
 31
0.0
  0
LINE
  5
27CD4
102
{ACAD_REACTORS
330
27EB5
102
}
330
18
100
AcDbEntity
  8
基板
 62
     3
 48
0.5
100
AcDbLine
 10
12660.04529251799
 20
-78.5855668812823
 30
0.0
 11
12660.04529251799
 21
-76.0855668812823
 31
0.0
  0
LINE
  5
27CD5
102
{ACAD_REACTORS
330
27EB5
102
}
330
18
100
AcDbEntity
  8
基板
 62
     3
 48
0.5
100
AcDbLine
 10
12660.04529251799
 20
-64.08556688127867
 30
0.0
 11
12660.04529251799
 21
-66.08556688127867
 31
0.0
  0
LINE
  5
27CD6
102
{ACAD_REACTORS
330
27EB5
102
}
330
18
100
AcDbEntity
  8
基板
 62
     3
 48
0.5
100
AcDbLine
 10
12660.04529251799
 20
-76.0855668812823
 30
0.0
 11
12653.04529251799
 21
-76.0855668812823
 31
0.0
  0
LINE
  5
27CD7
102
{ACAD_REACTORS
330
27EB5
102
}
330
18
100
AcDbEntity
  8
基板
 62
     3
 48
0.5
100
AcDbLine
 10
12660.04529251799
 20
-66.08556688127867
 30
0.0
 11
12653.04529251799
 21
-66.08556688127867
 31
0.0
  0
CIRCLE
  5
27CD8
102
{ACAD_REACTORS
330
27EB5
102
}
330
18
100
AcDbEntity
  8
Bolt
100
AcDbCircle
 10
12657.54529251799
 20
-71.08556688128095
 30
0.0
 40
2.75
  0
LWPOLYLINE
  5
27CD9
102
{ACAD_REACTORS
330
27EB5
102
}
330
18
100
AcDbEntity
  8
Bolt
100
AcDbPolyline
 90
       17
 70
     0
 43
0.0
 10
12657.94529251799
 20
-71.98556688128012
 42
-0.4142135623730951
 10
12658.44529251799
 20
-71.48556688128012
 10
12659.04529251799
 20
-71.48556688128012
 10
12659.04529251799
 20
-70.68556688128085
 10
12658.44529251799
 20
-70.68556688128085
 42
-0.4142135623730951
 10
12657.94529251799
 20
-70.18556688128085
 10
12657.94529251799
 20
-69.58556688128049
 10
12657.14529251799
 20
-69.58556688128049
 10
12657.14529251799
 20
-70.18556688128085
 42
-0.4142135623730951
 10
12656.64529251799
 20
-70.68556688128085
 10
12656.04529251799
 20
-70.68556688128085
 10
12656.04529251799
 20
-71.48556688128012
 10
12656.64529251799
 20
-71.48556688128012
 42
-0.414213562373095
 10
12657.14529251799
 20
-71.98556688128012
 10
12657.14529251799
 20
-72.58556688128049
 10
12657.94529251799
 20
-72.58556688128049
 10
12657.94529251799
 20
-71.98556688128012
  0
CIRCLE
  5
27CDA
102
{ACAD_REACTORS
330
27EB5
102
}
330
18
100
AcDbEntity
  8
細線
100
AcDbCircle
 10
12657.54529251799
 20
-71.08556688128095
 30
0.0
 40
1.5
  0
CIRCLE
  5
27CDB
102
{ACAD_REACTORS
330
27EB5
102
}
330
18
100
AcDbEntity
  8
実線
 62
     2
100
AcDbCircle
 10
12657.54529251799
 20
-71.08556688128095
 30
0.0
 40
1.2
  0
LINE
  5
27CDC
102
{ACAD_REACTORS
330
27EB5
102
}
330
18
100
AcDbEntity
  8
実線
 62
     2
100
AcDbLine
 10
12661.54529251799
 20
-63.08556688128049
 30
0.0
 11
12661.54529251799
 21
-64.08556688127867
 31
0.0
  0
LINE
  5
27CDD
102
{ACAD_REACTORS
330
27EB5
102
}
330
18
100
AcDbEntity
  8
隠れ線
 48
7.0
100
AcDbLine
 10
12661.54529251799
 20
-64.08556688127867
 30
0.0
 11
12661.54529251799
 21
-78.5855668812823
 31
0.0
  0
LINE
  5
27CDE
102
{ACAD_REACTORS
330
27EB5
102
}
330
18
100
AcDbEntity
  8
実線
 62
     2
100
AcDbLine
 10
12661.54529251799
 20
-78.5855668812823
 30
0.0
 11
12661.54529251799
 21
-80.58556688128049
 31
0.0
  0
LINE
  5
27CDF
102
{ACAD_REACTORS
330
27EB5
102
}
330
18
100
AcDbEntity
  8
実線
 62
     2
100
AcDbLine
 10
12661.54529251799
 20
-102.5855668812805
 30
0.0
 11
12652.04529251799
 21
-102.5855668812805
 31
0.0
  0
LINE
  5
27CE0
102
{ACAD_REACTORS
330
27EB5
102
}
330
18
100
AcDbEntity
  8
実線
 62
     2
100
AcDbLine
 10
12652.04529251799
 20
-102.5855668812805
 30
0.0
 11
12651.54529251799
 21
-102.0855668812805
 31
0.0
  0
LINE
  5
27CE1
102
{ACAD_REACTORS
330
27EB5
102
}
330
18
100
AcDbEntity
  8
基板
 62
     3
 48
0.5
100
AcDbLine
 10
12692.04529251799
 20
-81.08556688127867
 30
0.0
 11
12703.04529251799
 21
-81.08556688127867
 31
0.0
  0
LINE
  5
27CE2
102
{ACAD_REACTORS
330
27EB5
102
}
330
18
100
AcDbEntity
  8
基板
 62
     3
 48
0.5
100
AcDbLine
 10
12692.04529251799
 20
-78.58556688127867
 30
0.0
 11
12692.04529251799
 21
-81.08556688127867
 31
0.0
  0
LINE
  5
27CE5
102
{ACAD_REACTORS
330
27EB5
102
}
330
18
100
AcDbEntity
  8
基板
 62
     3
 48
0.5
100
AcDbLine
 10
12703.04529251799
 20
-81.08556688127867
 30
0.0
 11
12703.04529251799
 21
-64.08556688127867
 31
0.0
  0
LINE
  5
27F2D
102
{ACAD_REACTORS
330
27FD4
102
}
330
18
100
AcDbEntity
  8
基板
 48
0.5
100
AcDbLine
 10
12703.0452926169
 20
-123.495690036951
 30
0.0
 11
12653.0452926169
 21
-123.495690036951
 31
0.0
  0
LINE
  5
27F2E
102
{ACAD_REACTORS
330
27FD4
102
}
330
18
100
AcDbEntity
  8
基板
 48
0.5
100
AcDbLine
 10
12703.0452926169
 20
-121.8956900369511
 30
0.0
 11
12653.0452926169
 21
-121.895690036951
 31
0.0
  0
LINE
  5
27F2F
102
{ACAD_REACTORS
330
27FD4
102
}
330
18
100
AcDbEntity
  8
実線
 62
     2
100
AcDbLine
 10
12661.5452926169
 20
-123.495690036951
 30
0.0
 11
12661.5452926169
 21
-138.495690036951
 31
0.0
  0
LINE
  5
27F30
102
{ACAD_REACTORS
330
27FD4
102
}
330
18
100
AcDbEntity
  8
実線
 62
     2
100
AcDbLine
 10
12651.5452926169
 20
-138.495690036951
 30
0.0
 11
12651.5452926169
 21
-123.495690036951
 31
0.0
  0
LINE
  5
27F33
102
{ACAD_REACTORS
330
27FD4
102
}
330
18
100
AcDbEntity
  8
実線
 62
     4
100
AcDbLine
 10
12659.2952926169
 20
-138.9956900369492
 30
0.0
 11
12653.7952926169
 21
-138.9956900369492
 31
0.0
  0
LINE
  5
27F34
102
{ACAD_REACTORS
330
27FD4
102
}
330
18
100
AcDbEntity
  8
実線
 62
     4
100
AcDbLine
 10
12653.7952926169
 20
-138.495690036951
 30
0.0
 11
12653.7952926169
 21
-138.9956900369492
 31
0.0
  0
LINE
  5
27F35
102
{ACAD_REACTORS
330
27FD4
102
}
330
18
100
AcDbEntity
  8
実線
 62
     4
100
AcDbLine
 10
12659.2952926169
 20
-138.495690036951
 30
0.0
 11
12659.2952926169
 21
-138.9956900369492
 31
0.0
  0
LINE
  5
27F36
102
{ACAD_REACTORS
330
27FD4
102
}
330
18
100
AcDbEntity
  8
実線
 62
     2
100
AcDbLine
 10
12661.5452926169
 20
-138.495690036951
 30
0.0
 11
12651.5452926169
 21
-138.495690036951
 31
0.0
  0
LINE
  5
27F37
102
{ACAD_REACTORS
330
27FD4
102
}
330
18
100
AcDbEntity
  8
実線
 62
     2
100
AcDbLine
 10
12661.5452926169
 20
-133.495690036951
 30
0.0
 11
12652.0452926169
 21
-133.495690036951
 31
0.0
  0
LINE
  5
27F38
102
{ACAD_REACTORS
330
27FD4
102
}
330
18
100
AcDbEntity
  8
実線
 62
     2
100
AcDbLine
 10
12652.0452926169
 20
-133.495690036951
 30
0.0
 11
12651.5452926169
 21
-133.9956900369519
 31
0.0
  0
LINE
  5
27F39
102
{ACAD_REACTORS
330
27FD4
102
}
330
18
100
AcDbEntity
  8
破線
 48
4.0
100
AcDbLine
 10
12658.2952926169
 20
-135.9956900369492
 30
0.0
 11
12658.2952926169
 21
-133.495690036951
 31
0.0
  0
LINE
  5
27F3A
102
{ACAD_REACTORS
330
27FD4
102
}
330
18
100
AcDbEntity
  8
破線
 48
4.0
100
AcDbLine
 10
12654.7952926169
 20
-135.9956900369492
 30
0.0
 11
12654.7952926169
 21
-133.495690036951
 31
0.0
  0
LINE
  5
27F3B
102
{ACAD_REACTORS
330
27FD4
102
}
330
18
100
AcDbEntity
  8
破線
 48
4.0
100
AcDbLine
 10
12653.5452926169
 20
-138.495690036951
 30
0.0
 11
12653.5452926169
 21
-135.9956900369492
 31
0.0
  0
LINE
  5
27F3C
102
{ACAD_REACTORS
330
27FD4
102
}
330
18
100
AcDbEntity
  8
破線
 48
4.0
100
AcDbLine
 10
12659.5452926169
 20
-138.495690036951
 30
0.0
 11
12659.5452926169
 21
-135.9956900369492
 31
0.0
  0
LINE
  5
27F3D
102
{ACAD_REACTORS
330
27FD4
102
}
330
18
100
AcDbEntity
  8
破線
 48
4.0
100
AcDbLine
 10
12653.5452926169
 20
-135.9956900369492
 30
0.0
 11
12659.5452926169
 21
-135.9956900369492
 31
0.0
  0
LINE
  5
27F42
102
{ACAD_REACTORS
330
27FD4
102
}
330
18
100
AcDbEntity
  8
基板
 48
0.5
100
AcDbLine
 10
12653.04529261689
 20
-121.8956900369511
 30
0.0
 11
12653.0452926169
 21
-123.495690036951
 31
0.0
  0
LINE
  5
27F43
102
{ACAD_REACTORS
330
27FD4
102
}
330
18
100
AcDbEntity
  8
基板
 48
0.5
100
AcDbLine
 10
12660.0452926169
 20
-121.8956900369511
 30
0.0
 11
12660.0452926169
 21
-123.495690036951
 31
0.0
  0
LINE
  5
27F44
102
{ACAD_REACTORS
330
27FD4
102
}
330
18
100
AcDbEntity
  8
実線
 62
     2
100
AcDbLine
 10
12651.5452926169
 20
-123.495690036951
 30
0.0
 11
12661.5452926169
 21
-123.495690036951
 31
0.0
  0
LINE
  5
27F45
102
{ACAD_REACTORS
330
27FD4
102
}
330
18
100
AcDbEntity
  8
基板
 48
0.5
100
AcDbLine
 10
12703.0452926169
 20
-121.8956900369511
 30
0.0
 11
12703.0452926169
 21
-123.495690036951
 31
0.0
  0
LINE
  5
27F46
102
{ACAD_REACTORS
330
27FD4
102
}
330
18
100
AcDbEntity
  8
基板
 48
0.5
100
AcDbLine
 10
12692.0452926169
 20
-121.8956900369511
 30
0.0
 11
12692.0452926169
 21
-123.495690036951
 31
0.0
  0
LINE
  5
28068
102
{ACAD_REACTORS
330
280B6
102
}
330
18
100
AcDbEntity
  8
実線
 62
     2
100
AcDbLine
 10
12731.407575001
 20
-138.4956900289511
 30
0.0
 11
12731.407575001
 21
-134.9956900289511
 31
0.0
  0
LINE
  5
28069
102
{ACAD_REACTORS
330
280B6
102
}
330
18
100
AcDbEntity
  8
実線
 62
     2
100
AcDbLine
 10
12770.907575001
 20
-123.4956900289511
 30
0.0
 11
12770.907575001
 21
-138.4956900289511
 31
0.0
  0
LINE
  5
2806C
102
{ACAD_REACTORS
330
280B6
102
}
330
18
100
AcDbEntity
  8
実線
 62
     4
100
AcDbLine
 10
12749.157575001
 20
-138.9956900289493
 30
0.0
 11
12743.657575001
 21
-138.9956900289493
 31
0.0
  0
LINE
  5
2806D
102
{ACAD_REACTORS
330
280B6
102
}
330
18
100
AcDbEntity
  8
実線
 62
     4
100
AcDbLine
 10
12749.15757500099
 20
-138.4956900289511
 30
0.0
 11
12749.15757500099
 21
-138.9956900289493
 31
0.0
  0
LINE
  5
2806E
102
{ACAD_REACTORS
330
280B6
102
}
330
18
100
AcDbEntity
  8
実線
 62
     4
100
AcDbLine
 10
12743.65757500099
 20
-138.4956900289511
 30
0.0
 11
12743.657575001
 21
-138.9956900289493
 31
0.0
  0
LINE
  5
2806F
102
{ACAD_REACTORS
330
280B6
102
}
330
18
100
AcDbEntity
  8
実線
 62
     4
100
AcDbLine
 10
12733.65757500099
 20
-138.4956900289511
 30
0.0
 11
12733.657575001
 21
-138.9956900289493
 31
0.0
  0
LINE
  5
28070
102
{ACAD_REACTORS
330
280B6
102
}
330
18
100
AcDbEntity
  8
実線
 62
     4
100
AcDbLine
 10
12739.15757500099
 20
-138.4956900289511
 30
0.0
 11
12739.15757500099
 21
-138.9956900289493
 31
0.0
  0
LINE
  5
28071
102
{ACAD_REACTORS
330
280B6
102
}
330
18
100
AcDbEntity
  8
実線
 62
     4
100
AcDbLine
 10
12739.157575001
 20
-138.9956900289493
 30
0.0
 11
12733.657575001
 21
-138.9956900289493
 31
0.0
  0
LINE
  5
28072
102
{ACAD_REACTORS
330
280B6
102
}
330
18
100
AcDbEntity
  8
実線
 62
     2
100
AcDbLine
 10
12770.907575001
 20
-138.4956900289511
 30
0.0
 11
12731.407575001
 21
-138.4956900289511
 31
0.0
  0
LINE
  5
28073
102
{ACAD_REACTORS
330
280B6
102
}
330
18
100
AcDbEntity
  8
基板
 62
     3
 48
0.5
100
AcDbLine
 10
12752.907575001
 20
-121.8956900289562
 30
0.0
 11
12752.907575001
 21
-123.495690028953
 31
0.0
  0
LINE
  5
28077
102
{ACAD_REACTORS
330
280B6
102
}
330
18
100
AcDbEntity
  8
基板
 62
     3
 48
0.5
100
AcDbLine
 10
12769.907575001
 20
-121.8956900289526
 30
0.0
 11
12769.907575001
 21
-123.4956900289511
 31
0.0
  0
LINE
  5
28078
102
{ACAD_REACTORS
330
280B6
102
}
330
18
100
AcDbEntity
  8
実線
 62
     2
100
AcDbLine
 10
12754.407575001
 20
-123.4956900289511
 30
0.0
 11
12770.907575001
 21
-123.495690028953
 31
0.0
  0
LINE
  5
28079
102
{ACAD_REACTORS
330
280B6
102
}
330
18
100
AcDbEntity
  8
基板
 62
     3
 48
0.5
100
AcDbLine
 10
12752.907575001
 20
-123.495690028953
 30
0.0
 11
12769.907575001
 21
-123.495690028953
 31
0.0
  0
LINE
  5
2807A
102
{ACAD_REACTORS
330
280B6
102
}
330
18
100
AcDbEntity
  8
実線
 62
     2
100
AcDbLine
 10
12731.407575001
 20
-134.9956900289511
 30
0.0
 11
12732.907575001
 21
-133.4956900289511
 31
0.0
  0
LINE
  5
2807B
102
{ACAD_REACTORS
330
280B6
102
}
330
18
100
AcDbEntity
  8
実線
 62
     2
100
AcDbLine
 10
12732.907575001
 20
-133.4956900289511
 30
0.0
 11
12754.407575001
 21
-133.4956900289511
 31
0.0
  0
LINE
  5
2807C
102
{ACAD_REACTORS
330
280B6
102
}
330
18
100
AcDbEntity
  8
実線
 62
     2
100
AcDbLine
 10
12754.407575001
 20
-133.4956900289511
 30
0.0
 11
12754.407575001
 21
-123.4956900289511
 31
0.0
  0
LINE
  5
28080
102
{ACAD_REACTORS
330
280B6
102
}
330
18
100
AcDbEntity
  8
基板
 62
     3
 48
0.5
100
AcDbLine
 10
12752.907575001
 20
-121.8956900289544
 30
0.0
 11
12769.907575001
 21
-121.8956900289544
 31
0.0
  0
LINE
  5
2808D
102
{ACAD_REACTORS
330
280B6
102
}
330
18
100
AcDbEntity
  8
破線
 48
4.0
100
AcDbLine
 10
12743.40757500099
 20
-138.4956900289511
 30
0.0
 11
12743.40757500099
 21
-135.9956900289493
 31
0.0
  0
LINE
  5
2808E
102
{ACAD_REACTORS
330
280B6
102
}
330
18
100
AcDbEntity
  8
破線
 48
4.0
100
AcDbLine
 10
12749.40757500099
 20
-138.4956900289511
 30
0.0
 11
12749.40757500099
 21
-135.9956900289493
 31
0.0
  0
LINE
  5
2808F
102
{ACAD_REACTORS
330
280B6
102
}
330
18
100
AcDbEntity
  8
破線
 48
4.0
100
AcDbLine
 10
12748.15757500099
 20
-135.9956900289493
 30
0.0
 11
12748.15757500099
 21
-133.4956900289511
 31
0.0
  0
LINE
  5
28090
102
{ACAD_REACTORS
330
280B6
102
}
330
18
100
AcDbEntity
  8
破線
 48
4.0
100
AcDbLine
 10
12744.65757500099
 20
-135.9956900289493
 30
0.0
 11
12744.65757500099
 21
-133.4956900289511
 31
0.0
  0
LINE
  5
28091
102
{ACAD_REACTORS
330
280B6
102
}
330
18
100
AcDbEntity
  8
破線
 48
4.0
100
AcDbLine
 10
12743.40757500099
 20
-135.9956900289493
 30
0.0
 11
12749.40757500099
 21
-135.9956900289493
 31
0.0
  0
LINE
  5
2809B
102
{ACAD_REACTORS
330
280B6
102
}
330
18
100
AcDbEntity
  8
破線
 48
4.0
100
AcDbLine
 10
12733.407575001
 20
-138.4956900289511
 30
0.0
 11
12733.407575001
 21
-135.9956900289493
 31
0.0
  0
LINE
  5
2809C
102
{ACAD_REACTORS
330
280B6
102
}
330
18
100
AcDbEntity
  8
破線
 48
4.0
100
AcDbLine
 10
12739.407575001
 20
-138.4956900289511
 30
0.0
 11
12739.407575001
 21
-135.9956900289493
 31
0.0
  0
LINE
  5
2809D
102
{ACAD_REACTORS
330
280B6
102
}
330
18
100
AcDbEntity
  8
破線
 48
4.0
100
AcDbLine
 10
12738.157575001
 20
-135.9956900289493
 30
0.0
 11
12738.157575001
 21
-133.4956900289511
 31
0.0
  0
LINE
  5
2809E
102
{ACAD_REACTORS
330
280B6
102
}
330
18
100
AcDbEntity
  8
破線
 48
4.0
100
AcDbLine
 10
12734.657575001
 20
-135.9956900289493
 30
0.0
 11
12734.657575001
 21
-133.4956900289511
 31
0.0
  0
LINE
  5
2809F
102
{ACAD_REACTORS
330
280B6
102
}
330
18
100
AcDbEntity
  8
破線
 48
4.0
100
AcDbLine
 10
12733.407575001
 20
-135.9956900289493
 30
0.0
 11
12739.407575001
 21
-135.9956900289493
 31
0.0
  0
LINE
  5
280B3
102
{ACAD_REACTORS
330
280B6
102
}
330
18
100
AcDbEntity
  8
基板
 48
0.5
100
AcDbLine
 10
12753.907575001
 20
-118.3956900289544
 30
0.0
 11
12768.907575001
 21
-118.3956900289544
 31
0.0
  0
LINE
  5
280B4
102
{ACAD_REACTORS
330
280B6
102
}
330
18
100
AcDbEntity
  8
基板
 48
0.5
100
AcDbLine
 10
12752.907575001
 20
-121.8956900289544
 30
0.0
 11
12753.907575001
 21
-118.3956900289544
 31
0.0
  0
LINE
  5
280B5
102
{ACAD_REACTORS
330
280B6
102
}
330
18
100
AcDbEntity
  8
基板
 48
0.5
100
AcDbLine
 10
12769.907575001
 20
-121.8956900289544
 30
0.0
 11
12768.907575001
 21
-118.3956900289544
 31
0.0
  0
LINE
  5
2813F
330
18
100
AcDbEntity
  8
隠れ線
  6
PHANTOM
 48
2.0
100
AcDbLine
 10
12753.907575001
 20
-133.4956900289511
 30
0.0
 11
12731.207575001
 21
-133.495690028953
 31
0.0
  0
LINE
  5
2814A
330
18
100
AcDbEntity
  8
隠れ線
  6
PHANTOM
 48
2.0
100
AcDbLine
 10
12734.907575001
 20
-129.495690028953
 30
0.0
 11
12735.157575001
 21
-129.0626773270546
 31
0.0
  0
LINE
  5
2814B
330
18
100
AcDbEntity
  8
隠れ線
  6
PHANTOM
 48
2.0
100
AcDbLine
 10
12736.407575001
 20
-127.2740021924605
 30
0.0
 11
12735.157575001
 21
-127.995690028953
 31
0.0
  0
LINE
  5
2814C
330
18
100
AcDbEntity
  8
隠れ線
  6
PHANTOM
 48
2.0
100
AcDbLine
 10
12737.657575001
 20
-133.495690028953
 30
0.0
 11
12737.657575001
 21
-127.995690028953
 31
0.0
  0
LINE
  5
2814D
330
18
100
AcDbEntity
  8
隠れ線
  6
PHANTOM
 48
2.0
100
AcDbLine
 10
12735.157575001
 20
-133.495690028953
 30
0.0
 11
12735.157575001
 21
-127.995690028953
 31
0.0
  0
LINE
  5
2814E
330
18
100
AcDbEntity
  8
隠れ線
  6
PHANTOM
 48
2.0
100
AcDbLine
 10
12734.907575001
 20
-133.495690028953
 30
0.0
 11
12734.907575001
 21
-129.495690028953
 31
0.0
  0
LINE
  5
2814F
330
18
100
AcDbEntity
  8
隠れ線
  6
PHANTOM
 48
2.0
100
AcDbLine
 10
12734.907575001
 20
-129.495690028953
 30
0.0
 11
12737.907575001
 21
-129.495690028953
 31
0.0
  0
LINE
  5
28150
330
18
100
AcDbEntity
  8
隠れ線
  6
PHANTOM
 48
2.0
100
AcDbLine
 10
12735.157575001
 20
-127.995690028953
 30
0.0
 11
12737.657575001
 21
-127.995690028953
 31
0.0
  0
LINE
  5
28151
330
18
100
AcDbEntity
  8
隠れ線
  6
PHANTOM
 48
2.0
100
AcDbLine
 10
12737.907575001
 20
-129.495690028953
 30
0.0
 11
12737.657575001
 21
-129.0626773270546
 31
0.0
  0
LINE
  5
28152
330
18
100
AcDbEntity
  8
隠れ線
  6
PHANTOM
 48
2.0
100
AcDbLine
 10
12736.407575001
 20
-127.2740021924605
 30
0.0
 11
12737.657575001
 21
-127.995690028953
 31
0.0
  0
LINE
  5
28153
330
18
100
AcDbEntity
  8
隠れ線
  6
PHANTOM
 48
2.0
100
AcDbLine
 10
12737.907575001
 20
-133.495690028953
 30
0.0
 11
12737.907575001
 21
-129.495690028953
 31
0.0
  0
LINE
  5
28157
330
18
100
AcDbEntity
  8
破線
 48
10.0
100
AcDbLine
 10
12736.407575001
 20
-137.5454512587861
 30
0.0
 11
12736.407575001
 21
-126.8367770355984
 31
0.0
  0
LINE
  5
28158
330
18
100
AcDbEntity
  8
破線
 48
10.0
100
AcDbLine
 10
12731.207575001
 20
-139.495690028953
 30
0.0
 11
12731.207575001
 21
-133.4956900289511
 31
0.0
  0
LINE
  5
2816B
330
18
100
AcDbEntity
  8
隠れ線
  6
PHANTOM
 48
2.0
100
AcDbLine
 10
12753.907575001
 20
-99.49569002895115
 30
0.0
 11
12754.407575001
 21
-99.99569002895115
 31
0.0
  0
LINE
  5
2816E
330
18
100
AcDbEntity
  8
隠れ線
  6
PHANTOM
 48
2.0
100
AcDbLine
 10
12744.907575001
 20
-129.495690028953
 30
0.0
 11
12745.157575001
 21
-129.0626773270546
 31
0.0
  0
LINE
  5
2816F
330
18
100
AcDbEntity
  8
隠れ線
  6
PHANTOM
 48
2.0
100
AcDbLine
 10
12747.907575001
 20
-129.495690028953
 30
0.0
 11
12747.657575001
 21
-129.0626773270546
 31
0.0
  0
LINE
  5
28170
330
18
100
AcDbEntity
  8
隠れ線
  6
PHANTOM
 48
2.0
100
AcDbLine
 10
12744.907575001
 20
-129.495690028953
 30
0.0
 11
12747.907575001
 21
-129.495690028953
 31
0.0
  0
LINE
  5
28171
330
18
100
AcDbEntity
  8
隠れ線
  6
PHANTOM
 48
2.0
100
AcDbLine
 10
12744.907575001
 20
-133.495690028953
 30
0.0
 11
12744.907575001
 21
-129.495690028953
 31
0.0
  0
LINE
  5
28172
330
18
100
AcDbEntity
  8
隠れ線
  6
PHANTOM
 48
2.0
100
AcDbLine
 10
12747.907575001
 20
-133.495690028953
 30
0.0
 11
12747.907575001
 21
-129.495690028953
 31
0.0
  0
LINE
  5
28173
330
18
100
AcDbEntity
  8
隠れ線
  6
PHANTOM
 48
2.0
100
AcDbLine
 10
12746.407575001
 20
-127.2740021924605
 30
0.0
 11
12745.157575001
 21
-127.995690028953
 31
0.0
  0
LINE
  5
28174
330
18
100
AcDbEntity
  8
隠れ線
  6
PHANTOM
 48
2.0
100
AcDbLine
 10
12746.407575001
 20
-127.2740021924605
 30
0.0
 11
12747.657575001
 21
-127.995690028953
 31
0.0
  0
LINE
  5
28175
330
18
100
AcDbEntity
  8
隠れ線
  6
PHANTOM
 48
2.0
100
AcDbLine
 10
12745.157575001
 20
-127.995690028953
 30
0.0
 11
12747.657575001
 21
-127.995690028953
 31
0.0
  0
LINE
  5
28176
330
18
100
AcDbEntity
  8
隠れ線
  6
PHANTOM
 48
2.0
100
AcDbLine
 10
12745.157575001
 20
-133.495690028953
 30
0.0
 11
12745.157575001
 21
-127.995690028953
 31
0.0
  0
LINE
  5
28177
330
18
100
AcDbEntity
  8
隠れ線
  6
PHANTOM
 48
2.0
100
AcDbLine
 10
12747.657575001
 20
-133.495690028953
 30
0.0
 11
12747.657575001
 21
-127.995690028953
 31
0.0
  0
LINE
  5
28178
330
18
100
AcDbEntity
  8
破線
 48
10.0
100
AcDbLine
 10
12753.907575001
 20
-133.4956900289511
 30
0.0
 11
12754.407575001
 21
-132.9956900289511
 31
0.0
  0
LINE
  5
28179
330
18
100
AcDbEntity
  8
隠れ線
  6
PHANTOM
 48
2.0
100
AcDbLine
 10
12753.907575001
 20
-139.4956900289511
 30
0.0
 11
12754.407575001
 21
-138.9956900289511
 31
0.0
  0
LINE
  5
2817B
330
18
100
AcDbEntity
  8
隠れ線
  6
PHANTOM
 48
2.0
100
AcDbLine
 10
12754.407575001
 20
-138.9956900289511
 30
0.0
 11
12754.407575001
 21
-99.99569002895115
 31
0.0
  0
LINE
  5
28180
330
18
100
AcDbEntity
  8
隠れ線
  6
PHANTOM
 48
2.0
100
AcDbLine
 10
12753.907575001
 20
-139.4956900289511
 30
0.0
 11
12725.93078976118
 21
-139.4956900289512
 31
0.0
  0
LINE
  5
28181
330
18
100
AcDbEntity
  8
隠れ線
  6
PHANTOM
 48
2.0
100
AcDbLine
 10
12754.407575001
 20
-126.4456900289519
 30
0.0
 11
12727.99437144664
 21
-126.4456900289519
 31
0.0
  0
LINE
  5
28182
330
18
100
AcDbEntity
  8
隠れ線
  6
PHANTOM
 48
2.0
100
AcDbLine
 10
12754.407575001
 20
-113.745690028953
 30
0.0
 11
12728.42341234803
 21
-113.745690028953
 31
0.0
  0
LINE
  5
28183
330
18
100
AcDbEntity
  8
隠れ線
  6
PHANTOM
 48
2.0
100
AcDbLine
 10
12753.907575001
 20
-99.49569002895115
 30
0.0
 11
12727.62874268792
 21
-99.49569002895123
 31
0.0
  0
LINE
  5
281CC
330
18
100
AcDbEntity
  8
破線
 48
10.0
100
AcDbLine
 10
12746.407575001
 20
-137.5454512587861
 30
0.0
 11
12746.407575001
 21
-126.8367770355984
 31
0.0
  0
LINE
  5
281D9
330
18
100
AcDbEntity
  8
寸法
100
AcDbLine
 10
12753.907575001
 20
-133.4956900289511
 30
0.0
 11
12754.407575001
 21
-133.4956900289511
 31
0.0
  0
SPLINE
  5
281DA
330
18
100
AcDbEntity
  8
隠れ線
  6
PHANTOM
 48
2.0
100
AcDbSpline
210
0.0
220
0.0
230
1.0
 70
  1064
 71
     3
 72
    13
 73
     9
 74
     7
 42
0.000000001
 43
0.0000000001
 44
0.0000000001
 40
0.0
 40
0.0
 40
0.0
 40
0.0
 40
5.271430781526034
 40
11.38879491947559
 40
18.66475455894236
 40
26.69241092963171
 40
34.93126678213704
 40
41.7063109135558
 40
41.7063109135558
 40
41.7063109135558
 40
41.7063109135558
 10
12727.62874268792
 20
-99.49569002895123
 30
0.0
 10
12726.91888125043
 20
-101.1413410256617
 30
0.0
 10
12725.38524329368
 20
-104.6967290194202
 30
0.0
 10
12726.69321245186
 20
-111.1058966277745
 30
0.0
 10
12730.78208646518
 20
-117.2634627333549
 30
0.0
 10
12729.12094678263
 20
-125.5716939279638
 30
0.0
 10
12724.25994332241
 20
-132.079420265553
 30
0.0
 10
12725.41125754798
 20
-137.1896785640749
 30
0.0
 10
12725.93078976118
 20
-139.4956900289512
 30
0.0
 11
12727.62874268792
 21
-99.49569002895123
 31
0.0
 11
12725.99870926382
 21
-104.5087702717478
 31
0.0
 11
12726.94956098432
 21
-110.5517848341908
 31
0.0
 11
12729.73420197228
 21
-117.2737907285136
 31
0.0
 11
12728.57959440842
 21
-125.2179803145791
 31
0.0
 11
12725.25161072213
 21
-132.7547747486956
 31
0.0
 11
12725.93078976118
 21
-139.4956900289512
 31
0.0
  0
TEXT
  5
28372
330
18
100
AcDbEntity
  8
0
  6
Continuous
100
AcDbText
 10
12787.34696470303
 20
-211.4507251040247
 30
0.0
 40
7.0
  1
ＳＥ－５１１３１Ａ
 41
0.953
100
AcDbText
  0
TEXT
  5
283A3
330
18
100
AcDbEntity
  8
0
  6
Continuous
100
AcDbText
 10
12789.00086505008
 20
-202.6849477942029
 30
0.0
 40
6.0
  1
外形図
 41
0.6999999999999998
100
AcDbText
  0
TEXT
  5
28406
330
18
100
AcDbEntity
  8
0
  6
Continuous
100
AcDbText
 10
12789.39032043946
 20
-193.6778580974168
 30
0.0
 40
3.5
  1
NLD-FLﾘﾆｱ用磁極ｾﾝｻ
 41
0.7
100
AcDbText
  0
TEXT
  5
28407
330
18
100
AcDbEntity
  8
0
  6
Continuous
100
AcDbText
 10
12823.572219503
 20
-193.158214127813
 30
0.0
 40
3.0
  1
NSR-PAB4D1*-***
 41
0.6999999999999998
100
AcDbText
  0
LINE
  5
28410
330
18
100
AcDbEntity
  8
Bolt
100
AcDbLine
 10
12661.5452926169
 20
-121.8956900369516
 30
0.0
 11
12653.5452926169
 21
-121.8956900369516
 31
0.0
  0
LINE
  5
28411
330
18
100
AcDbEntity
  8
Bolt
100
AcDbLine
 10
12653.5452926169
 20
-121.8956900369516
 30
0.0
 11
12653.5452926169
 21
-121.3956900369516
 31
0.0
  0
LINE
  5
28412
330
18
100
AcDbEntity
  8
Bolt
100
AcDbLine
 10
12653.5452926169
 20
-121.3956900369516
 30
0.0
 11
12661.5452926169
 21
-121.3956900369516
 31
0.0
  0
LINE
  5
28413
330
18
100
AcDbEntity
  8
Bolt
100
AcDbLine
 10
12661.5452926169
 20
-121.3956900369516
 30
0.0
 11
12661.5452926169
 21
-121.8956900369516
 31
0.0
  0
LINE
  5
28414
330
18
100
AcDbEntity
  8
Bolt
100
AcDbLine
 10
12660.2952926169
 20
-120.8956900369516
 30
0.0
 11
12654.7952926169
 21
-120.8956900369516
 31
0.0
  0
LINE
  5
28415
330
18
100
AcDbEntity
  8
Bolt
100
AcDbLine
 10
12654.7952926169
 20
-120.8956900369516
 30
0.0
 11
12654.7952926169
 21
-120.1956900369509
 31
0.0
  0
LINE
  5
28416
330
18
100
AcDbEntity
  8
Bolt
100
AcDbLine
 10
12654.7952926169
 20
-120.1956900369509
 30
0.0
 11
12660.2952926169
 21
-120.1956900369509
 31
0.0
  0
LINE
  5
28417
330
18
100
AcDbEntity
  8
Bolt
100
AcDbLine
 10
12660.2952926169
 20
-120.1956900369509
 30
0.0
 11
12660.2952926169
 21
-120.8956900369516
 31
0.0
  0
LINE
  5
28418
330
18
100
AcDbEntity
  8
Bolt
100
AcDbLine
 10
12661.5452926169
 20
-121.3956900369516
 30
0.0
 11
12653.5452926169
 21
-121.3956900369516
 31
0.0
  0
LINE
  5
28419
330
18
100
AcDbEntity
  8
Bolt
100
AcDbLine
 10
12653.5452926169
 20
-121.3956900369516
 30
0.0
 11
12653.5452926169
 21
-120.8956900369516
 31
0.0
  0
LINE
  5
2841A
330
18
100
AcDbEntity
  8
Bolt
100
AcDbLine
 10
12653.5452926169
 20
-120.8956900369516
 30
0.0
 11
12661.5452926169
 21
-120.8956900369516
 31
0.0
  0
LINE
  5
2841B
330
18
100
AcDbEntity
  8
Bolt
100
AcDbLine
 10
12661.5452926169
 20
-120.8956900369516
 30
0.0
 11
12661.5452926169
 21
-121.3956900369516
 31
0.0
  0
LINE
  5
2841C
330
18
100
AcDbEntity
  8
Bolt
100
AcDbLine
 10
12660.2952926169
 20
-120.1956900369509
 30
0.0
 11
12654.7952926169
 21
-120.1956900369509
 31
0.0
  0
LINE
  5
2841D
330
18
100
AcDbEntity
  8
Bolt
100
AcDbLine
 10
12654.7952926169
 20
-120.1956900369509
 30
0.0
 11
12654.7952926169
 21
-119.6956900369536
 31
0.0
  0
ARC
  5
2841E
330
18
100
AcDbEntity
  8
Bolt
100
AcDbCircle
 10
12656.2952926169
 20
-119.6956900369509
 30
0.0
 40
1.5
100
AcDbArc
 50
89.99999999999997
 51
180.0000000001042
  0
LINE
  5
2841F
330
18
100
AcDbEntity
  8
Bolt
100
AcDbLine
 10
12656.2952926169
 20
-118.1956900369509
 30
0.0
 11
12658.7952926169
 21
-118.1956900369509
 31
0.0
  0
ARC
  5
28420
330
18
100
AcDbEntity
  8
Bolt
100
AcDbCircle
 10
12658.7952926169
 20
-119.6956900369509
 30
0.0
 40
1.500000000000043
100
AcDbArc
 50
0.0000000000016284
 51
89.99999999999837
  0
LINE
  5
28421
330
18
100
AcDbEntity
  8
Bolt
100
AcDbLine
 10
12660.2952926169
 20
-119.6956900369509
 30
0.0
 11
12660.2952926169
 21
-120.1956900369509
 31
0.0
  0
LINE
  5
2843C
330
18
100
AcDbEntity
  8
基板
 48
0.5
100
AcDbLine
 10
12660.0460273269
 20
-118.3956900369511
 30
0.0
 11
12702.0452926169
 21
-118.3956900369511
 31
0.0
  0
LINE
  5
2843D
330
18
100
AcDbEntity
  8
基板
 48
0.5
100
AcDbLine
 10
12702.0452926169
 20
-118.3956900369511
 30
0.0
 11
12703.0452926169
 21
-121.8956900369511
 31
0.0
  0
LINE
  5
2843E
330
18
100
AcDbEntity
  8
基板
 48
0.5
100
AcDbLine
 10
12703.0452926169
 20
-121.8956900369511
 30
0.0
 11
12659.0460273269
 21
-121.8956900369547
 31
0.0
  0
LINE
  5
2843F
330
18
100
AcDbEntity
  8
基板
 48
0.5
100
AcDbLine
 10
12659.0460273269
 20
-121.8956900369547
 30
0.0
 11
12660.0460273269
 21
-118.3956900369511
 31
0.0
  0
VIEWPORT
  5
2840C
330
28408
100
AcDbEntity
 67
     1
  8
0
100
AcDbViewport
 10
202.5
 20
128.5
 30
0.0
 40
486.0
 41
308.4
 68
     1
 69
     1
 12
202.5
 22
128.5
 13
0.0
 23
0.0
 14
0.5
 24
0.5
 15
0.0
 25
0.0
 16
0.0
 26
0.0
 36
1.0
 17
0.0
 27
0.0
 37
0.0
 42
50.0
 43
0.0
 44
0.0
 45
308.4
 50
0.0
 51
0.0
 72
   100
 90
   557152
  1

281
     0
 71
     1
 74
     0
110
0.0
120
0.0
130
0.0
111
1.0
121
0.0
131
0.0
112
0.0
122
1.0
132
0.0
 79
     0
146
0.0
  0
ENDSEC
  0
SECTION
  2
OBJECTS
  0
DICTIONARY
  5
C
330
0
100
AcDbDictionary
281
     1
  3
ACAD_DETAILVIEWSTYLE
350
2824F
  3
ACAD_GROUP
350
D
  3
ACAD_IMAGE_VARS
350
2824A
  3
ACAD_LAYOUT
350
683
  3
ACAD_MLINESTYLE
350
1B
  3
ACAD_PLOTSETTINGS
350
684
  3
ACAD_PLOTSTYLENAME
350
681
  3
ACAD_SCALELIST
350
2821E
  3
ACAD_SECTIONVIEWSTYLE
350
28250
  3
AcadDim
350
24125
  3
AcDbVariableDictionary
350
7920
  3
APPDATA
350
28248
  3
DWGPROPS
350
2848B
  3
FX_DICT_DIMENSION_PALETTE
350
2840F
  0
DICTIONARY
  5
B18F
330
2
100
AcDbDictionary
280
     1
281
     1
  3
ACAD_LAYERSTATES
360
B19C
  3
ACLYDICTIONARY
360
28335
  0
DICTIONARY
  5
2824F
102
{ACAD_REACTORS
330
C
102
}
330
C
100
AcDbDictionary
281
     1
  0
DICTIONARY
  5
D
102
{ACAD_REACTORS
330
C
102
}
330
C
100
AcDbDictionary
281
     1
  3
*A1
350
2784F
  3
*A2
350
27EB5
  3
*A3
350
27FD4
  3
*A4
350
280B6
  3
*A5
350
27856
  3
*A6
350
27857
  3
*A7
350
27858
  0
RASTERVARIABLES
  5
2824A
102
{ACAD_REACTORS
330
C
102
}
330
C
100
AcDbRasterVariables
 90
        0
 70
     1
 71
     1
 72
     0
  0
DICTIONARY
  5
683
102
{ACAD_REACTORS
330
C
102
}
330
C
100
AcDbDictionary
281
     1
  3
Model
350
685
  3
Sheet1
350
28409
  0
DICTIONARY
  5
1B
102
{ACAD_REACTORS
330
C
102
}
330
C
100
AcDbDictionary
281
     1
  3
STANDARD
350
1C
  0
DICTIONARY
  5
684
102
{ACAD_REACTORS
330
C
102
}
330
C
100
AcDbDictionary
281
     1
  0
ACDBDICTIONARYWDFLT
  5
681
102
{ACAD_REACTORS
330
C
102
}
330
C
100
AcDbDictionary
281
     1
  3
Normal
350
682
100
AcDbDictionaryWithDefault
340
682
  0
DICTIONARY
  5
2821E
102
{ACAD_REACTORS
330
C
102
}
330
C
100
AcDbDictionary
281
     1
  3
A0
350
2821F
  3
A1
350
28220
  3
A2
350
28221
  3
A3
350
28222
  3
A4
350
28223
  3
A5
350
28224
  3
A6
350
28225
  3
A7
350
28226
  3
A8
350
28227
  3
A9
350
28228
  3
B0
350
28229
  3
B1
350
2822A
  3
B2
350
2822B
  3
B3
350
2822C
  3
B4
350
2822D
  3
B5
350
2822E
  3
B6
350
2822F
  3
B7
350
28230
  3
B8
350
28231
  3
B9
350
28232
  3
C0
350
28233
  3
C1
350
28234
  3
C2
350
28235
  3
C3
350
28236
  3
C4
350
28237
  3
C5
350
28238
  3
C6
350
28239
  3
C7
350
2823A
  3
C8
350
2823B
  3
C9
350
2823C
  3
D0
350
2823D
  3
D1
350
2823E
  3
D2
350
2823F
  0
DICTIONARY
  5
28250
102
{ACAD_REACTORS
330
C
102
}
330
C
100
AcDbDictionary
281
     1
  0
XRECORD
  5
24125
102
{ACAD_REACTORS
330
C
102
}
330
C
100
AcDbXrecord
280
     1
 90
   990106
  3

 60
     0
 61
     0
 62
     4
 63
     4
 64
     1
 65
     0
 66
     0
 67
     3
 68
     1
 69
     0
 70
     0
 71
     0
 72
     0
 40
0.0
170
     0
340
0
  0
DICTIONARY
  5
7920
102
{ACAD_REACTORS
330
C
102
}
330
C
100
AcDbDictionary
281
     1
  3
HPTRANSPARENCY
350
28318
  3
SORTENTS
350
7921
  0
DICTIONARY
  5
28248
102
{ACAD_REACTORS
330
C
102
}
330
C
100
AcDbDictionary
281
     1
  0
XRECORD
  5
2848B
102
{ACAD_REACTORS
330
C
102
}
330
C
100
AcDbXrecord
280
     1
  1
DWGPROPS COOKIE
  2

  3

  4

  6

  7

  8
takada
  9

300
=
301
=
302
=
303
=
304
=
305
=
306
=
307
=
308
=
309
=
 40
0.0
 41
2453095.236059641
 42
2457604.184840266
  1

 90
        0
  0
DICTIONARY
  5
2840F
102
{ACAD_REACTORS
330
C
102
}
330
C
100
AcDbDictionary
281
     1
  0
DICTIONARY
  5
B19C
102
{ACAD_REACTORS
330
B18F
102
}
330
B18F
100
AcDbDictionary
281
     1
  3
ARGON_LAYERP_1
350
28308
  3
ARGON_LAYERP_10
350
28311
  3
ARGON_LAYERP_11
350
28312
  3
ARGON_LAYERP_12
350
28313
  3
ARGON_LAYERP_13
350
28314
  3
ARGON_LAYERP_14
350
28315
  3
ARGON_LAYERP_15
350
28316
  3
ARGON_LAYERP_16
350
28334
  3
ARGON_LAYERP_17
350
28440
  3
ARGON_LAYERP_18
350
28441
  3
ARGON_LAYERP_19
350
28442
  3
ARGON_LAYERP_2
350
28309
  3
ARGON_LAYERP_20
350
28443
  3
ARGON_LAYERP_21
350
28444
  3
ARGON_LAYERP_22
350
28445
  3
ARGON_LAYERP_23
350
28446
  3
ARGON_LAYERP_24
350
28447
  3
ARGON_LAYERP_25
350
28448
  3
ARGON_LAYERP_26
350
28449
  3
ARGON_LAYERP_27
350
2844A
  3
ARGON_LAYERP_28
350
2844B
  3
ARGON_LAYERP_29
350
2844C
  3
ARGON_LAYERP_3
350
2830A
  3
ARGON_LAYERP_30
350
2844D
  3
ARGON_LAYERP_31
350
2844E
  3
ARGON_LAYERP_32
350
2844F
  3
ARGON_LAYERP_33
350
28450
  3
ARGON_LAYERP_34
350
28451
  3
ARGON_LAYERP_35
350
28452
  3
ARGON_LAYERP_36
350
28453
  3
ARGON_LAYERP_37
350
28454
  3
ARGON_LAYERP_38
350
28455
  3
ARGON_LAYERP_39
350
28456
  3
ARGON_LAYERP_4
350
2830B
  3
ARGON_LAYERP_40
350
28457
  3
ARGON_LAYERP_41
350
28458
  3
ARGON_LAYERP_42
350
28459
  3
ARGON_LAYERP_43
350
2845A
  3
ARGON_LAYERP_44
350
2845B
  3
ARGON_LAYERP_45
350
2845C
  3
ARGON_LAYERP_46
350
2845D
  3
ARGON_LAYERP_47
350
2845E
  3
ARGON_LAYERP_48
350
2845F
  3
ARGON_LAYERP_49
350
28460
  3
ARGON_LAYERP_5
350
2830C
  3
ARGON_LAYERP_50
350
28461
  3
ARGON_LAYERP_51
350
28462
  3
ARGON_LAYERP_52
350
28463
  3
ARGON_LAYERP_6
350
2830D
  3
ARGON_LAYERP_7
350
2830E
  3
ARGON_LAYERP_8
350
2830F
  3
ARGON_LAYERP_9
350
28310
  0
DICTIONARY
  5
28335
102
{ACAD_REACTORS
330
B18F
102
}
330
B18F
100
AcDbDictionary
281
     1
  3
*A1
350
28336
  3
*A10
350
2833F
  3
*A11
350
28340
  3
*A2
350
28337
  3
*A3
350
28338
  3
*A4
350
28339
  3
*A5
350
2833A
  3
*A6
350
2833B
  3
*A7
350
2833C
  3
*A8
350
2833D
  3
*A9
350
2833E
1001
ACAD
1000
<All
  0
GROUP
  5
2784F
102
{ACAD_REACTORS
330
D
102
}
330
D
100
AcDbGroup
300

 70
     1
 71
     1
340
2772B
340
2771A
340
27719
  0
GROUP
  5
27EB5
102
{ACAD_REACTORS
330
D
102
}
330
D
100
AcDbGroup
300

 70
     1
 71
     1
340
27CCD
340
27CCA
340
27CCC
340
27CDF
340
27CCB
340
27CE0
340
27CD2
340
27CD1
340
27CDD
340
27CE5
340
27CCF
340
27CDB
340
27CDA
340
27CD9
340
27CD8
340
27CD3
340
27CE1
340
27CE2
340
27CCE
340
27CD6
340
27CD4
340
27CDE
340
27CC9
340
27CD0
340
27CD7
340
27CD5
340
27CDC
340
27CC8
  0
GROUP
  5
27FD4
102
{ACAD_REACTORS
330
D
102
}
330
D
100
AcDbGroup
300

 70
     1
 71
     1
340
27F2F
340
27F30
340
27F33
340
27F34
340
27F35
340
27F36
340
27F37
340
27F38
340
27F39
340
27F3A
340
27F3B
340
27F3C
340
27F3D
340
27F2D
340
27F2E
340
27F42
340
27F43
340
27F44
340
27F45
340
27F46
  0
GROUP
  5
280B6
102
{ACAD_REACTORS
330
D
102
}
330
D
100
AcDbGroup
300

 70
     1
 71
     1
340
2807C
340
28069
340
2807B
340
28072
340
28068
340
2808D
340
2808E
340
2809B
340
2809C
340
2806C
340
2806D
340
2806E
340
2806F
340
28070
340
28071
340
28091
340
2809F
340
2807A
340
2808F
340
28090
340
2809D
340
2809E
340
280B5
340
280B4
340
280B3
340
28073
340
28077
340
28078
340
28079
340
28080
  0
GROUP
  5
27856
102
{ACAD_REACTORS
330
D
102
}
330
D
100
AcDbGroup
300

 70
     1
 71
     1
340
276B9
340
276D0
340
276C3
340
276CF
340
276D3
340
276C2
340
276BB
340
276BA
340
276D5
340
276C6
340
276FA
340
276EA
340
276DD
340
276DC
340
276B4
340
276B3
340
276BC
340
276D4
340
276AB
340
276AA
340
276DB
340
276DA
340
276D9
340
276F9
340
276F8
340
276E9
340
276E8
340
276F7
340
276F6
340
276E7
340
276E6
340
276E5
340
276E4
340
276E3
340
276E2
340
276F5
340
276E1
340
276D8
340
276E0
340
276DF
340
276FD
340
276F3
340
276F2
340
276F1
340
276F0
340
276EF
340
276EE
340
276A9
340
276EC
340
276EB
340
276F4
340
276DE
340
276ED
340
276FC
  0
GROUP
  5
27857
102
{ACAD_REACTORS
330
D
102
}
330
D
100
AcDbGroup
300

 70
     1
 71
     1
340
276EA
340
276DD
340
276DC
340
276B9
340
276D0
340
276C3
340
276CF
340
276D3
340
276C2
340
276BB
340
276BA
340
276D5
340
276C6
340
276FA
340
276B4
340
276B3
340
276BC
340
276D4
340
276AB
340
276AA
340
276DB
340
276DA
340
276D9
340
276F9
340
276F8
340
276E9
340
276E8
340
276F7
340
276F6
340
276E7
340
276E6
340
276E5
340
276E4
340
276E3
340
276E2
340
276F5
340
276E1
340
276D8
340
276E0
340
276DF
340
276FD
340
276F3
340
276F2
340
276F1
340
276F0
340
276EF
340
276EE
340
276A9
340
276EC
340
276EB
340
276F4
340
276DE
340
276ED
340
276FC
340
276B7
340
276D2
340
276D1
340
276C5
340
276C4
340
276B6
340
276B8
340
276B5
  0
GROUP
  5
27858
102
{ACAD_REACTORS
330
D
102
}
330
D
100
AcDbGroup
300

 70
     1
 71
     1
340
276D2
340
276D1
340
276C5
340
276C4
340
276B6
340
276B7
340
276B8
340
276B5
  0
LAYOUT
  5
685
102
{ACAD_REACTORS
330
683
102
}
330
683
100
AcDbPlotSettings
  1

  2
IBM Infoprint 1316J RPCS.pc3
  4
A4
  6

 40
5.873749732971191
 41
5.873747825622559
 42
5.873748779296875
 43
5.873748779296875
 44
209.9733276367188
 45
296.9259948730469
 46
0.0
 47
10.44
 48
12575.22165636513
 49
288.8141551573608
140
12975.22165636513
141
588.8141551573608
142
1.0
143
1.513425376123175
 70
 11956
 72
     1
 73
     1
 74
     4
  7
monochrome.ctb
 75
     0
147
0.6607527637481689
148
-12575.22165636513
149
-288.8141551573608
100
AcDbLayout
  1
Model
 70
     1
 71
     0
 10
0.0
 20
0.0
 11
12.0
 21
9.0
 12
0.0
 22
0.0
 32
0.0
 14
12617.14547390158
 24
-210.634058437358
 34
0.0
 15
12861.86447784356
 25
-26.90533906509027
 35
0.0
146
0.0
 13
0.0
 23
0.0
 33
0.0
 16
1.0
 26
0.0
 36
0.0
 17
0.0
 27
1.0
 37
0.0
 76
     0
330
18
331
281F2
  0
LAYOUT
  5
28409
102
{ACAD_REACTORS
330
683
102
}
330
683
100
AcDbPlotSettings
  1

  2
none_device
  4
ISO_A3_(420.00_x_297.00_MM)
  6

 40
7.5
 41
20.0
 42
7.5
 43
20.0
 44
420.0
 45
297.0
 46
0.0
 47
0.0
 48
0.0
 49
0.0
140
0.0
141
0.0
142
1.0
143
1.0
 70
   688
 72
     1
 73
     0
 74
     5
  7

 75
    16
147
1.0
148
0.0
149
0.0
100
AcDbLayout
  1
Sheet1
 70
     1
 71
     1
 10
0.0
 20
0.0
 11
0.0
 21
0.0
 12
0.0
 22
0.0
 32
0.0
 14
1.000000000000000E+20
 24
1.000000000000000E+20
 34
1.000000000000000E+20
 15
-1.000000000000000E+20
 25
-1.000000000000000E+20
 35
-1.000000000000000E+20
146
0.0
 13
0.0
 23
0.0
 33
0.0
 16
1.0
 26
0.0
 36
0.0
 17
0.0
 27
1.0
 37
0.0
 76
     0
330
28408
331
2840C
  0
MLINESTYLE
  5
1C
102
{ACAD_REACTORS
330
1B
102
}
330
1B
100
AcDbMlineStyle
  2
STANDARD
 70
     0
  3

 62
   256
 51
90.0
 52
90.0
 71
     2
 49
0.5
 62
   256
  6
BYLAYER
 49
-0.5
 62
   256
  6
BYLAYER
  0
ACDBPLACEHOLDER
  5
682
102
{ACAD_REACTORS
330
681
102
}
330
681
  0
SCALE
  5
2821F
102
{ACAD_REACTORS
330
2821E
102
}
330
2821E
100
AcDbScale
 70
     0
300
1:1
140
1.0
141
1.0
290
     1
  0
SCALE
  5
28220
102
{ACAD_REACTORS
330
2821E
102
}
330
2821E
100
AcDbScale
 70
     0
300
1:2
140
1.0
141
2.0
290
     0
  0
SCALE
  5
28221
102
{ACAD_REACTORS
330
2821E
102
}
330
2821E
100
AcDbScale
 70
     0
300
1:4
140
1.0
141
4.0
290
     0
  0
SCALE
  5
28222
102
{ACAD_REACTORS
330
2821E
102
}
330
2821E
100
AcDbScale
 70
     0
300
1:5
140
1.0
141
5.0
290
     0
  0
SCALE
  5
28223
102
{ACAD_REACTORS
330
2821E
102
}
330
2821E
100
AcDbScale
 70
     0
300
1:8
140
1.0
141
8.0
290
     0
  0
SCALE
  5
28224
102
{ACAD_REACTORS
330
2821E
102
}
330
2821E
100
AcDbScale
 70
     0
300
1:10
140
1.0
141
10.0
290
     0
  0
SCALE
  5
28225
102
{ACAD_REACTORS
330
2821E
102
}
330
2821E
100
AcDbScale
 70
     0
300
1:16
140
1.0
141
16.0
290
     0
  0
SCALE
  5
28226
102
{ACAD_REACTORS
330
2821E
102
}
330
2821E
100
AcDbScale
 70
     0
300
1:20
140
1.0
141
20.0
290
     0
  0
SCALE
  5
28227
102
{ACAD_REACTORS
330
2821E
102
}
330
2821E
100
AcDbScale
 70
     0
300
1:30
140
1.0
141
30.0
290
     0
  0
SCALE
  5
28228
102
{ACAD_REACTORS
330
2821E
102
}
330
2821E
100
AcDbScale
 70
     0
300
1:40
140
1.0
141
40.0
290
     0
  0
SCALE
  5
28229
102
{ACAD_REACTORS
330
2821E
102
}
330
2821E
100
AcDbScale
 70
     0
300
1:50
140
1.0
141
50.0
290
     0
  0
SCALE
  5
2822A
102
{ACAD_REACTORS
330
2821E
102
}
330
2821E
100
AcDbScale
 70
     0
300
1:100
140
1.0
141
100.0
290
     0
  0
SCALE
  5
2822B
102
{ACAD_REACTORS
330
2821E
102
}
330
2821E
100
AcDbScale
 70
     0
300
2:1
140
2.0
141
1.0
290
     0
  0
SCALE
  5
2822C
102
{ACAD_REACTORS
330
2821E
102
}
330
2821E
100
AcDbScale
 70
     0
300
4:1
140
4.0
141
1.0
290
     0
  0
SCALE
  5
2822D
102
{ACAD_REACTORS
330
2821E
102
}
330
2821E
100
AcDbScale
 70
     0
300
8:1
140
8.0
141
1.0
290
     0
  0
SCALE
  5
2822E
102
{ACAD_REACTORS
330
2821E
102
}
330
2821E
100
AcDbScale
 70
     0
300
10:1
140
10.0
141
1.0
290
     0
  0
SCALE
  5
2822F
102
{ACAD_REACTORS
330
2821E
102
}
330
2821E
100
AcDbScale
 70
     0
300
100:1
140
100.0
141
1.0
290
     0
  0
SCALE
  5
28230
102
{ACAD_REACTORS
330
2821E
102
}
330
2821E
100
AcDbScale
 70
     0
300
1/128" = 1'-0"
140
0.0078125
141
12.0
290
     0
  0
SCALE
  5
28231
102
{ACAD_REACTORS
330
2821E
102
}
330
2821E
100
AcDbScale
 70
     0
300
1/64" = 1'-0"
140
0.015625
141
12.0
290
     0
  0
SCALE
  5
28232
102
{ACAD_REACTORS
330
2821E
102
}
330
2821E
100
AcDbScale
 70
     0
300
1/32" = 1'-0"
140
0.03125
141
12.0
290
     0
  0
SCALE
  5
28233
102
{ACAD_REACTORS
330
2821E
102
}
330
2821E
100
AcDbScale
 70
     0
300
1/16" = 1'-0"
140
0.0625
141
12.0
290
     0
  0
SCALE
  5
28234
102
{ACAD_REACTORS
330
2821E
102
}
330
2821E
100
AcDbScale
 70
     0
300
3/32" = 1'-0"
140
0.09375
141
12.0
290
     0
  0
SCALE
  5
28235
102
{ACAD_REACTORS
330
2821E
102
}
330
2821E
100
AcDbScale
 70
     0
300
1/8" = 1'-0"
140
0.125
141
12.0
290
     0
  0
SCALE
  5
28236
102
{ACAD_REACTORS
330
2821E
102
}
330
2821E
100
AcDbScale
 70
     0
300
3/16" = 1'-0"
140
0.1875
141
12.0
290
     0
  0
SCALE
  5
28237
102
{ACAD_REACTORS
330
2821E
102
}
330
2821E
100
AcDbScale
 70
     0
300
1/4" = 1'-0"
140
0.25
141
12.0
290
     0
  0
SCALE
  5
28238
102
{ACAD_REACTORS
330
2821E
102
}
330
2821E
100
AcDbScale
 70
     0
300
3/8" = 1'-0"
140
0.375
141
12.0
290
     0
  0
SCALE
  5
28239
102
{ACAD_REACTORS
330
2821E
102
}
330
2821E
100
AcDbScale
 70
     0
300
1/2" = 1'-0"
140
0.5
141
12.0
290
     0
  0
SCALE
  5
2823A
102
{ACAD_REACTORS
330
2821E
102
}
330
2821E
100
AcDbScale
 70
     0
300
3/4" = 1'-0"
140
0.75
141
12.0
290
     0
  0
SCALE
  5
2823B
102
{ACAD_REACTORS
330
2821E
102
}
330
2821E
100
AcDbScale
 70
     0
300
1" = 1'-0"
140
1.0
141
12.0
290
     0
  0
SCALE
  5
2823C
102
{ACAD_REACTORS
330
2821E
102
}
330
2821E
100
AcDbScale
 70
     0
300
1-1/2" = 1'-0"
140
1.5
141
12.0
290
     0
  0
SCALE
  5
2823D
102
{ACAD_REACTORS
330
2821E
102
}
330
2821E
100
AcDbScale
 70
     0
300
3" = 1'-0"
140
3.0
141
12.0
290
     0
  0
SCALE
  5
2823E
102
{ACAD_REACTORS
330
2821E
102
}
330
2821E
100
AcDbScale
 70
     0
300
6" = 1'-0"
140
6.0
141
12.0
290
     0
  0
SCALE
  5
2823F
102
{ACAD_REACTORS
330
2821E
102
}
330
2821E
100
AcDbScale
 70
     0
300
1'-0" = 1'-0"
140
12.0
141
12.0
290
     0
  0
DICTIONARYVAR
  5
28318
102
{ACAD_REACTORS
330
7920
102
}
330
7920
100
DictionaryVariables
280
     0
  1
ByLayer
  0
DICTIONARYVAR
  5
7921
102
{ACAD_REACTORS
330
7920
102
}
330
7920
100
DictionaryVariables
280
     0
  1
96
  0
XRECORD
  5
28308
102
{ACAD_REACTORS
330
B19C
102
}
330
B19C
100
AcDbXrecord
280
     1
 91
     1023
301

290
     0
302
寸法
330
E
 90
        8
 62
     7
370
    -3
331
14
  1
Color_7
330
0
 90
        9
 62
     1
370
    -3
331
14
  1
Color_1
330
0
 90
        8
 62
     7
370
    -3
331
14
  1
Color_7
330
0
 90
        9
 62
     7
370
    -3
331
14
  1
Color_7
330
0
 90
        8
 62
     7
370
    -3
331
14
  1
Color_7
330
0
 90
        0
 62
     7
370
    -3
331
14
  1
Color_7
330
A19
 90
        8
 62
     3
370
    30
331
14
  1
Color_3
330
C05
 90
        8
 62
     4
370
    13
331
14
  1
Color_4
330
0
 90
        8
 62
    40
370
    30
331
14
  1
Color_40
330
43CD
 90
        8
 62
     3
370
    30
331
14
  1
Color_3
330
43CE
 90
        8
 62
     8
370
    13
331
2844
  1
Color_8
330
43D0
 90
        8
 62
     7
370
    13
331
14
  1
Color_7
330
43D1
 90
        8
 62
   252
370
    13
331
2844
  1
Color_252
330
43D2
 90
        8
 62
    31
370
    30
331
14
  1
Color_31
330
43D3
 90
        8
 62
     1
370
    13
331
2843
  1
Color_1
330
B442
 90
        8
 62
     7
370
    -3
331
14
  1
Color_7
330
B443
 90
        8
 62
     7
370
    -3
331
14
  1
Color_7
330
0
 90
        8
 62
     7
370
    -3
331
14
  1
Color_7
330
0
 90
        8
 62
     7
370
    -3
331
14
  1
Color_7
  0
XRECORD
  5
28311
102
{ACAD_REACTORS
330
B19C
102
}
330
B19C
100
AcDbXrecord
280
     1
 91
     1023
301

290
     0
302
寸法
330
E
 90
        8
 62
     7
370
    -3
331
14
  1
Color_7
330
0
 90
        9
 62
     1
370
    -3
331
14
  1
Color_1
330
0
 90
        8
 62
     7
370
    -3
331
14
  1
Color_7
330
0
 90
        8
 62
     7
370
    -3
331
14
  1
Color_7
330
0
 90
        0
 62
     7
370
    -3
331
14
  1
Color_7
330
A19
 90
        8
 62
     3
370
    30
331
14
  1
Color_3
330
C05
 90
        8
 62
     4
370
    13
331
14
  1
Color_4
330
0
 90
        8
 62
    40
370
    30
331
14
  1
Color_40
330
43CD
 90
        8
 62
     3
370
    30
331
14
  1
Color_3
330
43CE
 90
        8
 62
     8
370
    13
331
2844
  1
Color_8
330
43D0
 90
        8
 62
     7
370
    13
331
14
  1
Color_7
330
43D1
 90
        8
 62
   252
370
    13
331
2844
  1
Color_252
330
43D2
 90
        8
 62
    31
370
    30
331
14
  1
Color_31
330
43D3
 90
        8
 62
     1
370
    13
331
2843
  1
Color_1
330
B442
 90
        8
 62
     7
370
    -3
331
14
  1
Color_7
330
B443
 90
        8
 62
     7
370
    -3
331
14
  1
Color_7
330
0
 90
        8
 62
     7
370
    -3
331
14
  1
Color_7
330
0
 90
        8
 62
     7
370
    -3
331
14
  1
Color_7
  0
XRECORD
  5
28312
102
{ACAD_REACTORS
330
B19C
102
}
330
B19C
100
AcDbXrecord
280
     1
 91
     1023
301

290
     0
302
寸法
330
E
 90
        8
 62
     7
370
    -3
331
14
  1
Color_7
330
0
 90
        9
 62
     1
370
    -3
331
14
  1
Color_1
330
0
 90
        8
 62
     7
370
    -3
331
14
  1
Color_7
330
0
 90
        9
 62
     7
370
    -3
331
14
  1
Color_7
330
0
 90
        0
 62
     7
370
    -3
331
14
  1
Color_7
330
A19
 90
        8
 62
     3
370
    30
331
14
  1
Color_3
330
C05
 90
        8
 62
     4
370
    13
331
14
  1
Color_4
330
0
 90
        8
 62
    40
370
    30
331
14
  1
Color_40
330
43CD
 90
        8
 62
     3
370
    30
331
14
  1
Color_3
330
43CE
 90
        8
 62
     8
370
    13
331
2844
  1
Color_8
330
43D0
 90
        8
 62
     7
370
    13
331
14
  1
Color_7
330
43D1
 90
        8
 62
   252
370
    13
331
2844
  1
Color_252
330
43D2
 90
        8
 62
    31
370
    30
331
14
  1
Color_31
330
43D3
 90
        8
 62
     1
370
    13
331
2843
  1
Color_1
330
B442
 90
        8
 62
     7
370
    -3
331
14
  1
Color_7
330
B443
 90
        8
 62
     7
370
    -3
331
14
  1
Color_7
330
0
 90
        8
 62
     7
370
    -3
331
14
  1
Color_7
330
0
 90
        8
 62
     7
370
    -3
331
14
  1
Color_7
  0
XRECORD
  5
28313
102
{ACAD_REACTORS
330
B19C
102
}
330
B19C
100
AcDbXrecord
280
     1
 91
     1023
301

290
     0
302
寸法
330
E
 90
        8
 62
     7
370
    -3
331
14
  1
Color_7
330
0
 90
        9
 62
     1
370
    -3
331
14
  1
Color_1
330
0
 90
        8
 62
     7
370
    -3
331
14
  1
Color_7
330
0
 90
        8
 62
     7
370
    -3
331
14
  1
Color_7
330
0
 90
        0
 62
     7
370
    -3
331
14
  1
Color_7
330
A19
 90
        8
 62
     3
370
    30
331
14
  1
Color_3
330
C05
 90
        8
 62
     4
370
    13
331
14
  1
Color_4
330
0
 90
        8
 62
    40
370
    30
331
14
  1
Color_40
330
43CD
 90
        8
 62
     3
370
    30
331
14
  1
Color_3
330
43CE
 90
        8
 62
     8
370
    13
331
2844
  1
Color_8
330
43D0
 90
        8
 62
     7
370
    13
331
14
  1
Color_7
330
43D1
 90
        8
 62
   252
370
    13
331
2844
  1
Color_252
330
43D2
 90
        8
 62
    31
370
    30
331
14
  1
Color_31
330
43D3
 90
        8
 62
     1
370
    13
331
2843
  1
Color_1
330
B442
 90
        8
 62
     7
370
    -3
331
14
  1
Color_7
330
B443
 90
        8
 62
     7
370
    -3
331
14
  1
Color_7
330
0
 90
        8
 62
     7
370
    -3
331
14
  1
Color_7
330
0
 90
        8
 62
     7
370
    -3
331
14
  1
Color_7
  0
XRECORD
  5
28314
102
{ACAD_REACTORS
330
B19C
102
}
330
B19C
100
AcDbXrecord
280
     1
 91
     1023
301

290
     0
302
寸法
330
E
 90
        8
 62
     7
370
    -3
331
14
  1
Color_7
330
0
 90
        9
 62
     1
370
    -3
331
14
  1
Color_1
330
0
 90
        8
 62
     7
370
    -3
331
14
  1
Color_7
330
0
 90
        9
 62
     7
370
    -3
331
14
  1
Color_7
330
0
 90
        0
 62
     7
370
    -3
331
14
  1
Color_7
330
A19
 90
        8
 62
     3
370
    30
331
14
  1
Color_3
330
C05
 90
        8
 62
     4
370
    13
331
14
  1
Color_4
330
0
 90
        8
 62
    40
370
    30
331
14
  1
Color_40
330
43CD
 90
        8
 62
     3
370
    30
331
14
  1
Color_3
330
43CE
 90
        8
 62
     8
370
    13
331
2844
  1
Color_8
330
43D0
 90
        8
 62
     7
370
    13
331
14
  1
Color_7
330
43D1
 90
        8
 62
   252
370
    13
331
2844
  1
Color_252
330
43D2
 90
        8
 62
    31
370
    30
331
14
  1
Color_31
330
43D3
 90
        8
 62
     1
370
    13
331
2843
  1
Color_1
330
B442
 90
        8
 62
     7
370
    -3
331
14
  1
Color_7
330
B443
 90
        8
 62
     7
370
    -3
331
14
  1
Color_7
330
0
 90
        8
 62
     7
370
    -3
331
14
  1
Color_7
330
0
 90
        8
 62
     7
370
    -3
331
14
  1
Color_7
  0
XRECORD
  5
28315
102
{ACAD_REACTORS
330
B19C
102
}
330
B19C
100
AcDbXrecord
280
     1
 91
     1023
301

290
     0
302
寸法
330
E
 90
        8
 62
     7
370
    -3
331
14
  1
Color_7
330
0
 90
        9
 62
     1
370
    -3
331
14
  1
Color_1
330
0
 90
        8
 62
     7
370
    -3
331
14
  1
Color_7
330
0
 90
        8
 62
     7
370
    -3
331
14
  1
Color_7
330
0
 90
        0
 62
     7
370
    -3
331
14
  1
Color_7
330
A19
 90
        8
 62
     3
370
    30
331
14
  1
Color_3
330
C05
 90
        8
 62
     4
370
    13
331
14
  1
Color_4
330
0
 90
        8
 62
    40
370
    30
331
14
  1
Color_40
330
43CD
 90
        8
 62
     3
370
    30
331
14
  1
Color_3
330
43CE
 90
        8
 62
     8
370
    13
331
2844
  1
Color_8
330
43D0
 90
        8
 62
     7
370
    13
331
14
  1
Color_7
330
43D1
 90
        8
 62
   252
370
    13
331
2844
  1
Color_252
330
43D2
 90
        8
 62
    31
370
    30
331
14
  1
Color_31
330
43D3
 90
        8
 62
     1
370
    13
331
2843
  1
Color_1
330
B442
 90
        8
 62
     7
370
    -3
331
14
  1
Color_7
330
B443
 90
        8
 62
     7
370
    -3
331
14
  1
Color_7
330
0
 90
        8
 62
     7
370
    -3
331
14
  1
Color_7
330
0
 90
        8
 62
     7
370
    -3
331
14
  1
Color_7
  0
XRECORD
  5
28316
102
{ACAD_REACTORS
330
B19C
102
}
330
B19C
100
AcDbXrecord
280
     1
 91
     1023
301

290
     0
302
寸法
330
E
 90
        8
 62
     7
370
    -3
331
14
  1
Color_7
330
0
 90
        9
 62
     1
370
    -3
331
14
  1
Color_1
330
0
 90
        8
 62
     7
370
    -3
331
14
  1
Color_7
330
0
 90
        9
 62
     7
370
    -3
331
14
  1
Color_7
330
0
 90
        0
 62
     7
370
    -3
331
14
  1
Color_7
330
A19
 90
        8
 62
     3
370
    30
331
14
  1
Color_3
330
C05
 90
        8
 62
     4
370
    13
331
14
  1
Color_4
330
0
 90
        8
 62
    40
370
    30
331
14
  1
Color_40
330
43CD
 90
        8
 62
     3
370
    30
331
14
  1
Color_3
330
43CE
 90
        8
 62
     8
370
    13
331
2844
  1
Color_8
330
43D0
 90
        8
 62
     7
370
    13
331
14
  1
Color_7
330
43D1
 90
        8
 62
   252
370
    13
331
2844
  1
Color_252
330
43D2
 90
        8
 62
    31
370
    30
331
14
  1
Color_31
330
43D3
 90
        8
 62
     1
370
    13
331
2843
  1
Color_1
330
B442
 90
        8
 62
     7
370
    -3
331
14
  1
Color_7
330
B443
 90
        8
 62
     7
370
    -3
331
14
  1
Color_7
330
0
 90
        8
 62
     7
370
    -3
331
14
  1
Color_7
330
0
 90
        8
 62
     7
370
    -3
331
14
  1
Color_7
  0
XRECORD
  5
28334
102
{ACAD_REACTORS
330
B19C
102
}
330
B19C
100
AcDbXrecord
280
     1
 91
     1023
301

290
     0
302
寸法
330
E
 90
        8
 62
     7
370
    -3
331
14
  1
Color_7
330
0
 90
        9
 62
     1
370
    -3
331
14
  1
Color_1
330
0
 90
        8
 62
     7
370
    -3
331
14
  1
Color_7
330
0
 90
        8
 62
     7
370
    -3
331
14
  1
Color_7
330
0
 90
        0
 62
     7
370
    -3
331
14
  1
Color_7
330
A19
 90
        8
 62
     3
370
    30
331
14
  1
Color_3
330
C05
 90
        8
 62
     4
370
    13
331
14
  1
Color_4
330
0
 90
        8
 62
    40
370
    30
331
14
  1
Color_40
330
43CD
 90
        8
 62
     3
370
    30
331
14
  1
Color_3
330
43CE
 90
        8
 62
     8
370
    13
331
2844
  1
Color_8
330
43D0
 90
        8
 62
     7
370
    13
331
14
  1
Color_7
330
43D1
 90
        8
 62
   252
370
    13
331
2844
  1
Color_252
330
43D2
 90
        8
 62
    31
370
    30
331
14
  1
Color_31
330
43D3
 90
        8
 62
     1
370
    13
331
2843
  1
Color_1
330
B442
 90
        8
 62
     7
370
    -3
331
14
  1
Color_7
330
B443
 90
        8
 62
     7
370
    -3
331
14
  1
Color_7
330
0
 90
        8
 62
     7
370
    -3
331
14
  1
Color_7
330
0
 90
        8
 62
     7
370
    -3
331
14
  1
Color_7
  0
XRECORD
  5
28440
102
{ACAD_REACTORS
330
B19C
102
}
330
B19C
100
AcDbXrecord
280
     1
 91
     1023
301

290
     0
302
寸法
330
E
 90
        8
 62
     7
370
    -3
331
14
  1
Color_7
330
0
 90
        9
 62
     1
370
    -3
331
14
  1
Color_1
330
0
 90
        8
 62
     7
370
    -3
331
14
  1
Color_7
330
0
 90
        8
 62
     7
370
    -3
331
14
  1
Color_7
330
0
 90
        0
 62
     7
370
    -3
331
14
  1
Color_7
330
A19
 90
        8
 62
     3
370
    30
331
14
  1
Color_3
330
C05
 90
        8
 62
     4
370
    13
331
14
  1
Color_4
330
0
 90
        8
 62
    40
370
    15
331
14
  1
Color_40
330
43CD
 90
        8
 62
     3
370
    30
331
14
  1
Color_3
330
43CE
 90
        8
 62
     8
370
    13
331
2844
  1
Color_8
330
43D0
 90
        8
 62
     7
370
    13
331
14
  1
Color_7
330
43D1
 90
        8
 62
   252
370
    13
331
2844
  1
Color_252
330
43D2
 90
        8
 62
    31
370
    30
331
14
  1
Color_31
330
43D3
 90
        8
 62
     1
370
    13
331
2843
  1
Color_1
330
B442
 90
        8
 62
     7
370
    -3
331
14
  1
Color_7
330
B443
 90
        8
 62
     7
370
    -3
331
14
  1
Color_7
330
0
 90
        8
 62
     7
370
    -3
331
14
  1
Color_7
330
0
 90
        8
 62
     7
370
    -3
331
14
  1
Color_7
  0
XRECORD
  5
28441
102
{ACAD_REACTORS
330
B19C
102
}
330
B19C
100
AcDbXrecord
280
     1
 91
     1023
301

290
     0
302
寸法
330
E
 90
        8
 62
     7
370
    -3
331
14
  1
Color_7
330
0
 90
        8
 62
     1
370
    -3
331
14
  1
Color_1
330
0
 90
        8
 62
     7
370
    -3
331
14
  1
Color_7
330
0
 90
        8
 62
     7
370
    -3
331
14
  1
Color_7
330
0
 90
        0
 62
     7
370
    -3
331
14
  1
Color_7
330
A19
 90
        8
 62
     3
370
    30
331
14
  1
Color_3
330
C05
 90
        8
 62
     4
370
    13
331
14
  1
Color_4
330
0
 90
        8
 62
    40
370
    15
331
14
  1
Color_40
330
43CD
 90
        8
 62
     3
370
    30
331
14
  1
Color_3
330
43CE
 90
        8
 62
     8
370
    13
331
2844
  1
Color_8
330
43D0
 90
        8
 62
     7
370
    13
331
14
  1
Color_7
330
43D1
 90
        8
 62
   252
370
    13
331
2844
  1
Color_252
330
43D2
 90
        8
 62
    31
370
    30
331
14
  1
Color_31
330
43D3
 90
        8
 62
     1
370
    13
331
2843
  1
Color_1
330
B442
 90
        8
 62
     7
370
    -3
331
14
  1
Color_7
330
B443
 90
        8
 62
     7
370
    -3
331
14
  1
Color_7
330
0
 90
        8
 62
     7
370
    -3
331
14
  1
Color_7
330
0
 90
        8
 62
     7
370
    -3
331
14
  1
Color_7
  0
XRECORD
  5
28442
102
{ACAD_REACTORS
330
B19C
102
}
330
B19C
100
AcDbXrecord
280
     1
 91
     1023
301

290
     0
302
寸法
330
E
 90
        8
 62
     7
370
    -3
331
14
  1
Color_7
330
0
 90
        8
 62
     1
370
    -3
331
14
  1
Color_1
330
0
 90
        8
 62
     7
370
    -3
331
14
  1
Color_7
330
0
 90
        9
 62
     7
370
    -3
331
14
  1
Color_7
330
0
 90
        0
 62
     7
370
    -3
331
14
  1
Color_7
330
A19
 90
        8
 62
     3
370
    30
331
14
  1
Color_3
330
C05
 90
        8
 62
     4
370
    13
331
14
  1
Color_4
330
0
 90
        8
 62
    40
370
    15
331
14
  1
Color_40
330
43CD
 90
        8
 62
     3
370
    30
331
14
  1
Color_3
330
43CE
 90
        8
 62
     8
370
    13
331
2844
  1
Color_8
330
43D0
 90
        8
 62
     7
370
    13
331
14
  1
Color_7
330
43D1
 90
        8
 62
   252
370
    13
331
2844
  1
Color_252
330
43D2
 90
        8
 62
    31
370
    30
331
14
  1
Color_31
330
43D3
 90
        8
 62
     1
370
    13
331
2843
  1
Color_1
330
B442
 90
        8
 62
     7
370
    -3
331
14
  1
Color_7
330
B443
 90
        8
 62
     7
370
    -3
331
14
  1
Color_7
330
0
 90
        8
 62
     7
370
    -3
331
14
  1
Color_7
330
0
 90
        8
 62
     7
370
    -3
331
14
  1
Color_7
  0
XRECORD
  5
28309
102
{ACAD_REACTORS
330
B19C
102
}
330
B19C
100
AcDbXrecord
280
     1
 91
     1023
301

290
     0
302
寸法
330
E
 90
        8
 62
     7
370
    -3
331
14
  1
Color_7
330
0
 90
        9
 62
     1
370
    -3
331
14
  1
Color_1
330
0
 90
        8
 62
     7
370
    -3
331
14
  1
Color_7
330
0
 90
        8
 62
     7
370
    -3
331
14
  1
Color_7
330
0
 90
        0
 62
     7
370
    -3
331
14
  1
Color_7
330
A19
 90
        8
 62
     3
370
    30
331
14
  1
Color_3
330
C05
 90
        8
 62
     4
370
    13
331
14
  1
Color_4
330
0
 90
        8
 62
    40
370
    30
331
14
  1
Color_40
330
43CD
 90
        8
 62
     3
370
    30
331
14
  1
Color_3
330
43CE
 90
        8
 62
     8
370
    13
331
2844
  1
Color_8
330
43D0
 90
        8
 62
     7
370
    13
331
14
  1
Color_7
330
43D1
 90
        8
 62
   252
370
    13
331
2844
  1
Color_252
330
43D2
 90
        8
 62
    31
370
    30
331
14
  1
Color_31
330
43D3
 90
        8
 62
     1
370
    13
331
2843
  1
Color_1
330
B442
 90
        8
 62
     7
370
    -3
331
14
  1
Color_7
330
B443
 90
        8
 62
     7
370
    -3
331
14
  1
Color_7
330
0
 90
        8
 62
     7
370
    -3
331
14
  1
Color_7
330
0
 90
        8
 62
     7
370
    -3
331
14
  1
Color_7
  0
XRECORD
  5
28443
102
{ACAD_REACTORS
330
B19C
102
}
330
B19C
100
AcDbXrecord
280
     1
 91
     1023
301

290
     0
302
寸法
330
E
 90
        8
 62
     7
370
    -3
331
14
  1
Color_7
330
0
 90
        8
 62
     1
370
    -3
331
14
  1
Color_1
330
0
 90
        8
 62
     7
370
    -3
331
14
  1
Color_7
330
0
 90
        9
 62
     7
370
    -3
331
14
  1
Color_7
330
0
 90
        0
 62
     7
370
    -3
331
14
  1
Color_7
330
A19
 90
        8
 62
     3
370
    30
331
14
  1
Color_3
330
C05
 90
        8
 62
     4
370
    13
331
14
  1
Color_4
330
0
 90
        8
 62
    40
370
    15
331
14
  1
Color_40
330
43CD
 90
        8
 62
     3
370
    30
331
14
  1
Color_3
330
43CE
 90
        8
 62
     8
370
    13
331
2844
  1
Color_8
330
43D0
 90
        8
 62
     7
370
    13
331
14
  1
Color_7
330
43D1
 90
        8
 62
   252
370
    13
331
2844
  1
Color_252
330
43D2
 90
        8
 62
    31
370
    30
331
14
  1
Color_31
330
43D3
 90
        8
 62
     1
370
    13
331
2843
  1
Color_1
330
B442
 90
        8
 62
     7
370
    -3
331
14
  1
Color_7
330
B443
 90
        9
 62
     7
370
    -3
331
14
  1
Color_7
330
0
 90
        8
 62
     7
370
    -3
331
14
  1
Color_7
330
0
 90
        8
 62
     7
370
    -3
331
14
  1
Color_7
  0
XRECORD
  5
28444
102
{ACAD_REACTORS
330
B19C
102
}
330
B19C
100
AcDbXrecord
280
     1
 91
     1023
301

290
     0
302
寸法
330
E
 90
        8
 62
     7
370
    -3
331
14
  1
Color_7
330
0
 90
        9
 62
     1
370
    -3
331
14
  1
Color_1
330
0
 90
        8
 62
     7
370
    -3
331
14
  1
Color_7
330
0
 90
        9
 62
     7
370
    -3
331
14
  1
Color_7
330
0
 90
        0
 62
     7
370
    -3
331
14
  1
Color_7
330
A19
 90
        8
 62
     3
370
    30
331
14
  1
Color_3
330
C05
 90
        8
 62
     4
370
    13
331
14
  1
Color_4
330
0
 90
        8
 62
    40
370
    15
331
14
  1
Color_40
330
43CD
 90
        8
 62
     3
370
    30
331
14
  1
Color_3
330
43CE
 90
        8
 62
     8
370
    13
331
2844
  1
Color_8
330
43D0
 90
        8
 62
     7
370
    13
331
14
  1
Color_7
330
43D1
 90
        8
 62
   252
370
    13
331
2844
  1
Color_252
330
43D2
 90
        8
 62
    31
370
    30
331
14
  1
Color_31
330
43D3
 90
        8
 62
     1
370
    13
331
2843
  1
Color_1
330
B442
 90
        8
 62
     7
370
    -3
331
14
  1
Color_7
330
B443
 90
        9
 62
     7
370
    -3
331
14
  1
Color_7
330
0
 90
        8
 62
     7
370
    -3
331
14
  1
Color_7
330
0
 90
        8
 62
     7
370
    -3
331
14
  1
Color_7
  0
XRECORD
  5
28445
102
{ACAD_REACTORS
330
B19C
102
}
330
B19C
100
AcDbXrecord
280
     1
 91
     1023
301

290
     0
302
寸法
330
E
 90
        8
 62
     7
370
    -3
331
14
  1
Color_7
330
0
 90
        9
 62
     1
370
    -3
331
14
  1
Color_1
330
0
 90
        8
 62
     7
370
    -3
331
14
  1
Color_7
330
0
 90
        9
 62
     7
370
    -3
331
14
  1
Color_7
330
0
 90
        0
 62
     7
370
    -3
331
14
  1
Color_7
330
A19
 90
        8
 62
     3
370
    30
331
14
  1
Color_3
330
C05
 90
        8
 62
     4
370
    13
331
14
  1
Color_4
330
0
 90
        8
 62
    40
370
    15
331
14
  1
Color_40
330
43CD
 90
        8
 62
     3
370
    30
331
14
  1
Color_3
330
43CE
 90
        8
 62
     8
370
    13
331
2844
  1
Color_8
330
43D0
 90
        8
 62
     7
370
    13
331
14
  1
Color_7
330
43D1
 90
        8
 62
   252
370
    13
331
2844
  1
Color_252
330
43D2
 90
        8
 62
    31
370
    30
331
14
  1
Color_31
330
43D3
 90
        8
 62
     1
370
    13
331
2843
  1
Color_1
330
B442
 90
        8
 62
     7
370
    -3
331
14
  1
Color_7
330
B443
 90
        9
 62
     7
370
    -3
331
14
  1
Color_7
330
0
 90
        8
 62
     7
370
    -3
331
14
  1
Color_7
330
0
 90
        9
 62
     7
370
    -3
331
14
  1
Color_7
  0
XRECORD
  5
28446
102
{ACAD_REACTORS
330
B19C
102
}
330
B19C
100
AcDbXrecord
280
     1
 91
     1023
301

290
     0
302
寸法
330
E
 90
        8
 62
     7
370
    -3
331
14
  1
Color_7
330
0
 90
        9
 62
     1
370
    -3
331
14
  1
Color_1
330
0
 90
        8
 62
     7
370
    -3
331
14
  1
Color_7
330
0
 90
        9
 62
     7
370
    -3
331
14
  1
Color_7
330
0
 90
        1
 62
     7
370
    -3
331
14
  1
Color_7
330
A19
 90
        8
 62
     3
370
    30
331
14
  1
Color_3
330
C05
 90
        8
 62
     4
370
    13
331
14
  1
Color_4
330
0
 90
        8
 62
    40
370
    15
331
14
  1
Color_40
330
43CD
 90
        8
 62
     3
370
    30
331
14
  1
Color_3
330
43CE
 90
        8
 62
     8
370
    13
331
2844
  1
Color_8
330
43D0
 90
        8
 62
     7
370
    13
331
14
  1
Color_7
330
43D1
 90
        8
 62
   252
370
    13
331
2844
  1
Color_252
330
43D2
 90
        8
 62
    31
370
    30
331
14
  1
Color_31
330
43D3
 90
        8
 62
     1
370
    13
331
2843
  1
Color_1
330
B442
 90
        8
 62
     7
370
    -3
331
14
  1
Color_7
330
B443
 90
        9
 62
     7
370
    -3
331
14
  1
Color_7
330
0
 90
        8
 62
     7
370
    -3
331
14
  1
Color_7
330
0
 90
        9
 62
     7
370
    -3
331
14
  1
Color_7
  0
XRECORD
  5
28447
102
{ACAD_REACTORS
330
B19C
102
}
330
B19C
100
AcDbXrecord
280
     1
 91
     1023
301

290
     0
302
寸法
330
E
 90
        8
 62
     7
370
    -3
331
14
  1
Color_7
330
0
 90
        9
 62
     1
370
    -3
331
14
  1
Color_1
330
0
 90
        8
 62
     7
370
    -3
331
14
  1
Color_7
330
0
 90
        9
 62
     7
370
    -3
331
14
  1
Color_7
330
0
 90
        1
 62
     7
370
    -3
331
14
  1
Color_7
330
A19
 90
        8
 62
     3
370
    30
331
14
  1
Color_3
330
C05
 90
        8
 62
     4
370
    13
331
14
  1
Color_4
330
0
 90
        8
 62
    40
370
    15
331
14
  1
Color_40
330
43CD
 90
        8
 62
     3
370
    30
331
14
  1
Color_3
330
43CE
 90
        8
 62
     8
370
    13
331
2844
  1
Color_8
330
43D0
 90
        8
 62
     7
370
    13
331
14
  1
Color_7
330
43D1
 90
        8
 62
   252
370
    13
331
2844
  1
Color_252
330
43D2
 90
        8
 62
    31
370
    30
331
14
  1
Color_31
330
43D3
 90
        8
 62
     1
370
    13
331
2843
  1
Color_1
330
B442
 90
        8
 62
     7
370
    -3
331
14
  1
Color_7
330
B443
 90
        9
 62
     7
370
    -3
331
14
  1
Color_7
330
0
 90
        9
 62
     7
370
    -3
331
14
  1
Color_7
330
0
 90
        9
 62
     7
370
    -3
331
14
  1
Color_7
  0
XRECORD
  5
28448
102
{ACAD_REACTORS
330
B19C
102
}
330
B19C
100
AcDbXrecord
280
     1
 91
     1023
301

290
     0
302
寸法
330
E
 90
        8
 62
     7
370
    -3
331
14
  1
Color_7
330
0
 90
        9
 62
     1
370
    -3
331
14
  1
Color_1
330
0
 90
        8
 62
     7
370
    -3
331
14
  1
Color_7
330
0
 90
        9
 62
     7
370
    -3
331
14
  1
Color_7
330
0
 90
        1
 62
     7
370
    -3
331
14
  1
Color_7
330
A19
 90
        8
 62
     3
370
    30
331
14
  1
Color_3
330
C05
 90
        8
 62
     4
370
    13
331
14
  1
Color_4
330
0
 90
        8
 62
    40
370
    15
331
14
  1
Color_40
330
43CD
 90
        8
 62
     3
370
    30
331
14
  1
Color_3
330
43CE
 90
        8
 62
     8
370
    13
331
2844
  1
Color_8
330
43D0
 90
        8
 62
     7
370
    13
331
14
  1
Color_7
330
43D1
 90
        8
 62
   252
370
    13
331
2844
  1
Color_252
330
43D2
 90
        8
 62
    31
370
    30
331
14
  1
Color_31
330
43D3
 90
        9
 62
     1
370
    13
331
2843
  1
Color_1
330
B442
 90
        8
 62
     7
370
    -3
331
14
  1
Color_7
330
B443
 90
        9
 62
     7
370
    -3
331
14
  1
Color_7
330
0
 90
        9
 62
     7
370
    -3
331
14
  1
Color_7
330
0
 90
        9
 62
     7
370
    -3
331
14
  1
Color_7
  0
XRECORD
  5
28449
102
{ACAD_REACTORS
330
B19C
102
}
330
B19C
100
AcDbXrecord
280
     1
 91
     1023
301

290
     0
302
寸法
330
E
 90
        8
 62
     7
370
    -3
331
14
  1
Color_7
330
0
 90
        9
 62
     1
370
    -3
331
14
  1
Color_1
330
0
 90
        8
 62
     7
370
    -3
331
14
  1
Color_7
330
0
 90
        9
 62
     7
370
    -3
331
14
  1
Color_7
330
0
 90
        1
 62
     7
370
    -3
331
14
  1
Color_7
330
A19
 90
        8
 62
     3
370
    30
331
14
  1
Color_3
330
C05
 90
        8
 62
     4
370
    13
331
14
  1
Color_4
330
0
 90
        8
 62
    40
370
    15
331
14
  1
Color_40
330
43CD
 90
        8
 62
     3
370
    30
331
14
  1
Color_3
330
43CE
 90
        8
 62
     8
370
    13
331
2844
  1
Color_8
330
43D0
 90
        8
 62
     7
370
    13
331
14
  1
Color_7
330
43D1
 90
        8
 62
   252
370
    13
331
2844
  1
Color_252
330
43D2
 90
        9
 62
    31
370
    30
331
14
  1
Color_31
330
43D3
 90
        9
 62
     1
370
    13
331
2843
  1
Color_1
330
B442
 90
        8
 62
     7
370
    -3
331
14
  1
Color_7
330
B443
 90
        9
 62
     7
370
    -3
331
14
  1
Color_7
330
0
 90
        9
 62
     7
370
    -3
331
14
  1
Color_7
330
0
 90
        9
 62
     7
370
    -3
331
14
  1
Color_7
  0
XRECORD
  5
2844A
102
{ACAD_REACTORS
330
B19C
102
}
330
B19C
100
AcDbXrecord
280
     1
 91
     1023
301

290
     0
302
寸法
330
E
 90
        8
 62
     7
370
    -3
331
14
  1
Color_7
330
0
 90
        9
 62
     1
370
    -3
331
14
  1
Color_1
330
0
 90
        8
 62
     7
370
    -3
331
14
  1
Color_7
330
0
 90
        9
 62
     7
370
    -3
331
14
  1
Color_7
330
0
 90
        1
 62
     7
370
    -3
331
14
  1
Color_7
330
A19
 90
        8
 62
     3
370
    30
331
14
  1
Color_3
330
C05
 90
        8
 62
     4
370
    13
331
14
  1
Color_4
330
0
 90
        8
 62
    40
370
    15
331
14
  1
Color_40
330
43CD
 90
        8
 62
     3
370
    30
331
14
  1
Color_3
330
43CE
 90
        8
 62
     8
370
    13
331
2844
  1
Color_8
330
43D0
 90
        8
 62
     7
370
    13
331
14
  1
Color_7
330
43D1
 90
        8
 62
   252
370
    13
331
2844
  1
Color_252
330
43D2
 90
        9
 62
    31
370
    30
331
14
  1
Color_31
330
43D3
 90
        9
 62
     1
370
    13
331
2843
  1
Color_1
330
B442
 90
        9
 62
     7
370
    -3
331
14
  1
Color_7
330
B443
 90
        9
 62
     7
370
    -3
331
14
  1
Color_7
330
0
 90
        9
 62
     7
370
    -3
331
14
  1
Color_7
330
0
 90
        9
 62
     7
370
    -3
331
14
  1
Color_7
  0
XRECORD
  5
2844B
102
{ACAD_REACTORS
330
B19C
102
}
330
B19C
100
AcDbXrecord
280
     1
 91
     1023
301

290
     0
302
寸法
330
E
 90
        9
 62
     7
370
    -3
331
14
  1
Color_7
330
0
 90
        9
 62
     1
370
    -3
331
14
  1
Color_1
330
0
 90
        8
 62
     7
370
    -3
331
14
  1
Color_7
330
0
 90
        9
 62
     7
370
    -3
331
14
  1
Color_7
330
0
 90
        1
 62
     7
370
    -3
331
14
  1
Color_7
330
A19
 90
        8
 62
     3
370
    30
331
14
  1
Color_3
330
C05
 90
        8
 62
     4
370
    13
331
14
  1
Color_4
330
0
 90
        8
 62
    40
370
    15
331
14
  1
Color_40
330
43CD
 90
        8
 62
     3
370
    30
331
14
  1
Color_3
330
43CE
 90
        8
 62
     8
370
    13
331
2844
  1
Color_8
330
43D0
 90
        8
 62
     7
370
    13
331
14
  1
Color_7
330
43D1
 90
        8
 62
   252
370
    13
331
2844
  1
Color_252
330
43D2
 90
        9
 62
    31
370
    30
331
14
  1
Color_31
330
43D3
 90
        9
 62
     1
370
    13
331
2843
  1
Color_1
330
B442
 90
        9
 62
     7
370
    -3
331
14
  1
Color_7
330
B443
 90
        9
 62
     7
370
    -3
331
14
  1
Color_7
330
0
 90
        9
 62
     7
370
    -3
331
14
  1
Color_7
330
0
 90
        9
 62
     7
370
    -3
331
14
  1
Color_7
  0
XRECORD
  5
2844C
102
{ACAD_REACTORS
330
B19C
102
}
330
B19C
100
AcDbXrecord
280
     1
 91
     1023
301

290
     0
302
寸法
330
E
 90
        9
 62
     7
370
    -3
331
14
  1
Color_7
330
0
 90
        9
 62
     1
370
    -3
331
14
  1
Color_1
330
0
 90
        8
 62
     7
370
    -3
331
14
  1
Color_7
330
0
 90
        9
 62
     7
370
    -3
331
14
  1
Color_7
330
0
 90
        1
 62
     7
370
    -3
331
14
  1
Color_7
330
A19
 90
        9
 62
     3
370
    30
331
14
  1
Color_3
330
C05
 90
        8
 62
     4
370
    13
331
14
  1
Color_4
330
0
 90
        8
 62
    40
370
    15
331
14
  1
Color_40
330
43CD
 90
        8
 62
     3
370
    30
331
14
  1
Color_3
330
43CE
 90
        8
 62
     8
370
    13
331
2844
  1
Color_8
330
43D0
 90
        8
 62
     7
370
    13
331
14
  1
Color_7
330
43D1
 90
        8
 62
   252
370
    13
331
2844
  1
Color_252
330
43D2
 90
        9
 62
    31
370
    30
331
14
  1
Color_31
330
43D3
 90
        9
 62
     1
370
    13
331
2843
  1
Color_1
330
B442
 90
        9
 62
     7
370
    -3
331
14
  1
Color_7
330
B443
 90
        9
 62
     7
370
    -3
331
14
  1
Color_7
330
0
 90
        9
 62
     7
370
    -3
331
14
  1
Color_7
330
0
 90
        9
 62
     7
370
    -3
331
14
  1
Color_7
  0
XRECORD
  5
2830A
102
{ACAD_REACTORS
330
B19C
102
}
330
B19C
100
AcDbXrecord
280
     1
 91
     1023
301

290
     0
302
寸法
330
E
 90
        8
 62
     7
370
    -3
331
14
  1
Color_7
330
0
 90
        9
 62
     1
370
    -3
331
14
  1
Color_1
330
0
 90
        9
 62
     7
370
    -3
331
14
  1
Color_7
330
0
 90
        8
 62
     7
370
    -3
331
14
  1
Color_7
330
0
 90
        0
 62
     7
370
    -3
331
14
  1
Color_7
330
A19
 90
        8
 62
     3
370
    30
331
14
  1
Color_3
330
C05
 90
        8
 62
     4
370
    13
331
14
  1
Color_4
330
0
 90
        8
 62
    40
370
    30
331
14
  1
Color_40
330
43CD
 90
        8
 62
     3
370
    30
331
14
  1
Color_3
330
43CE
 90
        8
 62
     8
370
    13
331
2844
  1
Color_8
330
43D0
 90
        8
 62
     7
370
    13
331
14
  1
Color_7
330
43D1
 90
        8
 62
   252
370
    13
331
2844
  1
Color_252
330
43D2
 90
        8
 62
    31
370
    30
331
14
  1
Color_31
330
43D3
 90
        8
 62
     1
370
    13
331
2843
  1
Color_1
330
B442
 90
        8
 62
     7
370
    -3
331
14
  1
Color_7
330
B443
 90
        8
 62
     7
370
    -3
331
14
  1
Color_7
330
0
 90
        8
 62
     7
370
    -3
331
14
  1
Color_7
330
0
 90
        8
 62
     7
370
    -3
331
14
  1
Color_7
  0
XRECORD
  5
2844D
102
{ACAD_REACTORS
330
B19C
102
}
330
B19C
100
AcDbXrecord
280
     1
 91
     1023
301

290
     0
302
寸法
330
E
 90
        9
 62
     7
370
    -3
331
14
  1
Color_7
330
0
 90
        9
 62
     1
370
    -3
331
14
  1
Color_1
330
0
 90
        8
 62
     7
370
    -3
331
14
  1
Color_7
330
0
 90
        9
 62
     7
370
    -3
331
14
  1
Color_7
330
0
 90
        1
 62
     7
370
    -3
331
14
  1
Color_7
330
A19
 90
        9
 62
     3
370
    30
331
14
  1
Color_3
330
C05
 90
        8
 62
     4
370
    13
331
14
  1
Color_4
330
0
 90
        8
 62
    40
370
    15
331
14
  1
Color_40
330
43CD
 90
        9
 62
     3
370
    30
331
14
  1
Color_3
330
43CE
 90
        8
 62
     8
370
    13
331
2844
  1
Color_8
330
43D0
 90
        8
 62
     7
370
    13
331
14
  1
Color_7
330
43D1
 90
        8
 62
   252
370
    13
331
2844
  1
Color_252
330
43D2
 90
        9
 62
    31
370
    30
331
14
  1
Color_31
330
43D3
 90
        9
 62
     1
370
    13
331
2843
  1
Color_1
330
B442
 90
        9
 62
     7
370
    -3
331
14
  1
Color_7
330
B443
 90
        9
 62
     7
370
    -3
331
14
  1
Color_7
330
0
 90
        9
 62
     7
370
    -3
331
14
  1
Color_7
330
0
 90
        9
 62
     7
370
    -3
331
14
  1
Color_7
  0
XRECORD
  5
2844E
102
{ACAD_REACTORS
330
B19C
102
}
330
B19C
100
AcDbXrecord
280
     1
 91
     1023
301

290
     0
302
寸法
330
E
 90
        9
 62
     7
370
    -3
331
14
  1
Color_7
330
0
 90
        9
 62
     1
370
    -3
331
14
  1
Color_1
330
0
 90
        8
 62
     7
370
    -3
331
14
  1
Color_7
330
0
 90
        9
 62
     7
370
    -3
331
14
  1
Color_7
330
0
 90
        1
 62
     7
370
    -3
331
14
  1
Color_7
330
A19
 90
        9
 62
     3
370
    30
331
14
  1
Color_3
330
C05
 90
        9
 62
     4
370
    13
331
14
  1
Color_4
330
0
 90
        8
 62
    40
370
    15
331
14
  1
Color_40
330
43CD
 90
        9
 62
     3
370
    30
331
14
  1
Color_3
330
43CE
 90
        8
 62
     8
370
    13
331
2844
  1
Color_8
330
43D0
 90
        8
 62
     7
370
    13
331
14
  1
Color_7
330
43D1
 90
        8
 62
   252
370
    13
331
2844
  1
Color_252
330
43D2
 90
        9
 62
    31
370
    30
331
14
  1
Color_31
330
43D3
 90
        9
 62
     1
370
    13
331
2843
  1
Color_1
330
B442
 90
        9
 62
     7
370
    -3
331
14
  1
Color_7
330
B443
 90
        9
 62
     7
370
    -3
331
14
  1
Color_7
330
0
 90
        9
 62
     7
370
    -3
331
14
  1
Color_7
330
0
 90
        9
 62
     7
370
    -3
331
14
  1
Color_7
  0
XRECORD
  5
2844F
102
{ACAD_REACTORS
330
B19C
102
}
330
B19C
100
AcDbXrecord
280
     1
 91
     1023
301

290
     0
302
寸法
330
E
 90
        9
 62
     7
370
    -3
331
14
  1
Color_7
330
0
 90
        9
 62
     1
370
    -3
331
14
  1
Color_1
330
0
 90
        8
 62
     7
370
    -3
331
14
  1
Color_7
330
0
 90
        9
 62
     7
370
    -3
331
14
  1
Color_7
330
0
 90
        1
 62
     7
370
    -3
331
14
  1
Color_7
330
A19
 90
        9
 62
     3
370
    30
331
14
  1
Color_3
330
C05
 90
        9
 62
     4
370
    13
331
14
  1
Color_4
330
0
 90
        9
 62
    40
370
    15
331
14
  1
Color_40
330
43CD
 90
        9
 62
     3
370
    30
331
14
  1
Color_3
330
43CE
 90
        8
 62
     8
370
    13
331
2844
  1
Color_8
330
43D0
 90
        8
 62
     7
370
    13
331
14
  1
Color_7
330
43D1
 90
        8
 62
   252
370
    13
331
2844
  1
Color_252
330
43D2
 90
        9
 62
    31
370
    30
331
14
  1
Color_31
330
43D3
 90
        9
 62
     1
370
    13
331
2843
  1
Color_1
330
B442
 90
        9
 62
     7
370
    -3
331
14
  1
Color_7
330
B443
 90
        9
 62
     7
370
    -3
331
14
  1
Color_7
330
0
 90
        9
 62
     7
370
    -3
331
14
  1
Color_7
330
0
 90
        9
 62
     7
370
    -3
331
14
  1
Color_7
  0
XRECORD
  5
28450
102
{ACAD_REACTORS
330
B19C
102
}
330
B19C
100
AcDbXrecord
280
     1
 91
     1023
301

290
     0
302
寸法
330
E
 90
        9
 62
     7
370
    -3
331
14
  1
Color_7
330
0
 90
        9
 62
     1
370
    -3
331
14
  1
Color_1
330
0
 90
        8
 62
     7
370
    -3
331
14
  1
Color_7
330
0
 90
        9
 62
     7
370
    -3
331
14
  1
Color_7
330
0
 90
        1
 62
     7
370
    -3
331
14
  1
Color_7
330
A19
 90
        9
 62
     3
370
    30
331
14
  1
Color_3
330
C05
 90
        9
 62
     4
370
    13
331
14
  1
Color_4
330
0
 90
        9
 62
    40
370
    15
331
14
  1
Color_40
330
43CD
 90
        9
 62
     3
370
    30
331
14
  1
Color_3
330
43CE
 90
        9
 62
     8
370
    13
331
2844
  1
Color_8
330
43D0
 90
        8
 62
     7
370
    13
331
14
  1
Color_7
330
43D1
 90
        8
 62
   252
370
    13
331
2844
  1
Color_252
330
43D2
 90
        9
 62
    31
370
    30
331
14
  1
Color_31
330
43D3
 90
        9
 62
     1
370
    13
331
2843
  1
Color_1
330
B442
 90
        9
 62
     7
370
    -3
331
14
  1
Color_7
330
B443
 90
        9
 62
     7
370
    -3
331
14
  1
Color_7
330
0
 90
        9
 62
     7
370
    -3
331
14
  1
Color_7
330
0
 90
        9
 62
     7
370
    -3
331
14
  1
Color_7
  0
XRECORD
  5
28451
102
{ACAD_REACTORS
330
B19C
102
}
330
B19C
100
AcDbXrecord
280
     1
 91
     1023
301

290
     0
302
寸法
330
E
 90
        9
 62
     7
370
    -3
331
14
  1
Color_7
330
0
 90
        9
 62
     1
370
    -3
331
14
  1
Color_1
330
0
 90
        8
 62
     7
370
    -3
331
14
  1
Color_7
330
0
 90
        9
 62
     7
370
    -3
331
14
  1
Color_7
330
0
 90
        1
 62
     7
370
    -3
331
14
  1
Color_7
330
A19
 90
        9
 62
     3
370
    30
331
14
  1
Color_3
330
C05
 90
        9
 62
     4
370
    13
331
14
  1
Color_4
330
0
 90
        9
 62
    40
370
    15
331
14
  1
Color_40
330
43CD
 90
        9
 62
     3
370
    30
331
14
  1
Color_3
330
43CE
 90
        9
 62
     8
370
    13
331
2844
  1
Color_8
330
43D0
 90
        9
 62
     7
370
    13
331
14
  1
Color_7
330
43D1
 90
        8
 62
   252
370
    13
331
2844
  1
Color_252
330
43D2
 90
        9
 62
    31
370
    30
331
14
  1
Color_31
330
43D3
 90
        9
 62
     1
370
    13
331
2843
  1
Color_1
330
B442
 90
        9
 62
     7
370
    -3
331
14
  1
Color_7
330
B443
 90
        9
 62
     7
370
    -3
331
14
  1
Color_7
330
0
 90
        9
 62
     7
370
    -3
331
14
  1
Color_7
330
0
 90
        9
 62
     7
370
    -3
331
14
  1
Color_7
  0
XRECORD
  5
28452
102
{ACAD_REACTORS
330
B19C
102
}
330
B19C
100
AcDbXrecord
280
     1
 91
     1023
301

290
     0
302
寸法
330
E
 90
        9
 62
     7
370
    -3
331
14
  1
Color_7
330
0
 90
        9
 62
     1
370
    -3
331
14
  1
Color_1
330
0
 90
        8
 62
     7
370
    -3
331
14
  1
Color_7
330
0
 90
        9
 62
     7
370
    -3
331
14
  1
Color_7
330
0
 90
        1
 62
     7
370
    -3
331
14
  1
Color_7
330
A19
 90
        9
 62
     3
370
    30
331
14
  1
Color_3
330
C05
 90
        9
 62
     4
370
    13
331
14
  1
Color_4
330
0
 90
        9
 62
    40
370
    15
331
14
  1
Color_40
330
43CD
 90
        9
 62
     3
370
    30
331
14
  1
Color_3
330
43CE
 90
        9
 62
     8
370
    13
331
2844
  1
Color_8
330
43D0
 90
        9
 62
     7
370
    13
331
14
  1
Color_7
330
43D1
 90
        9
 62
   252
370
    13
331
2844
  1
Color_252
330
43D2
 90
        9
 62
    31
370
    30
331
14
  1
Color_31
330
43D3
 90
        9
 62
     1
370
    13
331
2843
  1
Color_1
330
B442
 90
        9
 62
     7
370
    -3
331
14
  1
Color_7
330
B443
 90
        9
 62
     7
370
    -3
331
14
  1
Color_7
330
0
 90
        9
 62
     7
370
    -3
331
14
  1
Color_7
330
0
 90
        9
 62
     7
370
    -3
331
14
  1
Color_7
  0
XRECORD
  5
28453
102
{ACAD_REACTORS
330
B19C
102
}
330
B19C
100
AcDbXrecord
280
     1
 91
     1023
301

290
     0
302
寸法
330
E
 90
        8
 62
     7
370
    -3
331
14
  1
Color_7
330
0
 90
        9
 62
     1
370
    -3
331
14
  1
Color_1
330
0
 90
        8
 62
     7
370
    -3
331
14
  1
Color_7
330
0
 90
        9
 62
     7
370
    -3
331
14
  1
Color_7
330
0
 90
        1
 62
     7
370
    -3
331
14
  1
Color_7
330
A19
 90
        9
 62
     3
370
    30
331
14
  1
Color_3
330
C05
 90
        9
 62
     4
370
    13
331
14
  1
Color_4
330
0
 90
        9
 62
    40
370
    15
331
14
  1
Color_40
330
43CD
 90
        9
 62
     3
370
    30
331
14
  1
Color_3
330
43CE
 90
        9
 62
     8
370
    13
331
2844
  1
Color_8
330
43D0
 90
        9
 62
     7
370
    13
331
14
  1
Color_7
330
43D1
 90
        9
 62
   252
370
    13
331
2844
  1
Color_252
330
43D2
 90
        9
 62
    31
370
    30
331
14
  1
Color_31
330
43D3
 90
        9
 62
     1
370
    13
331
2843
  1
Color_1
330
B442
 90
        9
 62
     7
370
    -3
331
14
  1
Color_7
330
B443
 90
        9
 62
     7
370
    -3
331
14
  1
Color_7
330
0
 90
        9
 62
     7
370
    -3
331
14
  1
Color_7
330
0
 90
        9
 62
     7
370
    -3
331
14
  1
Color_7
  0
XRECORD
  5
28454
102
{ACAD_REACTORS
330
B19C
102
}
330
B19C
100
AcDbXrecord
280
     1
 91
     1023
301

290
     0
302
寸法
330
E
 90
        8
 62
     7
370
    -3
331
14
  1
Color_7
330
0
 90
        9
 62
     1
370
    -3
331
14
  1
Color_1
330
0
 90
        8
 62
     7
370
    -3
331
14
  1
Color_7
330
0
 90
        9
 62
     7
370
    -3
331
14
  1
Color_7
330
0
 90
        1
 62
     7
370
    -3
331
14
  1
Color_7
330
A19
 90
        9
 62
     3
370
    30
331
14
  1
Color_3
330
C05
 90
        9
 62
     4
370
    13
331
14
  1
Color_4
330
0
 90
        9
 62
    40
370
    15
331
14
  1
Color_40
330
43CD
 90
        9
 62
     3
370
    30
331
14
  1
Color_3
330
43CE
 90
        9
 62
     8
370
    13
331
2844
  1
Color_8
330
43D0
 90
        9
 62
     7
370
    13
331
14
  1
Color_7
330
43D1
 90
        9
 62
   252
370
    13
331
2844
  1
Color_252
330
43D2
 90
        9
 62
    31
370
    30
331
14
  1
Color_31
330
43D3
 90
        9
 62
     1
370
    13
331
2843
  1
Color_1
330
B442
 90
        8
 62
     7
370
    -3
331
14
  1
Color_7
330
B443
 90
        9
 62
     7
370
    -3
331
14
  1
Color_7
330
0
 90
        9
 62
     7
370
    -3
331
14
  1
Color_7
330
0
 90
        9
 62
     7
370
    -3
331
14
  1
Color_7
  0
XRECORD
  5
28455
102
{ACAD_REACTORS
330
B19C
102
}
330
B19C
100
AcDbXrecord
280
     1
 91
     1023
301

290
     0
302
寸法
330
E
 90
        8
 62
     7
370
    -3
331
14
  1
Color_7
330
0
 90
        9
 62
     1
370
    -3
331
14
  1
Color_1
330
0
 90
        8
 62
     7
370
    -3
331
14
  1
Color_7
330
0
 90
        9
 62
     7
370
    -3
331
14
  1
Color_7
330
0
 90
        1
 62
     7
370
    -3
331
14
  1
Color_7
330
A19
 90
        9
 62
     3
370
    30
331
14
  1
Color_3
330
C05
 90
        9
 62
     4
370
    13
331
14
  1
Color_4
330
0
 90
        9
 62
    40
370
    15
331
14
  1
Color_40
330
43CD
 90
        9
 62
     3
370
    30
331
14
  1
Color_3
330
43CE
 90
        9
 62
     8
370
    13
331
2844
  1
Color_8
330
43D0
 90
        9
 62
     7
370
    13
331
14
  1
Color_7
330
43D1
 90
        9
 62
   252
370
    13
331
2844
  1
Color_252
330
43D2
 90
        8
 62
    31
370
    30
331
14
  1
Color_31
330
43D3
 90
        9
 62
     1
370
    13
331
2843
  1
Color_1
330
B442
 90
        8
 62
     7
370
    -3
331
14
  1
Color_7
330
B443
 90
        9
 62
     7
370
    -3
331
14
  1
Color_7
330
0
 90
        9
 62
     7
370
    -3
331
14
  1
Color_7
330
0
 90
        9
 62
     7
370
    -3
331
14
  1
Color_7
  0
XRECORD
  5
28456
102
{ACAD_REACTORS
330
B19C
102
}
330
B19C
100
AcDbXrecord
280
     1
 91
     1023
301

290
     0
302
寸法
330
E
 90
        8
 62
     7
370
    -3
331
14
  1
Color_7
330
0
 90
        9
 62
     1
370
    -3
331
14
  1
Color_1
330
0
 90
        8
 62
     7
370
    -3
331
14
  1
Color_7
330
0
 90
        9
 62
     7
370
    -3
331
14
  1
Color_7
330
0
 90
        1
 62
     7
370
    -3
331
14
  1
Color_7
330
A19
 90
        9
 62
     3
370
    30
331
14
  1
Color_3
330
C05
 90
        9
 62
     4
370
    13
331
14
  1
Color_4
330
0
 90
        9
 62
    40
370
    15
331
14
  1
Color_40
330
43CD
 90
        9
 62
     3
370
    30
331
14
  1
Color_3
330
43CE
 90
        9
 62
     8
370
    13
331
2844
  1
Color_8
330
43D0
 90
        9
 62
     7
370
    13
331
14
  1
Color_7
330
43D1
 90
        9
 62
   252
370
    13
331
2844
  1
Color_252
330
43D2
 90
        8
 62
    31
370
    30
331
14
  1
Color_31
330
43D3
 90
        8
 62
     1
370
    13
331
2843
  1
Color_1
330
B442
 90
        8
 62
     7
370
    -3
331
14
  1
Color_7
330
B443
 90
        9
 62
     7
370
    -3
331
14
  1
Color_7
330
0
 90
        9
 62
     7
370
    -3
331
14
  1
Color_7
330
0
 90
        9
 62
     7
370
    -3
331
14
  1
Color_7
  0
XRECORD
  5
2830B
102
{ACAD_REACTORS
330
B19C
102
}
330
B19C
100
AcDbXrecord
280
     1
 91
     1023
301

290
     0
302
寸法
330
E
 90
        8
 62
     7
370
    -3
331
14
  1
Color_7
330
0
 90
        9
 62
     1
370
    -3
331
14
  1
Color_1
330
0
 90
        8
 62
     7
370
    -3
331
14
  1
Color_7
330
0
 90
        8
 62
     7
370
    -3
331
14
  1
Color_7
330
0
 90
        0
 62
     7
370
    -3
331
14
  1
Color_7
330
A19
 90
        8
 62
     3
370
    30
331
14
  1
Color_3
330
C05
 90
        8
 62
     4
370
    13
331
14
  1
Color_4
330
0
 90
        8
 62
    40
370
    30
331
14
  1
Color_40
330
43CD
 90
        8
 62
     3
370
    30
331
14
  1
Color_3
330
43CE
 90
        8
 62
     8
370
    13
331
2844
  1
Color_8
330
43D0
 90
        8
 62
     7
370
    13
331
14
  1
Color_7
330
43D1
 90
        8
 62
   252
370
    13
331
2844
  1
Color_252
330
43D2
 90
        8
 62
    31
370
    30
331
14
  1
Color_31
330
43D3
 90
        8
 62
     1
370
    13
331
2843
  1
Color_1
330
B442
 90
        8
 62
     7
370
    -3
331
14
  1
Color_7
330
B443
 90
        8
 62
     7
370
    -3
331
14
  1
Color_7
330
0
 90
        8
 62
     7
370
    -3
331
14
  1
Color_7
330
0
 90
        8
 62
     7
370
    -3
331
14
  1
Color_7
  0
XRECORD
  5
28457
102
{ACAD_REACTORS
330
B19C
102
}
330
B19C
100
AcDbXrecord
280
     1
 91
     1023
301

290
     0
302
寸法
330
E
 90
        8
 62
     7
370
    -3
331
14
  1
Color_7
330
0
 90
        9
 62
     1
370
    -3
331
14
  1
Color_1
330
0
 90
        8
 62
     7
370
    -3
331
14
  1
Color_7
330
0
 90
        9
 62
     7
370
    -3
331
14
  1
Color_7
330
0
 90
        1
 62
     7
370
    -3
331
14
  1
Color_7
330
A19
 90
        9
 62
     3
370
    30
331
14
  1
Color_3
330
C05
 90
        9
 62
     4
370
    13
331
14
  1
Color_4
330
0
 90
        9
 62
    40
370
    15
331
14
  1
Color_40
330
43CD
 90
        9
 62
     3
370
    30
331
14
  1
Color_3
330
43CE
 90
        9
 62
     8
370
    13
331
2844
  1
Color_8
330
43D0
 90
        9
 62
     7
370
    13
331
14
  1
Color_7
330
43D1
 90
        9
 62
   252
370
    13
331
2844
  1
Color_252
330
43D2
 90
        8
 62
    31
370
    30
331
14
  1
Color_31
330
43D3
 90
        8
 62
     1
370
    13
331
2843
  1
Color_1
330
B442
 90
        8
 62
     7
370
    -3
331
14
  1
Color_7
330
B443
 90
        9
 62
     7
370
    -3
331
14
  1
Color_7
330
0
 90
        8
 62
     7
370
    -3
331
14
  1
Color_7
330
0
 90
        9
 62
     7
370
    -3
331
14
  1
Color_7
  0
XRECORD
  5
28458
102
{ACAD_REACTORS
330
B19C
102
}
330
B19C
100
AcDbXrecord
280
     1
 91
     1023
301

290
     0
302
寸法
330
E
 90
        8
 62
     7
370
    -3
331
14
  1
Color_7
330
0
 90
        9
 62
     1
370
    -3
331
14
  1
Color_1
330
0
 90
        8
 62
     7
370
    -3
331
14
  1
Color_7
330
0
 90
        9
 62
     7
370
    -3
331
14
  1
Color_7
330
0
 90
        0
 62
     7
370
    -3
331
14
  1
Color_7
330
A19
 90
        9
 62
     3
370
    30
331
14
  1
Color_3
330
C05
 90
        9
 62
     4
370
    13
331
14
  1
Color_4
330
0
 90
        9
 62
    40
370
    15
331
14
  1
Color_40
330
43CD
 90
        9
 62
     3
370
    30
331
14
  1
Color_3
330
43CE
 90
        9
 62
     8
370
    13
331
2844
  1
Color_8
330
43D0
 90
        9
 62
     7
370
    13
331
14
  1
Color_7
330
43D1
 90
        9
 62
   252
370
    13
331
2844
  1
Color_252
330
43D2
 90
        8
 62
    31
370
    30
331
14
  1
Color_31
330
43D3
 90
        8
 62
     1
370
    13
331
2843
  1
Color_1
330
B442
 90
        8
 62
     7
370
    -3
331
14
  1
Color_7
330
B443
 90
        9
 62
     7
370
    -3
331
14
  1
Color_7
330
0
 90
        8
 62
     7
370
    -3
331
14
  1
Color_7
330
0
 90
        9
 62
     7
370
    -3
331
14
  1
Color_7
  0
XRECORD
  5
28459
102
{ACAD_REACTORS
330
B19C
102
}
330
B19C
100
AcDbXrecord
280
     1
 91
     1023
301

290
     0
302
寸法
330
E
 90
        8
 62
     7
370
    -3
331
14
  1
Color_7
330
0
 90
        9
 62
     1
370
    -3
331
14
  1
Color_1
330
0
 90
        8
 62
     7
370
    -3
331
14
  1
Color_7
330
0
 90
        9
 62
     7
370
    -3
331
14
  1
Color_7
330
0
 90
        0
 62
     7
370
    -3
331
14
  1
Color_7
330
A19
 90
        9
 62
     3
370
    30
331
14
  1
Color_3
330
C05
 90
        9
 62
     4
370
    13
331
14
  1
Color_4
330
0
 90
        9
 62
    40
370
    15
331
14
  1
Color_40
330
43CD
 90
        9
 62
     3
370
    30
331
14
  1
Color_3
330
43CE
 90
        9
 62
     8
370
    13
331
2844
  1
Color_8
330
43D0
 90
        9
 62
     7
370
    13
331
14
  1
Color_7
330
43D1
 90
        9
 62
   252
370
    13
331
2844
  1
Color_252
330
43D2
 90
        8
 62
    31
370
    30
331
14
  1
Color_31
330
43D3
 90
        8
 62
     1
370
    13
331
2843
  1
Color_1
330
B442
 90
        8
 62
     7
370
    -3
331
14
  1
Color_7
330
B443
 90
        9
 62
     7
370
    -3
331
14
  1
Color_7
330
0
 90
        8
 62
     7
370
    -3
331
14
  1
Color_7
330
0
 90
        8
 62
     7
370
    -3
331
14
  1
Color_7
  0
XRECORD
  5
2845A
102
{ACAD_REACTORS
330
B19C
102
}
330
B19C
100
AcDbXrecord
280
     1
 91
     1023
301

290
     0
302
寸法
330
E
 90
        8
 62
     7
370
    -3
331
14
  1
Color_7
330
0
 90
        8
 62
     1
370
    -3
331
14
  1
Color_1
330
0
 90
        8
 62
     7
370
    -3
331
14
  1
Color_7
330
0
 90
        9
 62
     7
370
    -3
331
14
  1
Color_7
330
0
 90
        0
 62
     7
370
    -3
331
14
  1
Color_7
330
A19
 90
        9
 62
     3
370
    30
331
14
  1
Color_3
330
C05
 90
        9
 62
     4
370
    13
331
14
  1
Color_4
330
0
 90
        9
 62
    40
370
    15
331
14
  1
Color_40
330
43CD
 90
        9
 62
     3
370
    30
331
14
  1
Color_3
330
43CE
 90
        9
 62
     8
370
    13
331
2844
  1
Color_8
330
43D0
 90
        9
 62
     7
370
    13
331
14
  1
Color_7
330
43D1
 90
        9
 62
   252
370
    13
331
2844
  1
Color_252
330
43D2
 90
        8
 62
    31
370
    30
331
14
  1
Color_31
330
43D3
 90
        8
 62
     1
370
    13
331
2843
  1
Color_1
330
B442
 90
        8
 62
     7
370
    -3
331
14
  1
Color_7
330
B443
 90
        9
 62
     7
370
    -3
331
14
  1
Color_7
330
0
 90
        8
 62
     7
370
    -3
331
14
  1
Color_7
330
0
 90
        8
 62
     7
370
    -3
331
14
  1
Color_7
  0
XRECORD
  5
2845B
102
{ACAD_REACTORS
330
B19C
102
}
330
B19C
100
AcDbXrecord
280
     1
 91
     1023
301

290
     0
302
寸法
330
E
 90
        8
 62
     7
370
    -3
331
14
  1
Color_7
330
0
 90
        8
 62
     1
370
    -3
331
14
  1
Color_1
330
0
 90
        8
 62
     7
370
    -3
331
14
  1
Color_7
330
0
 90
        9
 62
     7
370
    -3
331
14
  1
Color_7
330
0
 90
        0
 62
     7
370
    -3
331
14
  1
Color_7
330
A19
 90
        9
 62
     3
370
    30
331
14
  1
Color_3
330
C05
 90
        9
 62
     4
370
    13
331
14
  1
Color_4
330
0
 90
        9
 62
    40
370
    15
331
14
  1
Color_40
330
43CD
 90
        9
 62
     3
370
    30
331
14
  1
Color_3
330
43CE
 90
        9
 62
     8
370
    13
331
2844
  1
Color_8
330
43D0
 90
        9
 62
     7
370
    13
331
14
  1
Color_7
330
43D1
 90
        9
 62
   252
370
    13
331
2844
  1
Color_252
330
43D2
 90
        8
 62
    31
370
    30
331
14
  1
Color_31
330
43D3
 90
        8
 62
     1
370
    13
331
2843
  1
Color_1
330
B442
 90
        8
 62
     7
370
    -3
331
14
  1
Color_7
330
B443
 90
        8
 62
     7
370
    -3
331
14
  1
Color_7
330
0
 90
        8
 62
     7
370
    -3
331
14
  1
Color_7
330
0
 90
        8
 62
     7
370
    -3
331
14
  1
Color_7
  0
XRECORD
  5
2845C
102
{ACAD_REACTORS
330
B19C
102
}
330
B19C
100
AcDbXrecord
280
     1
 91
     1023
301

290
     0
302
寸法
330
E
 90
        8
 62
     7
370
    -3
331
14
  1
Color_7
330
0
 90
        8
 62
     1
370
    -3
331
14
  1
Color_1
330
0
 90
        8
 62
     7
370
    -3
331
14
  1
Color_7
330
0
 90
        8
 62
     7
370
    -3
331
14
  1
Color_7
330
0
 90
        0
 62
     7
370
    -3
331
14
  1
Color_7
330
A19
 90
        9
 62
     3
370
    30
331
14
  1
Color_3
330
C05
 90
        9
 62
     4
370
    13
331
14
  1
Color_4
330
0
 90
        9
 62
    40
370
    15
331
14
  1
Color_40
330
43CD
 90
        9
 62
     3
370
    30
331
14
  1
Color_3
330
43CE
 90
        9
 62
     8
370
    13
331
2844
  1
Color_8
330
43D0
 90
        9
 62
     7
370
    13
331
14
  1
Color_7
330
43D1
 90
        9
 62
   252
370
    13
331
2844
  1
Color_252
330
43D2
 90
        8
 62
    31
370
    30
331
14
  1
Color_31
330
43D3
 90
        8
 62
     1
370
    13
331
2843
  1
Color_1
330
B442
 90
        8
 62
     7
370
    -3
331
14
  1
Color_7
330
B443
 90
        8
 62
     7
370
    -3
331
14
  1
Color_7
330
0
 90
        8
 62
     7
370
    -3
331
14
  1
Color_7
330
0
 90
        8
 62
     7
370
    -3
331
14
  1
Color_7
  0
XRECORD
  5
2845D
102
{ACAD_REACTORS
330
B19C
102
}
330
B19C
100
AcDbXrecord
280
     1
 91
     1023
301

290
     0
302
寸法
330
E
 90
        8
 62
     7
370
    -3
331
14
  1
Color_7
330
0
 90
        8
 62
     1
370
    -3
331
14
  1
Color_1
330
0
 90
        8
 62
     7
370
    -3
331
14
  1
Color_7
330
0
 90
        8
 62
     7
370
    -3
331
14
  1
Color_7
330
0
 90
        0
 62
     7
370
    -3
331
14
  1
Color_7
330
A19
 90
        8
 62
     3
370
    30
331
14
  1
Color_3
330
C05
 90
        9
 62
     4
370
    13
331
14
  1
Color_4
330
0
 90
        9
 62
    40
370
    15
331
14
  1
Color_40
330
43CD
 90
        9
 62
     3
370
    30
331
14
  1
Color_3
330
43CE
 90
        9
 62
     8
370
    13
331
2844
  1
Color_8
330
43D0
 90
        9
 62
     7
370
    13
331
14
  1
Color_7
330
43D1
 90
        9
 62
   252
370
    13
331
2844
  1
Color_252
330
43D2
 90
        8
 62
    31
370
    30
331
14
  1
Color_31
330
43D3
 90
        8
 62
     1
370
    13
331
2843
  1
Color_1
330
B442
 90
        8
 62
     7
370
    -3
331
14
  1
Color_7
330
B443
 90
        8
 62
     7
370
    -3
331
14
  1
Color_7
330
0
 90
        8
 62
     7
370
    -3
331
14
  1
Color_7
330
0
 90
        8
 62
     7
370
    -3
331
14
  1
Color_7
  0
XRECORD
  5
2845E
102
{ACAD_REACTORS
330
B19C
102
}
330
B19C
100
AcDbXrecord
280
     1
 91
     1023
301

290
     0
302
寸法
330
E
 90
        8
 62
     7
370
    -3
331
14
  1
Color_7
330
0
 90
        8
 62
     1
370
    -3
331
14
  1
Color_1
330
0
 90
        8
 62
     7
370
    -3
331
14
  1
Color_7
330
0
 90
        8
 62
     7
370
    -3
331
14
  1
Color_7
330
0
 90
        0
 62
     7
370
    -3
331
14
  1
Color_7
330
A19
 90
        8
 62
     3
370
    30
331
14
  1
Color_3
330
C05
 90
        9
 62
     4
370
    13
331
14
  1
Color_4
330
0
 90
        9
 62
    40
370
    15
331
14
  1
Color_40
330
43CD
 90
        8
 62
     3
370
    30
331
14
  1
Color_3
330
43CE
 90
        9
 62
     8
370
    13
331
2844
  1
Color_8
330
43D0
 90
        9
 62
     7
370
    13
331
14
  1
Color_7
330
43D1
 90
        9
 62
   252
370
    13
331
2844
  1
Color_252
330
43D2
 90
        8
 62
    31
370
    30
331
14
  1
Color_31
330
43D3
 90
        8
 62
     1
370
    13
331
2843
  1
Color_1
330
B442
 90
        8
 62
     7
370
    -3
331
14
  1
Color_7
330
B443
 90
        8
 62
     7
370
    -3
331
14
  1
Color_7
330
0
 90
        8
 62
     7
370
    -3
331
14
  1
Color_7
330
0
 90
        8
 62
     7
370
    -3
331
14
  1
Color_7
  0
XRECORD
  5
2845F
102
{ACAD_REACTORS
330
B19C
102
}
330
B19C
100
AcDbXrecord
280
     1
 91
     1023
301

290
     0
302
寸法
330
E
 90
        8
 62
     7
370
    -3
331
14
  1
Color_7
330
0
 90
        8
 62
     1
370
    -3
331
14
  1
Color_1
330
0
 90
        8
 62
     7
370
    -3
331
14
  1
Color_7
330
0
 90
        8
 62
     7
370
    -3
331
14
  1
Color_7
330
0
 90
        0
 62
     7
370
    -3
331
14
  1
Color_7
330
A19
 90
        8
 62
     3
370
    30
331
14
  1
Color_3
330
C05
 90
        8
 62
     4
370
    13
331
14
  1
Color_4
330
0
 90
        9
 62
    40
370
    15
331
14
  1
Color_40
330
43CD
 90
        8
 62
     3
370
    30
331
14
  1
Color_3
330
43CE
 90
        9
 62
     8
370
    13
331
2844
  1
Color_8
330
43D0
 90
        9
 62
     7
370
    13
331
14
  1
Color_7
330
43D1
 90
        9
 62
   252
370
    13
331
2844
  1
Color_252
330
43D2
 90
        8
 62
    31
370
    30
331
14
  1
Color_31
330
43D3
 90
        8
 62
     1
370
    13
331
2843
  1
Color_1
330
B442
 90
        8
 62
     7
370
    -3
331
14
  1
Color_7
330
B443
 90
        8
 62
     7
370
    -3
331
14
  1
Color_7
330
0
 90
        8
 62
     7
370
    -3
331
14
  1
Color_7
330
0
 90
        8
 62
     7
370
    -3
331
14
  1
Color_7
  0
XRECORD
  5
28460
102
{ACAD_REACTORS
330
B19C
102
}
330
B19C
100
AcDbXrecord
280
     1
 91
     1023
301

290
     0
302
寸法
330
E
 90
        8
 62
     7
370
    -3
331
14
  1
Color_7
330
0
 90
        8
 62
     1
370
    -3
331
14
  1
Color_1
330
0
 90
        8
 62
     7
370
    -3
331
14
  1
Color_7
330
0
 90
        8
 62
     7
370
    -3
331
14
  1
Color_7
330
0
 90
        0
 62
     7
370
    -3
331
14
  1
Color_7
330
A19
 90
        8
 62
     3
370
    30
331
14
  1
Color_3
330
C05
 90
        8
 62
     4
370
    13
331
14
  1
Color_4
330
0
 90
        8
 62
    40
370
    15
331
14
  1
Color_40
330
43CD
 90
        8
 62
     3
370
    30
331
14
  1
Color_3
330
43CE
 90
        9
 62
     8
370
    13
331
2844
  1
Color_8
330
43D0
 90
        9
 62
     7
370
    13
331
14
  1
Color_7
330
43D1
 90
        9
 62
   252
370
    13
331
2844
  1
Color_252
330
43D2
 90
        8
 62
    31
370
    30
331
14
  1
Color_31
330
43D3
 90
        8
 62
     1
370
    13
331
2843
  1
Color_1
330
B442
 90
        8
 62
     7
370
    -3
331
14
  1
Color_7
330
B443
 90
        8
 62
     7
370
    -3
331
14
  1
Color_7
330
0
 90
        8
 62
     7
370
    -3
331
14
  1
Color_7
330
0
 90
        8
 62
     7
370
    -3
331
14
  1
Color_7
  0
XRECORD
  5
2830C
102
{ACAD_REACTORS
330
B19C
102
}
330
B19C
100
AcDbXrecord
280
     1
 91
     1023
301

290
     0
302
寸法
330
E
 90
        8
 62
     7
370
    -3
331
14
  1
Color_7
330
0
 90
        9
 62
     1
370
    -3
331
14
  1
Color_1
330
0
 90
        8
 62
     7
370
    -3
331
14
  1
Color_7
330
0
 90
        9
 62
     7
370
    -3
331
14
  1
Color_7
330
0
 90
        0
 62
     7
370
    -3
331
14
  1
Color_7
330
A19
 90
        8
 62
     3
370
    30
331
14
  1
Color_3
330
C05
 90
        8
 62
     4
370
    13
331
14
  1
Color_4
330
0
 90
        8
 62
    40
370
    30
331
14
  1
Color_40
330
43CD
 90
        8
 62
     3
370
    30
331
14
  1
Color_3
330
43CE
 90
        8
 62
     8
370
    13
331
2844
  1
Color_8
330
43D0
 90
        8
 62
     7
370
    13
331
14
  1
Color_7
330
43D1
 90
        8
 62
   252
370
    13
331
2844
  1
Color_252
330
43D2
 90
        8
 62
    31
370
    30
331
14
  1
Color_31
330
43D3
 90
        8
 62
     1
370
    13
331
2843
  1
Color_1
330
B442
 90
        8
 62
     7
370
    -3
331
14
  1
Color_7
330
B443
 90
        8
 62
     7
370
    -3
331
14
  1
Color_7
330
0
 90
        8
 62
     7
370
    -3
331
14
  1
Color_7
330
0
 90
        8
 62
     7
370
    -3
331
14
  1
Color_7
  0
XRECORD
  5
28461
102
{ACAD_REACTORS
330
B19C
102
}
330
B19C
100
AcDbXrecord
280
     1
 91
     1023
301

290
     0
302
寸法
330
E
 90
        8
 62
     7
370
    -3
331
14
  1
Color_7
330
0
 90
        8
 62
     1
370
    -3
331
14
  1
Color_1
330
0
 90
        8
 62
     7
370
    -3
331
14
  1
Color_7
330
0
 90
        8
 62
     7
370
    -3
331
14
  1
Color_7
330
0
 90
        0
 62
     7
370
    -3
331
14
  1
Color_7
330
A19
 90
        8
 62
     3
370
    30
331
14
  1
Color_3
330
C05
 90
        8
 62
     4
370
    13
331
14
  1
Color_4
330
0
 90
        8
 62
    40
370
    15
331
14
  1
Color_40
330
43CD
 90
        8
 62
     3
370
    30
331
14
  1
Color_3
330
43CE
 90
        8
 62
     8
370
    13
331
2844
  1
Color_8
330
43D0
 90
        9
 62
     7
370
    13
331
14
  1
Color_7
330
43D1
 90
        9
 62
   252
370
    13
331
2844
  1
Color_252
330
43D2
 90
        8
 62
    31
370
    30
331
14
  1
Color_31
330
43D3
 90
        8
 62
     1
370
    13
331
2843
  1
Color_1
330
B442
 90
        8
 62
     7
370
    -3
331
14
  1
Color_7
330
B443
 90
        8
 62
     7
370
    -3
331
14
  1
Color_7
330
0
 90
        8
 62
     7
370
    -3
331
14
  1
Color_7
330
0
 90
        8
 62
     7
370
    -3
331
14
  1
Color_7
  0
XRECORD
  5
28462
102
{ACAD_REACTORS
330
B19C
102
}
330
B19C
100
AcDbXrecord
280
     1
 91
     1023
301

290
     0
302
寸法
330
E
 90
        8
 62
     7
370
    -3
331
14
  1
Color_7
330
0
 90
        8
 62
     1
370
    -3
331
14
  1
Color_1
330
0
 90
        8
 62
     7
370
    -3
331
14
  1
Color_7
330
0
 90
        8
 62
     7
370
    -3
331
14
  1
Color_7
330
0
 90
        0
 62
     7
370
    -3
331
14
  1
Color_7
330
A19
 90
        8
 62
     3
370
    30
331
14
  1
Color_3
330
C05
 90
        8
 62
     4
370
    13
331
14
  1
Color_4
330
0
 90
        8
 62
    40
370
    15
331
14
  1
Color_40
330
43CD
 90
        8
 62
     3
370
    30
331
14
  1
Color_3
330
43CE
 90
        8
 62
     8
370
    13
331
2844
  1
Color_8
330
43D0
 90
        8
 62
     7
370
    13
331
14
  1
Color_7
330
43D1
 90
        9
 62
   252
370
    13
331
2844
  1
Color_252
330
43D2
 90
        8
 62
    31
370
    30
331
14
  1
Color_31
330
43D3
 90
        8
 62
     1
370
    13
331
2843
  1
Color_1
330
B442
 90
        8
 62
     7
370
    -3
331
14
  1
Color_7
330
B443
 90
        8
 62
     7
370
    -3
331
14
  1
Color_7
330
0
 90
        8
 62
     7
370
    -3
331
14
  1
Color_7
330
0
 90
        8
 62
     7
370
    -3
331
14
  1
Color_7
  0
XRECORD
  5
28463
102
{ACAD_REACTORS
330
B19C
102
}
330
B19C
100
AcDbXrecord
280
     1
 91
     1023
301

290
     0
302
寸法
330
E
 90
        8
 62
     7
370
    -3
331
14
  1
Color_7
330
0
 90
        8
 62
     1
370
    -3
331
14
  1
Color_1
330
0
 90
        8
 62
     7
370
    -3
331
14
  1
Color_7
330
0
 90
        8
 62
     7
370
    -3
331
14
  1
Color_7
330
0
 90
        0
 62
     7
370
    -3
331
14
  1
Color_7
330
A19
 90
        8
 62
     3
370
    30
331
14
  1
Color_3
330
C05
 90
        8
 62
     4
370
    13
331
14
  1
Color_4
330
0
 90
        8
 62
    40
370
    15
331
14
  1
Color_40
330
43CD
 90
        8
 62
     3
370
    30
331
14
  1
Color_3
330
43CE
 90
        8
 62
     8
370
    13
331
2844
  1
Color_8
330
43D0
 90
        8
 62
     7
370
    13
331
14
  1
Color_7
330
43D1
 90
        8
 62
   252
370
    13
331
2844
  1
Color_252
330
43D2
 90
        8
 62
    31
370
    30
331
14
  1
Color_31
330
43D3
 90
        8
 62
     1
370
    13
331
2843
  1
Color_1
330
B442
 90
        8
 62
     7
370
    -3
331
14
  1
Color_7
330
B443
 90
        8
 62
     7
370
    -3
331
14
  1
Color_7
330
0
 90
        8
 62
     7
370
    -3
331
14
  1
Color_7
330
0
 90
        8
 62
     7
370
    -3
331
14
  1
Color_7
  0
XRECORD
  5
2830D
102
{ACAD_REACTORS
330
B19C
102
}
330
B19C
100
AcDbXrecord
280
     1
 91
     1023
301

290
     0
302
寸法
330
E
 90
        8
 62
     7
370
    -3
331
14
  1
Color_7
330
0
 90
        9
 62
     1
370
    -3
331
14
  1
Color_1
330
0
 90
        8
 62
     7
370
    -3
331
14
  1
Color_7
330
0
 90
        8
 62
     7
370
    -3
331
14
  1
Color_7
330
0
 90
        0
 62
     7
370
    -3
331
14
  1
Color_7
330
A19
 90
        8
 62
     3
370
    30
331
14
  1
Color_3
330
C05
 90
        8
 62
     4
370
    13
331
14
  1
Color_4
330
0
 90
        8
 62
    40
370
    30
331
14
  1
Color_40
330
43CD
 90
        8
 62
     3
370
    30
331
14
  1
Color_3
330
43CE
 90
        8
 62
     8
370
    13
331
2844
  1
Color_8
330
43D0
 90
        8
 62
     7
370
    13
331
14
  1
Color_7
330
43D1
 90
        8
 62
   252
370
    13
331
2844
  1
Color_252
330
43D2
 90
        8
 62
    31
370
    30
331
14
  1
Color_31
330
43D3
 90
        8
 62
     1
370
    13
331
2843
  1
Color_1
330
B442
 90
        8
 62
     7
370
    -3
331
14
  1
Color_7
330
B443
 90
        8
 62
     7
370
    -3
331
14
  1
Color_7
330
0
 90
        8
 62
     7
370
    -3
331
14
  1
Color_7
330
0
 90
        8
 62
     7
370
    -3
331
14
  1
Color_7
  0
XRECORD
  5
2830E
102
{ACAD_REACTORS
330
B19C
102
}
330
B19C
100
AcDbXrecord
280
     1
 91
     1023
301

290
     0
302
寸法
330
E
 90
        8
 62
     7
370
    -3
331
14
  1
Color_7
330
0
 90
        9
 62
     1
370
    -3
331
14
  1
Color_1
330
0
 90
        8
 62
     7
370
    -3
331
14
  1
Color_7
330
0
 90
        9
 62
     7
370
    -3
331
14
  1
Color_7
330
0
 90
        0
 62
     7
370
    -3
331
14
  1
Color_7
330
A19
 90
        8
 62
     3
370
    30
331
14
  1
Color_3
330
C05
 90
        8
 62
     4
370
    13
331
14
  1
Color_4
330
0
 90
        8
 62
    40
370
    30
331
14
  1
Color_40
330
43CD
 90
        8
 62
     3
370
    30
331
14
  1
Color_3
330
43CE
 90
        8
 62
     8
370
    13
331
2844
  1
Color_8
330
43D0
 90
        8
 62
     7
370
    13
331
14
  1
Color_7
330
43D1
 90
        8
 62
   252
370
    13
331
2844
  1
Color_252
330
43D2
 90
        8
 62
    31
370
    30
331
14
  1
Color_31
330
43D3
 90
        8
 62
     1
370
    13
331
2843
  1
Color_1
330
B442
 90
        8
 62
     7
370
    -3
331
14
  1
Color_7
330
B443
 90
        8
 62
     7
370
    -3
331
14
  1
Color_7
330
0
 90
        8
 62
     7
370
    -3
331
14
  1
Color_7
330
0
 90
        8
 62
     7
370
    -3
331
14
  1
Color_7
  0
XRECORD
  5
2830F
102
{ACAD_REACTORS
330
B19C
102
}
330
B19C
100
AcDbXrecord
280
     1
 91
     1023
301

290
     0
302
寸法
330
E
 90
        8
 62
     7
370
    -3
331
14
  1
Color_7
330
0
 90
        9
 62
     1
370
    -3
331
14
  1
Color_1
330
0
 90
        8
 62
     7
370
    -3
331
14
  1
Color_7
330
0
 90
        8
 62
     7
370
    -3
331
14
  1
Color_7
330
0
 90
        0
 62
     7
370
    -3
331
14
  1
Color_7
330
A19
 90
        8
 62
     3
370
    30
331
14
  1
Color_3
330
C05
 90
        8
 62
     4
370
    13
331
14
  1
Color_4
330
0
 90
        8
 62
    40
370
    30
331
14
  1
Color_40
330
43CD
 90
        8
 62
     3
370
    30
331
14
  1
Color_3
330
43CE
 90
        8
 62
     8
370
    13
331
2844
  1
Color_8
330
43D0
 90
        8
 62
     7
370
    13
331
14
  1
Color_7
330
43D1
 90
        8
 62
   252
370
    13
331
2844
  1
Color_252
330
43D2
 90
        8
 62
    31
370
    30
331
14
  1
Color_31
330
43D3
 90
        8
 62
     1
370
    13
331
2843
  1
Color_1
330
B442
 90
        8
 62
     7
370
    -3
331
14
  1
Color_7
330
B443
 90
        8
 62
     7
370
    -3
331
14
  1
Color_7
330
0
 90
        8
 62
     7
370
    -3
331
14
  1
Color_7
330
0
 90
        8
 62
     7
370
    -3
331
14
  1
Color_7
  0
XRECORD
  5
28310
102
{ACAD_REACTORS
330
B19C
102
}
330
B19C
100
AcDbXrecord
280
     1
 91
     1023
301

290
     0
302
寸法
330
E
 90
        8
 62
     7
370
    -3
331
14
  1
Color_7
330
0
 90
        9
 62
     1
370
    -3
331
14
  1
Color_1
330
0
 90
        8
 62
     7
370
    -3
331
14
  1
Color_7
330
0
 90
        9
 62
     7
370
    -3
331
14
  1
Color_7
330
0
 90
        0
 62
     7
370
    -3
331
14
  1
Color_7
330
A19
 90
        8
 62
     3
370
    30
331
14
  1
Color_3
330
C05
 90
        8
 62
     4
370
    13
331
14
  1
Color_4
330
0
 90
        8
 62
    40
370
    30
331
14
  1
Color_40
330
43CD
 90
        8
 62
     3
370
    30
331
14
  1
Color_3
330
43CE
 90
        8
 62
     8
370
    13
331
2844
  1
Color_8
330
43D0
 90
        8
 62
     7
370
    13
331
14
  1
Color_7
330
43D1
 90
        8
 62
   252
370
    13
331
2844
  1
Color_252
330
43D2
 90
        8
 62
    31
370
    30
331
14
  1
Color_31
330
43D3
 90
        8
 62
     1
370
    13
331
2843
  1
Color_1
330
B442
 90
        8
 62
     7
370
    -3
331
14
  1
Color_7
330
B443
 90
        8
 62
     7
370
    -3
331
14
  1
Color_7
330
0
 90
        8
 62
     7
370
    -3
331
14
  1
Color_7
330
0
 90
        8
 62
     7
370
    -3
331
14
  1
Color_7
  0
XRECORD
  5
28336
102
{ACAD_REACTORS
330
28335
102
}
330
28335
100
AcDbXrecord
280
     1
  1
AcLyLayerFilter
 90
        1
300
0
301
NAME=="*0"
  0
XRECORD
  5
2833F
102
{ACAD_REACTORS
330
28335
102
}
330
28335
100
AcDbXrecord
280
     1
  1
AcLyLayerFilter
 90
        1
300
7
301
NAME=="*7"
  0
XRECORD
  5
28340
102
{ACAD_REACTORS
330
28335
102
}
330
28335
100
AcDbXrecord
280
     1
  1
AcLyLayerFilter
 90
        1
300
kiseki
301
NAME=="kiseki*"
  0
XRECORD
  5
28337
102
{ACAD_REACTORS
330
28335
102
}
330
28335
100
AcDbXrecord
280
     1
  1
AcLyLayerFilter
 90
        1
300
11
301
NAME=="*11"
  0
XRECORD
  5
28338
102
{ACAD_REACTORS
330
28335
102
}
330
28335
100
AcDbXrecord
280
     1
  1
AcLyLayerFilter
 90
        1
300
150_
301
NAME=="150_*"
  0
XRECORD
  5
28339
102
{ACAD_REACTORS
330
28335
102
}
330
28335
100
AcDbXrecord
280
     1
  1
AcLyLayerFilter
 90
        1
300
160_
301
NAME=="160_*"
  0
XRECORD
  5
2833A
102
{ACAD_REACTORS
330
28335
102
}
330
28335
100
AcDbXrecord
280
     1
  1
AcLyLayerFilter
 90
        1
300
170_
301
NAME=="170_*"
  0
XRECORD
  5
2833B
102
{ACAD_REACTORS
330
28335
102
}
330
28335
100
AcDbXrecord
280
     1
  1
AcLyLayerFilter
 90
        1
300
171_
301
NAME=="171_*"
  0
XRECORD
  5
2833C
102
{ACAD_REACTORS
330
28335
102
}
330
28335
100
AcDbXrecord
280
     1
  1
AcLyLayerFilter
 90
        1
300
350_
301
NAME=="350_*"
  0
XRECORD
  5
2833D
102
{ACAD_REACTORS
330
28335
102
}
330
28335
100
AcDbXrecord
280
     1
  1
AcLyLayerFilter
 90
        1
300
4
301
NAME=="*4"
  0
XRECORD
  5
2833E
102
{ACAD_REACTORS
330
28335
102
}
330
28335
100
AcDbXrecord
280
     1
  1
AcLyLayerFilter
 90
        1
300
5
301
NAME=="*5"
  0
ENDSEC
  0
EOF
