  0
SECTION
  2
HEADER
  9
$ACADVER
  1
AC1015
  9
$ACADMAINTVER
 70
    20
  9
$DWGCODEPAGE
  3
ANSI_932
  9
$INSBASE
 10
0.0
 20
0.0
 30
0.0
  9
$EXTMIN
 10
5143.599909179427
 20
-3988.349103508323
 30
0.0
  9
$EXTMAX
 10
6078.035164783848
 20
-3457.997111061252
 30
137.5
  9
$LIMMIN
 10
0.0
 20
0.0
  9
$LIMMAX
 10
420.0
 20
297.0
  9
$ORTHOMODE
 70
     0
  9
$REGENMODE
 70
     1
  9
$FILLMODE
 70
     1
  9
$QTEXTMODE
 70
     0
  9
$MIRRTEXT
 70
     0
  9
$LTSCALE
 40
1.0
  9
$ATTMODE
 70
     1
  9
$TEXTSIZE
 40
0.2
  9
$TRACEWID
 40
1.0
  9
$TEXTSTYLE
  7
まこ
  9
$CLAYER
  8
センター線
  9
$CELTYPE
  6
BYLAYER
  9
$CECOLOR
 62
   256
  9
$CELTSCALE
 40
1.0
  9
$DISPSILH
 70
     0
  9
$DIMSCALE
 40
2.5
  9
$DIMASZ
 40
2.5
  9
$DIMEXO
 40
1.0
  9
$DIMDLI
 40
0.38
  9
$DIMRND
 40
0.0
  9
$DIMDLE
 40
0.0
  9
$DIMEXE
 40
1.0
  9
$DIMTP
 40
0.0
  9
$DIMTM
 40
0.0
  9
$DIMTXT
 40
2.5
  9
$DIMCEN
 40
0.0
  9
$DIMTSZ
 40
0.0
  9
$DIMTOL
 70
     0
  9
$DIMLIM
 70
     0
  9
$DIMTIH
 70
     0
  9
$DIMTOH
 70
     0
  9
$DIMSE1
 70
     0
  9
$DIMSE2
 70
     0
  9
$DIMTAD
 70
     3
  9
$DIMZIN
 70
     8
  9
$DIMBLK
  1
Open30
  9
$DIMASO
 70
     1
  9
$DIMSHO
 70
     1
  9
$DIMPOST
  1

  9
$DIMAPOST
  1

  9
$DIMALT
 70
     0
  9
$DIMALTD
 70
     2
  9
$DIMALTF
 40
25.4
  9
$DIMLFAC
 40
1.0
  9
$DIMTOFL
 70
     1
  9
$DIMTVP
 40
0.0
  9
$DIMTIX
 70
     0
  9
$DIMSOXD
 70
     0
  9
$DIMSAH
 70
     0
  9
$DIMBLK1
  1

  9
$DIMBLK2
  1

  9
$DIMSTYLE
  2
STANDARD
  9
$DIMCLRD
 70
     4
  9
$DIMCLRE
 70
     4
  9
$DIMCLRT
 70
   256
  9
$DIMTFAC
 40
1.0
  9
$DIMGAP
 40
1.0
  9
$DIMJUST
 70
     0
  9
$DIMSD1
 70
     0
  9
$DIMSD2
 70
     0
  9
$DIMTOLJ
 70
     1
  9
$DIMTZIN
 70
     0
  9
$DIMALTZ
 70
     0
  9
$DIMALTTZ
 70
     0
  9
$DIMUPT
 70
     0
  9
$DIMDEC
 70
     3
  9
$DIMTDEC
 70
     3
  9
$DIMALTU
 70
     2
  9
$DIMALTTD
 70
     2
  9
$DIMTXSTY
  7
STANDARD
  9
$DIMAUNIT
 70
     0
  9
$DIMADEC
 70
     3
  9
$DIMALTRND
 40
0.0
  9
$DIMAZIN
 70
     2
  9
$DIMDSEP
 70
    46
  9
$DIMATFIT
 70
     0
  9
$DIMFRAC
 70
     0
  9
$DIMLDRBLK
  1
Open30
  9
$DIMLUNIT
 70
     2
  9
$DIMLWD
 70
    13
  9
$DIMLWE
 70
    13
  9
$DIMTMOVE
 70
     0
  9
$LUNITS
 70
     2
  9
$LUPREC
 70
     4
  9
$SKETCHINC
 40
1.0
  9
$FILLETRAD
 40
0.0
  9
$AUNITS
 70
     0
  9
$AUPREC
 70
     0
  9
$MENU
  1
.
  9
$ELEVATION
 40
0.0
  9
$PELEVATION
 40
0.0
  9
$THICKNESS
 40
0.0
  9
$LIMCHECK
 70
     0
  9
$CHAMFERA
 40
5.0
  9
$CHAMFERB
 40
5.0
  9
$CHAMFERC
 40
20.0
  9
$CHAMFERD
 40
0.0
  9
$SKPOLY
 70
     0
  9
$TDCREATE
 40
2452479.723113426
  9
$TDUCREATE
 40
2452479.348123183
  9
$TDUPDATE
 40
2458544.673877315
  9
$TDUUPDATE
 40
2458544.298877315
  9
$TDINDWG
 40
0.0098986343
  9
$TDUSRTIMER
 40
2458128.168175671
  9
$USRTIMER
 70
     1
  9
$ANGBASE
 50
0.0
  9
$ANGDIR
 70
     0
  9
$PDMODE
 70
     0
  9
$PDSIZE
 40
0.0
  9
$PLINEWID
 40
0.0
  9
$SPLFRAME
 70
     0
  9
$SPLINETYPE
 70
     6
  9
$SPLINESEGS
 70
     8
  9
$HANDSEED
  5
8AB53
  9
$SURFTAB1
 70
     6
  9
$SURFTAB2
 70
     6
  9
$SURFTYPE
 70
     6
  9
$SURFU
 70
     6
  9
$SURFV
 70
     6
  9
$UCSBASE
  2

  9
$UCSNAME
  2

  9
$UCSORG
 10
0.0
 20
0.0
 30
0.0
  9
$UCSXDIR
 10
1.0
 20
0.0
 30
0.0
  9
$UCSYDIR
 10
0.0
 20
1.0
 30
0.0
  9
$UCSORTHOREF
  2

  9
$UCSORTHOVIEW
 70
     0
  9
$UCSORGTOP
 10
0.0
 20
0.0
 30
0.0
  9
$UCSORGBOTTOM
 10
0.0
 20
0.0
 30
0.0
  9
$UCSORGLEFT
 10
0.0
 20
0.0
 30
0.0
  9
$UCSORGRIGHT
 10
0.0
 20
0.0
 30
0.0
  9
$UCSORGFRONT
 10
0.0
 20
0.0
 30
0.0
  9
$UCSORGBACK
 10
0.0
 20
0.0
 30
0.0
  9
$PUCSBASE
  2

  9
$PUCSNAME
  2

  9
$PUCSORG
 10
0.0
 20
0.0
 30
0.0
  9
$PUCSXDIR
 10
1.0
 20
0.0
 30
0.0
  9
$PUCSYDIR
 10
0.0
 20
1.0
 30
0.0
  9
$PUCSORTHOREF
  2

  9
$PUCSORTHOVIEW
 70
     0
  9
$PUCSORGTOP
 10
0.0
 20
0.0
 30
0.0
  9
$PUCSORGBOTTOM
 10
0.0
 20
0.0
 30
0.0
  9
$PUCSORGLEFT
 10
0.0
 20
0.0
 30
0.0
  9
$PUCSORGRIGHT
 10
0.0
 20
0.0
 30
0.0
  9
$PUCSORGFRONT
 10
0.0
 20
0.0
 30
0.0
  9
$PUCSORGBACK
 10
0.0
 20
0.0
 30
0.0
  9
$USERI1
 70
     0
  9
$USERI2
 70
     0
  9
$USERI3
 70
     0
  9
$USERI4
 70
     0
  9
$USERI5
 70
     0
  9
$USERR1
 40
10.0
  9
$USERR2
 40
0.0
  9
$USERR3
 40
0.0
  9
$USERR4
 40
0.0
  9
$USERR5
 40
0.0
  9
$WORLDVIEW
 70
     1
  9
$SHADEDGE
 70
     3
  9
$SHADEDIF
 70
    70
  9
$TILEMODE
 70
     0
  9
$MAXACTVP
 70
    48
  9
$PINSBASE
 10
0.0
 20
0.0
 30
0.0
  9
$PLIMCHECK
 70
     0
  9
$PEXTMIN
 10
1.049999999999999
 20
0.6999999999999993
 30
0.0
  9
$PEXTMAX
 10
9.449999999999999
 20
6.3
 30
0.0
  9
$PLIMMIN
 10
-0.25
 20
-0.7500000000000001
  9
$PLIMMAX
 10
10.75
 20
7.75
  9
$UNITMODE
 70
     0
  9
$VISRETAIN
 70
     1
  9
$PLINEGEN
 70
     0
  9
$PSLTSCALE
 70
     1
  9
$TREEDEPTH
 70
  3020
  9
$CMLSTYLE
  2
STANDARD
  9
$CMLJUST
 70
     0
  9
$CMLSCALE
 40
20.0
  9
$PROXYGRAPHICS
 70
     1
  9
$MEASUREMENT
 70
     0
  9
$CELWEIGHT
370
    -1
  9
$ENDCAPS
280
     0
  9
$JOINSTYLE
280
     0
  9
$LWDISPLAY
290
     0
  9
$INSUNITS
 70
     0
  9
$HYPERLINKBASE
  1

  9
$STYLESHEET
  1
monochrome.ctb
  9
$XEDIT
290
     1
  9
$CEPSNTYPE
380
     0
  9
$PSTYLEMODE
290
     1
  9
$FINGERPRINTGUID
  2
{6B368F64-F7EB-11D4-BFBA-00004C030E53}
  9
$VERSIONGUID
  2
{3D84C2EE-7B32-6748-95B3-45C5BE6FE8BE}
  9
$EXTNAMES
290
     1
  9
$PSVPSCALE
 40
0.5
  9
$OLESTARTUP
290
     0
  0
ENDSEC
  0
SECTION
  2
CLASSES
  0
CLASS
  1
ACDBDICTIONARYWDFLT
  2
AcDbDictionaryWithDefault
  3
ObjectDBX Classes
 90
        0
280
     0
281
     0
  0
CLASS
  1
ACDBPLACEHOLDER
  2
AcDbPlaceHolder
  3
ObjectDBX Classes
 90
        0
280
     0
281
     0
  0
CLASS
  1
LAYOUT
  2
AcDbLayout
  3
ObjectDBX Classes
 90
        0
280
     0
281
     0
  0
CLASS
  1
DICTIONARYVAR
  2
AcDbDictionaryVar
  3
ObjectDBX Classes
 90
        0
280
     0
281
     0
  0
CLASS
  1
MATERIAL
  2
AcDbMaterial
  3
ObjectDBX Classes
 90
     1153
280
     0
281
     0
  0
CLASS
  1
VISUALSTYLE
  2
AcDbVisualStyle
  3
ObjectDBX Classes
 90
     4095
280
     0
281
     0
  0
CLASS
  1
TABLESTYLE
  2
AcDbTableStyle
  3
ObjectDBX Classes
 90
     4095
280
     0
281
     0
  0
CLASS
  1
SCALE
  2
AcDbScale
  3
ObjectDBX Classes
 90
     1153
280
     0
281
     0
  0
CLASS
  1
MLEADERSTYLE
  2
AcDbMLeaderStyle
  3
ACDB_MLEADERSTYLE_CLASS
 90
     4095
280
     0
281
     0
  0
CLASS
  1
SORTENTSTABLE
  2
AcDbSortentsTable
  3
ObjectDBX Classes
 90
    32768
280
     0
281
     0
  0
CLASS
  1
CELLSTYLEMAP
  2
AcDbCellStyleMap
  3
ObjectDBX Classes
 90
     1152
280
     0
281
     0
  0
CLASS
  1
SUN
  2
AcDbSun
  3
SCENEOE
 90
     1153
280
     0
281
     0
  0
CLASS
  1
RASTERVARIABLES
  2
AcDbRasterVariables
  3
ISM
 90
        0
280
     0
281
     0
  0
CLASS
  1
ACDBSECTIONVIEWSTYLE
  2
AcDbSectionViewStyle
  3
ObjectDBX Classes
 90
     1025
280
     0
281
     0
  0
CLASS
  1
ACDBDETAILVIEWSTYLE
  2
AcDbDetailViewStyle
  3
ObjectDBX Classes
 90
     1025
280
     0
281
     0
  0
ENDSEC
  0
SECTION
  2
TABLES
  0
TABLE
  2
VPORT
  5
8
102
{ACAD_XDICTIONARY
360
8AAB8
102
}
330
0
100
AcDbSymbolTable
 70
     1
  0
VPORT
  5
8906E
330
8
100
AcDbSymbolTableRecord
100
AcDbViewportTableRecord
  2
*Active
 70
     0
 10
0.0
 20
0.0
 11
1.0
 21
1.0
 12
5446.218215703376
 22
-3469.782729277235
 13
-147.9468458676922
 23
19.55743956420332
 14
10.0
 24
10.0
 15
10.0
 25
10.0
 16
0.0
 26
0.0
 36
1.0
 17
0.0
 27
0.0
 37
0.0
 40
343.9809568634267
 41
1.353693181818182
 42
50.0
 43
0.0
 44
0.0
 50
0.0
 51
0.0
 71
    16
 72
   100
 73
     1
 74
     0
 75
     0
 76
     0
 77
     0
 78
     0
281
     0
 65
     1
110
0.0
120
0.0
130
0.0
111
1.0
121
0.0
131
0.0
112
0.0
122
1.0
132
0.0
 79
     0
146
0.0
1001
ACAD_NAV_VCDISPLAY
1070
     3
  0
ENDTAB
  0
TABLE
  2
LTYPE
  5
5
330
0
100
AcDbSymbolTable
 70
     3
  0
LTYPE
  5
12
330
5
100
AcDbSymbolTableRecord
100
AcDbLinetypeTableRecord
  2
BYBLOCK
 70
     0
  3

 72
    65
 73
     0
 40
0.0
  0
LTYPE
  5
13
330
5
100
AcDbSymbolTableRecord
100
AcDbLinetypeTableRecord
  2
BYLAYER
 70
     0
  3

 72
    65
 73
     0
 40
0.0
  0
LTYPE
  5
14
330
5
100
AcDbSymbolTableRecord
100
AcDbLinetypeTableRecord
  2
CONTINUOUS
 70
     0
  3
Solid line
 72
    65
 73
     0
 40
0.0
  0
LTYPE
  5
969
330
5
100
AcDbSymbolTableRecord
100
AcDbLinetypeTableRecord
  2
CENTER2
 70
     0
  3
Center (.5x) ___ _ ___ _ ___ _ ___ _ ___ _ ___
 72
    65
 73
     4
 40
28.575
 49
19.05
 74
     0
 49
-3.174999999999999
 74
     0
 49
3.174999999999999
 74
     0
 49
-3.174999999999999
 74
     0
  0
LTYPE
  5
80435
330
5
100
AcDbSymbolTableRecord
100
AcDbLinetypeTableRecord
  2
CENTER
 70
     0
  3
Center ____ _ ____ _ ____ _ ____ _ ____ _ ____
 72
    65
 73
     4
 40
50.8
 49
31.75
 74
     0
 49
-6.349999999999999
 74
     0
 49
6.349999999999999
 74
     0
 49
-6.349999999999999
 74
     0
  0
ENDTAB
  0
TABLE
  2
LAYER
  5
2
102
{ACAD_XDICTIONARY
360
1E591
102
}
330
0
100
AcDbSymbolTable
 70
    11
  0
LAYER
  5
E
102
{ACAD_XDICTIONARY
360
890E1
102
}
330
2
100
AcDbSymbolTableRecord
100
AcDbLayerTableRecord
  2
0
 70
     2
 62
     7
  6
CONTINUOUS
370
    -3
390
73E
  0
LAYER
  5
12B
330
2
100
AcDbSymbolTableRecord
100
AcDbLayerTableRecord
  2
DEFPOINTS
 70
     4
 62
     7
  6
CONTINUOUS
290
     0
370
    -3
390
73E
  0
LAYER
  5
8C6
102
{ACAD_XDICTIONARY
360
890E9
102
}
330
2
100
AcDbSymbolTableRecord
100
AcDbLayerTableRecord
  2
文字
 70
     0
 62
     7
  6
CONTINUOUS
370
    20
390
73E
  0
LAYER
  5
96A
102
{ACAD_XDICTIONARY
360
890EF
102
}
330
2
100
AcDbSymbolTableRecord
100
AcDbLayerTableRecord
  2
中心線
 70
     0
 62
     7
  6
CENTER2
370
     9
390
73E
  0
LAYER
  5
1521
102
{ACAD_XDICTIONARY
360
890F1
102
}
330
2
100
AcDbSymbolTableRecord
100
AcDbLayerTableRecord
  2
実線
 70
     0
 62
     7
  6
CONTINUOUS
370
    30
390
73E
  0
LAYER
  5
1523
102
{ACAD_XDICTIONARY
360
890F5
102
}
330
2
100
AcDbSymbolTableRecord
100
AcDbLayerTableRecord
  2
細線
 70
     0
 62
     7
  6
CONTINUOUS
370
     9
390
73E
  0
LAYER
  5
1526
102
{ACAD_XDICTIONARY
360
890F7
102
}
330
2
100
AcDbSymbolTableRecord
100
AcDbLayerTableRecord
  2
\U+FF77\U+FF6C\U+FF6F\U+FF8C\U+FF9F\U+FF8E\U+FF9E\U+FF99\U+FF84
 70
     0
 62
     7
  6
CONTINUOUS
370
    30
390
73E
  0
LAYER
  5
44F0
102
{ACAD_XDICTIONARY
360
890F9
102
}
330
2
100
AcDbSymbolTableRecord
100
AcDbLayerTableRecord
  2
\U+FF7A\U+FF88\U+FF78\U+FF80
 70
     0
 62
     7
  6
CONTINUOUS
370
    30
390
73E
  0
LAYER
  5
7920D
102
{ACAD_XDICTIONARY
360
89101
102
}
330
2
100
AcDbSymbolTableRecord
100
AcDbLayerTableRecord
  2
本体
 70
     0
 62
     7
  6
CONTINUOUS
370
    30
390
73E
  0
LAYER
  5
7CE53
102
{ACAD_XDICTIONARY
360
89103
102
}
330
2
100
AcDbSymbolTableRecord
100
AcDbLayerTableRecord
  2
外形線
 70
     0
 62
     7
  6
CONTINUOUS
370
    30
390
73E
  0
LAYER
  5
80436
102
{ACAD_XDICTIONARY
360
89105
102
}
330
2
100
AcDbSymbolTableRecord
100
AcDbLayerTableRecord
  2
センター線
 70
     0
 62
     7
  6
CENTER
370
    15
390
73E
  0
ENDTAB
  0
TABLE
  2
STYLE
  5
3
330
0
100
AcDbSymbolTable
 70
     4
  0
STYLE
  5
F
330
3
100
AcDbSymbolTableRecord
100
AcDbTextStyleTableRecord
  2
STANDARD
 70
     0
 40
0.0
 41
1.0
 50
0.0
 71
     0
 42
2.5
  3
simplex.shx
  4
bigfont.shx
  0
STYLE
  5
34
330
3
100
AcDbSymbolTableRecord
100
AcDbTextStyleTableRecord
  2
TIMESNR
 70
     0
 40
0.0
 41
1.0
 50
0.0
 71
     0
 42
2.0
  3
times.ttf
  4

1001
ACAD
1000
Times New Roman
1071
       18
  0
STYLE
  5
1529
330
3
100
AcDbSymbolTableRecord
100
AcDbTextStyleTableRecord
  2
まこ
 70
     0
 40
0.0
 41
1.0
 50
0.0
 71
     0
 42
0.2
  3
simplex.shx
  4
bigfont.shx
  0
STYLE
  5
1A5A7
330
3
100
AcDbSymbolTableRecord
100
AcDbTextStyleTableRecord
  2
MS\U+FF7A\U+FF9E\U+FF7C\U+FF6F\U+FF78N
 70
     0
 40
0.0
 41
1.0
 50
0.0
 71
     0
 42
5.0
  3

  4

1001
ACAD
1000
MS Gothic
1071
    32817
  0
ENDTAB
  0
TABLE
  2
VIEW
  5
6
330
0
100
AcDbSymbolTable
 70
     0
  0
ENDTAB
  0
TABLE
  2
UCS
  5
7
330
0
100
AcDbSymbolTable
 70
     0
  0
ENDTAB
  0
TABLE
  2
APPID
  5
9
330
0
100
AcDbSymbolTable
 70
    13
  0
APPID
  5
10
330
9
100
AcDbSymbolTableRecord
100
AcDbRegAppTableRecord
  2
ACAD
 70
     0
  0
APPID
  5
84F74
330
9
100
AcDbSymbolTableRecord
100
AcDbRegAppTableRecord
  2
ACAD_NAV_VCDISPLAY
 70
     0
  0
APPID
  5
84F75
330
9
100
AcDbSymbolTableRecord
100
AcDbRegAppTableRecord
  2
ACAD_PSEXT
 70
     0
  0
APPID
  5
85072
330
9
100
AcDbSymbolTableRecord
100
AcDbRegAppTableRecord
  2
AcadAnnotative
 70
     0
  0
APPID
  5
891C4
330
9
100
AcDbSymbolTableRecord
100
AcDbRegAppTableRecord
  2
ACAD_MLEADERVER
 70
     0
  0
APPID
  5
891E9
330
9
100
AcDbSymbolTableRecord
100
AcDbRegAppTableRecord
  2
ACAD_EXEMPT_FROM_CAD_STANDARDS
 70
     0
  0
APPID
  5
899BE
330
9
100
AcDbSymbolTableRecord
100
AcDbRegAppTableRecord
  2
ACAD_DSTYLE_DIMRADIAL_EXTENSION
 70
     0
  0
APPID
  5
89A71
330
9
100
AcDbSymbolTableRecord
100
AcDbRegAppTableRecord
  2
PE_CLOUD
 70
     0
  0
APPID
  5
89C64
330
9
100
AcDbSymbolTableRecord
100
AcDbRegAppTableRecord
  2
FX_RP_XDATA
 70
     0
  0
APPID
  5
89D02
330
9
100
AcDbSymbolTableRecord
100
AcDbRegAppTableRecord
  2
ACAD_DSTYLE_DIMFLIPARROW_SYMBOL
 70
     0
  0
APPID
  5
89D03
330
9
100
AcDbSymbolTableRecord
100
AcDbRegAppTableRecord
  2
ACAD_DSTYLE_DIMFLIPARROW_WHICH_SYMBOL
 70
     0
  0
APPID
  5
8A0FC
330
9
100
AcDbSymbolTableRecord
100
AcDbRegAppTableRecord
  2
TB_S_MPD
 70
     0
  0
APPID
  5
8A8B3
330
9
100
AcDbSymbolTableRecord
100
AcDbRegAppTableRecord
  2
PLOTTRANSPARENCY
 70
     0
  0
ENDTAB
  0
TABLE
  2
DIMSTYLE
  5
A
330
0
100
AcDbSymbolTable
 70
     1
100
AcDbDimStyleTable
 71
     0
  0
DIMSTYLE
105
1D
330
A
100
AcDbSymbolTableRecord
100
AcDbDimStyleTableRecord
  2
STANDARD
 70
     0
 40
2.5
 41
2.5
 42
1.0
 44
1.0
 73
     0
 74
     0
 77
     3
 78
     8
 79
     2
140
2.5
141
0.0
147
1.0
172
     1
176
     4
177
     4
178
   256
179
     3
271
     3
272
     3
279
     2
340
F
341
89E
342
89E
371
    13
372
    13
  0
ENDTAB
  0
TABLE
  2
BLOCK_RECORD
  5
1
330
0
100
AcDbSymbolTable
 70
     1
  0
BLOCK_RECORD
  5
18
330
1
100
AcDbSymbolTableRecord
100
AcDbBlockTableRecord
  2
*MODEL_SPACE
340
741
  0
BLOCK_RECORD
  5
8A952
330
1
100
AcDbSymbolTableRecord
100
AcDbBlockTableRecord
  2
*Paper_Space
340
8A953
  0
BLOCK_RECORD
  5
89E
330
1
100
AcDbSymbolTableRecord
100
AcDbBlockTableRecord
  2
_Open30
340
0
  0
ENDTAB
  0
ENDSEC
  0
SECTION
  2
BLOCKS
  0
BLOCK
  5
19
330
18
100
AcDbEntity
  8
0
100
AcDbBlockBegin
  2
*MODEL_SPACE
 70
     0
 10
0.0
 20
0.0
 30
0.0
  3
*MODEL_SPACE
  1
*MODEL_SPACE
  0
ENDBLK
  5
1A
330
18
100
AcDbEntity
  8
0
100
AcDbBlockEnd
  0
BLOCK
  5
8A954
330
8A952
100
AcDbEntity
 67
     1
  8
0
100
AcDbBlockBegin
  2
*Paper_Space
 70
     0
 10
0.0
 20
0.0
 30
0.0
  3
*Paper_Space
  1
*Paper_Space
  0
ENDBLK
  5
8A955
330
8A952
100
AcDbEntity
 67
     1
  8
0
100
AcDbBlockEnd
  0
BLOCK
  5
8A2
330
89E
100
AcDbEntity
  8
0
100
AcDbBlockBegin
  2
_Open30
 70
     0
 10
0.0
 20
0.0
 30
0.0
  3
_Open30
  1
_Open30
  0
LINE
  5
89F
330
89E
100
AcDbEntity
  8
0
  6
ByBlock
 62
     0
370
    -2
100
AcDbLine
 10
-1.0
 20
0.26794919
 30
0.0
 11
0.0
 21
0.0
 31
0.0
  0
LINE
  5
8A0
330
89E
100
AcDbEntity
  8
0
  6
ByBlock
 62
     0
370
    -2
100
AcDbLine
 10
0.0
 20
0.0
 30
0.0
 11
-1.0
 21
-0.26794919
 31
0.0
  0
LINE
  5
8A1
330
89E
100
AcDbEntity
  8
0
  6
ByBlock
 62
     0
370
    -2
100
AcDbLine
 10
0.0
 20
0.0
 30
0.0
 11
-1.0
 21
0.0
 31
0.0
  0
ENDBLK
  5
8A3
330
89E
100
AcDbEntity
  8
0
100
AcDbBlockEnd
  0
ENDSEC
  0
SECTION
  2
ENTITIES
  0
TEXT
  5
16EAD
330
18
100
AcDbEntity
  8
文字
100
AcDbText
 10
-213.0399041533702
 20
458.6683596617151
 30
0.0
 40
2.699999892000001
  1

  7
まこ
 72
     1
 11
-213.0399041533702
 21
460.0183596077151
 31
0.0
100
AcDbText
 73
     2
  0
LINE
  5
805E3
102
{ACAD_REACTORS
330
808CD
330
80B9B
102
}
330
18
100
AcDbEntity
  8
外形線
100
AcDbLine
 10
5663.049888556764
 20
-3728.847111061255
 30
0.0
 11
5695.749888053045
 21
-3728.847110019673
 31
0.0
  0
LINE
  5
805E4
102
{ACAD_REACTORS
330
808CD
330
80B9B
102
}
330
18
100
AcDbEntity
  8
外形線
 48
0.5
100
AcDbLine
 10
5662.549888556764
 20
-3728.847111061255
 30
0.0
 11
5662.549888556764
 21
-3474.847112102831
 31
0.0
  0
LINE
  5
805E5
102
{ACAD_REACTORS
330
808CD
330
80B9B
102
}
330
18
100
AcDbEntity
  8
外形線
 48
0.5
100
AcDbLine
 10
5662.049888053042
 20
-3728.847111061252
 30
0.0
 11
5662.049888053044
 21
-3474.847112102831
 31
0.0
  0
LINE
  5
805E6
102
{ACAD_REACTORS
330
808CD
330
80B9B
102
}
330
18
100
AcDbEntity
  8
外形線
 48
0.5
100
AcDbLine
 10
5660.749888053045
 20
-3686.847125365844
 30
0.0
 11
5662.049888053042
 21
-3686.847125365844
 31
0.0
  0
LINE
  5
805E7
102
{ACAD_REACTORS
330
808CD
330
80B9B
102
}
330
18
100
AcDbEntity
  8
外形線
100
AcDbLine
 10
5715.749888053046
 20
-3661.847111061252
 30
0.0
 11
5715.749888053046
 21
-3726.847112102823
 31
0.0
  0
LINE
  5
805EB
102
{ACAD_REACTORS
330
808CD
330
80B9B
102
}
330
18
100
AcDbEntity
  8
外形線
 48
0.5
100
AcDbLine
 10
5662.04988805304
 20
-3474.847112102831
 30
0.0
 11
5662.549888053041
 21
-3474.847112102831
 31
0.0
  0
LINE
  5
805EC
102
{ACAD_REACTORS
330
808CD
330
80B9B
102
}
330
18
100
AcDbEntity
  8
外形線
 48
0.5
100
AcDbLine
 10
5660.749888053045
 20
-3516.847115829448
 30
0.0
 11
5662.049888053042
 21
-3516.847115829448
 31
0.0
  0
LINE
  5
805ED
102
{ACAD_REACTORS
330
808CD
330
80B9B
102
}
330
18
100
AcDbEntity
  8
外形線
 48
0.5
100
AcDbLine
 10
5657.749888053045
 20
-3521.347106293057
 30
0.0
 11
5657.749888053045
 21
-3682.347115829447
 31
0.0
  0
LINE
  5
805EE
102
{ACAD_REACTORS
330
808CD
330
80B9B
102
}
330
18
100
AcDbEntity
  8
外形線
 48
0.5
100
AcDbLine
 10
5658.249888053045
 20
-3520.847106293057
 30
0.0
 11
5660.349888053045
 21
-3520.847106293055
 31
0.0
  0
LINE
  5
805EF
102
{ACAD_REACTORS
330
808CD
330
80B9B
102
}
330
18
100
AcDbEntity
  8
外形線
100
AcDbLine
 10
5695.749888053045
 20
-3474.847112102831
 30
0.0
 11
5663.049888556764
 21
-3474.847112102831
 31
0.0
  0
LINE
  5
805F6
102
{ACAD_REACTORS
330
808CD
330
80B9B
102
}
330
18
100
AcDbEntity
  8
外形線
 48
0.5
100
AcDbLine
 10
5660.349888053045
 20
-3682.847115829449
 30
0.0
 11
5658.249888053045
 21
-3682.847115829447
 31
0.0
  0
LINE
  5
805F7
102
{ACAD_REACTORS
330
808CD
330
80B9B
102
}
330
18
100
AcDbEntity
  8
外形線
 48
0.5
100
AcDbLine
 10
5660.749888053045
 20
-3686.847115829447
 30
0.0
 11
5660.749888053045
 21
-3516.847115829448
 31
0.0
  0
LINE
  5
805F9
102
{ACAD_REACTORS
330
808CD
330
80B9B
102
}
330
18
100
AcDbEntity
  8
中心線
100
AcDbLine
 10
5656.061890893472
 20
-3676.847115829447
 30
0.0
 11
5669.617806022975
 21
-3676.847115829447
 31
0.0
  0
LINE
  5
805FA
102
{ACAD_REACTORS
330
808CD
330
80B9B
102
}
330
18
100
AcDbEntity
  8
中心線
100
AcDbLine
 10
5644.003065710457
 20
-3601.847111061252
 30
0.0
 11
5717.215030371422
 21
-3601.847111061252
 31
0.0
  0
LINE
  5
805FB
102
{ACAD_REACTORS
330
808CD
330
80B9B
102
}
330
18
100
AcDbEntity
  8
中心線
100
AcDbLine
 10
5656.061890893472
 20
-3526.847106293057
 30
0.0
 11
5669.617806022975
 21
-3526.847106293057
 31
0.0
  0
LINE
  5
80601
102
{ACAD_REACTORS
330
808CD
330
80B9B
102
}
330
18
100
AcDbEntity
  8
外形線
 48
0.5
100
AcDbLine
 10
5663.049888556764
 20
-3728.847111061255
 30
0.0
 11
5662.549888556764
 21
-3728.347111061256
 31
0.0
  0
LINE
  5
80602
102
{ACAD_REACTORS
330
808CD
330
80B9B
102
}
330
18
100
AcDbEntity
  8
外形線
 48
0.5
100
AcDbLine
 10
5662.049888053042
 20
-3728.847111061255
 30
0.0
 11
5662.549888556764
 21
-3728.847111061255
 31
0.0
  0
LINE
  5
80603
102
{ACAD_REACTORS
330
808CD
330
80B9B
102
}
330
18
100
AcDbEntity
  8
外形線
 48
0.5
100
AcDbLine
 10
5663.049888556764
 20
-3474.847112102831
 30
0.0
 11
5662.549888556764
 21
-3475.347112102831
 31
0.0
  0
LINE
  5
80604
102
{ACAD_REACTORS
330
808CD
330
80B9B
102
}
330
18
100
AcDbEntity
  8
外形線
100
AcDbLine
 10
5695.749888053045
 20
-3701.722033880033
 30
0.0
 11
5715.749888053048
 21
-3701.722033880031
 31
0.0
  0
LINE
  5
80605
102
{ACAD_REACTORS
330
808CD
330
80B9B
102
}
330
18
100
AcDbEntity
  8
外形線
100
AcDbLine
 10
5695.749888053045
 20
-3501.972190325651
 30
0.0
 11
5715.749888053045
 21
-3501.972190325649
 31
0.0
  0
ARC
  5
80607
102
{ACAD_REACTORS
330
808CD
330
80B9B
102
}
330
18
100
AcDbEntity
  8
実線
 48
2.0
100
AcDbCircle
 10
5660.349888053045
 20
-3683.247115829449
 30
0.0
 40
0.4000000000000057
100
AcDbArc
 50
0.0
 51
90.0
  0
ARC
  5
80608
102
{ACAD_REACTORS
330
808CD
330
80B9B
102
}
330
18
100
AcDbEntity
  8
実線
 48
2.0
100
AcDbCircle
 10
5660.349888053045
 20
-3520.447106293056
 30
0.0
 40
0.4000000000000057
100
AcDbArc
 50
270.0
 51
0.0
  0
LINE
  5
80609
102
{ACAD_REACTORS
330
808CD
330
80B9B
102
}
330
18
100
AcDbEntity
  8
外形線
 48
0.5
100
AcDbLine
 10
5658.249888053045
 20
-3682.847115829447
 30
0.0
 11
5657.749888053045
 21
-3682.347115829447
 31
0.0
  0
LINE
  5
8060A
102
{ACAD_REACTORS
330
808CD
330
80B9B
102
}
330
18
100
AcDbEntity
  8
外形線
 48
0.5
100
AcDbLine
 10
5658.249888053045
 20
-3520.847106293057
 30
0.0
 11
5657.749888053045
 21
-3521.347106293057
 31
0.0
  0
LINE
  5
8060B
102
{ACAD_REACTORS
330
808CD
330
80B9B
102
}
330
18
100
AcDbEntity
  8
\U+FF77\U+FF6C\U+FF6F\U+FF8C\U+FF9F\U+FF8E\U+FF9E\U+FF99\U+FF84
100
AcDbLine
 10
5661.54988805304
 20
-3491.392973694289
 30
0.0
 11
5661.54988805304
 21
-3498.392973694289
 31
0.0
  0
LINE
  5
8060C
102
{ACAD_REACTORS
330
808CD
330
80B9B
102
}
330
18
100
AcDbEntity
  8
\U+FF77\U+FF6C\U+FF6F\U+FF8C\U+FF9F\U+FF8E\U+FF9E\U+FF99\U+FF84
100
AcDbLine
 10
5661.249888053037
 20
-3492.442973694288
 30
0.0
 11
5661.249888053037
 21
-3497.34297369429
 31
0.0
  0
LINE
  5
8060D
102
{ACAD_REACTORS
330
808CD
330
80B9B
102
}
330
18
100
AcDbEntity
  8
\U+FF77\U+FF6C\U+FF6F\U+FF8C\U+FF9F\U+FF8E\U+FF9E\U+FF99\U+FF84
100
AcDbLine
 10
5661.54988805304
 20
-3498.392973694289
 30
0.0
 11
5661.249888053037
 21
-3497.34297369429
 31
0.0
  0
LINE
  5
8060E
102
{ACAD_REACTORS
330
808CD
330
80B9B
102
}
330
18
100
AcDbEntity
  8
\U+FF77\U+FF6C\U+FF6F\U+FF8C\U+FF9F\U+FF8E\U+FF9E\U+FF99\U+FF84
100
AcDbLine
 10
5661.54988805304
 20
-3498.392973694289
 30
0.0
 11
5662.04988805304
 21
-3498.392973694289
 31
0.0
  0
LINE
  5
8060F
102
{ACAD_REACTORS
330
808CD
330
80B9B
102
}
330
18
100
AcDbEntity
  8
\U+FF77\U+FF6C\U+FF6F\U+FF8C\U+FF9F\U+FF8E\U+FF9E\U+FF99\U+FF84
100
AcDbLine
 10
5661.54988805304
 20
-3491.392973694289
 30
0.0
 11
5662.04988805304
 21
-3491.392973694289
 31
0.0
  0
LINE
  5
80610
102
{ACAD_REACTORS
330
808CD
330
80B9B
102
}
330
18
100
AcDbEntity
  8
\U+FF77\U+FF6C\U+FF6F\U+FF8C\U+FF9F\U+FF8E\U+FF9E\U+FF99\U+FF84
100
AcDbLine
 10
5661.54988805304
 20
-3491.392973694289
 30
0.0
 11
5661.249888053037
 21
-3492.442973694288
 31
0.0
  0
LINE
  5
80611
102
{ACAD_REACTORS
330
808CD
330
80B9B
102
}
330
18
100
AcDbEntity
  8
\U+FF77\U+FF6C\U+FF6F\U+FF8C\U+FF9F\U+FF8E\U+FF9E\U+FF99\U+FF84
100
AcDbLine
 10
5662.04988805304
 20
-3491.392973694289
 30
0.0
 11
5662.04988805304
 21
-3498.392973694289
 31
0.0
  0
LINE
  5
80612
102
{ACAD_REACTORS
330
808CD
330
80B9B
102
}
330
18
100
AcDbEntity
  8
\U+FF77\U+FF6C\U+FF6F\U+FF8C\U+FF9F\U+FF8E\U+FF9E\U+FF99\U+FF84
100
AcDbLine
 10
5661.54988805304
 20
-3712.301249469982
 30
0.0
 11
5661.249888053037
 21
-3711.251249469982
 31
0.0
  0
LINE
  5
80613
102
{ACAD_REACTORS
330
808CD
330
80B9B
102
}
330
18
100
AcDbEntity
  8
\U+FF77\U+FF6C\U+FF6F\U+FF8C\U+FF9F\U+FF8E\U+FF9E\U+FF99\U+FF84
100
AcDbLine
 10
5661.54988805304
 20
-3705.301249469981
 30
0.0
 11
5661.54988805304
 21
-3712.301249469982
 31
0.0
  0
LINE
  5
80614
102
{ACAD_REACTORS
330
808CD
330
80B9B
102
}
330
18
100
AcDbEntity
  8
\U+FF77\U+FF6C\U+FF6F\U+FF8C\U+FF9F\U+FF8E\U+FF9E\U+FF99\U+FF84
100
AcDbLine
 10
5661.249888053037
 20
-3706.351249469982
 30
0.0
 11
5661.249888053037
 21
-3711.251249469982
 31
0.0
  0
LINE
  5
80615
102
{ACAD_REACTORS
330
808CD
330
80B9B
102
}
330
18
100
AcDbEntity
  8
\U+FF77\U+FF6C\U+FF6F\U+FF8C\U+FF9F\U+FF8E\U+FF9E\U+FF99\U+FF84
100
AcDbLine
 10
5661.54988805304
 20
-3712.301249469982
 30
0.0
 11
5662.04988805304
 21
-3712.301249469982
 31
0.0
  0
LINE
  5
80616
102
{ACAD_REACTORS
330
808CD
330
80B9B
102
}
330
18
100
AcDbEntity
  8
\U+FF77\U+FF6C\U+FF6F\U+FF8C\U+FF9F\U+FF8E\U+FF9E\U+FF99\U+FF84
100
AcDbLine
 10
5661.54988805304
 20
-3705.301249469981
 30
0.0
 11
5662.04988805304
 21
-3705.301249469981
 31
0.0
  0
LINE
  5
80617
102
{ACAD_REACTORS
330
808CD
330
80B9B
102
}
330
18
100
AcDbEntity
  8
\U+FF77\U+FF6C\U+FF6F\U+FF8C\U+FF9F\U+FF8E\U+FF9E\U+FF99\U+FF84
100
AcDbLine
 10
5661.54988805304
 20
-3705.301249469981
 30
0.0
 11
5661.249888053037
 21
-3706.351249469982
 31
0.0
  0
LINE
  5
80618
102
{ACAD_REACTORS
330
808CD
330
80B9B
102
}
330
18
100
AcDbEntity
  8
\U+FF77\U+FF6C\U+FF6F\U+FF8C\U+FF9F\U+FF8E\U+FF9E\U+FF99\U+FF84
100
AcDbLine
 10
5662.04988805304
 20
-3705.301249469981
 30
0.0
 11
5662.04988805304
 21
-3712.301249469982
 31
0.0
  0
LINE
  5
80619
102
{ACAD_REACTORS
330
808CF
330
80B9A
102
}
330
18
100
AcDbEntity
  8
\U+FF77\U+FF6C\U+FF6F\U+FF8C\U+FF9F\U+FF8E\U+FF9E\U+FF99\U+FF84
100
AcDbLine
 10
5287.745170005331
 20
-3845.452631786268
 30
0.0
 11
5280.745170005332
 21
-3845.452631786268
 31
0.0
  0
LINE
  5
8061A
102
{ACAD_REACTORS
330
808CF
330
80B9A
102
}
330
18
100
AcDbEntity
  8
\U+FF77\U+FF6C\U+FF6F\U+FF8C\U+FF9F\U+FF8E\U+FF9E\U+FF99\U+FF84
100
AcDbLine
 10
5287.745170005331
 20
-3844.952631786268
 30
0.0
 11
5286.695170005333
 21
-3844.652631786265
 31
0.0
  0
LINE
  5
8061B
102
{ACAD_REACTORS
330
808CF
330
80B9A
102
}
330
18
100
AcDbEntity
  8
\U+FF77\U+FF6C\U+FF6F\U+FF8C\U+FF9F\U+FF8E\U+FF9E\U+FF99\U+FF84
100
AcDbLine
 10
5287.745170005331
 20
-3844.952631786268
 30
0.0
 11
5287.745170005331
 21
-3845.452631786268
 31
0.0
  0
LINE
  5
8061C
102
{ACAD_REACTORS
330
808CF
330
80B9A
102
}
330
18
100
AcDbEntity
  8
\U+FF77\U+FF6C\U+FF6F\U+FF8C\U+FF9F\U+FF8E\U+FF9E\U+FF99\U+FF84
100
AcDbLine
 10
5280.745170005332
 20
-3844.952631786268
 30
0.0
 11
5280.745170005332
 21
-3845.452631786268
 31
0.0
  0
LINE
  5
8061D
102
{ACAD_REACTORS
330
808CF
330
80B9A
102
}
330
18
100
AcDbEntity
  8
\U+FF77\U+FF6C\U+FF6F\U+FF8C\U+FF9F\U+FF8E\U+FF9E\U+FF99\U+FF84
100
AcDbLine
 10
5286.695170005333
 20
-3844.652631786265
 30
0.0
 11
5281.795170005331
 21
-3844.652631786265
 31
0.0
  0
LINE
  5
8061E
102
{ACAD_REACTORS
330
808CF
330
80B9A
102
}
330
18
100
AcDbEntity
  8
\U+FF77\U+FF6C\U+FF6F\U+FF8C\U+FF9F\U+FF8E\U+FF9E\U+FF99\U+FF84
100
AcDbLine
 10
5287.745170005331
 20
-3844.952631786268
 30
0.0
 11
5280.745170005332
 21
-3844.952631786268
 31
0.0
  0
LINE
  5
8061F
102
{ACAD_REACTORS
330
808CF
330
80B9A
102
}
330
18
100
AcDbEntity
  8
\U+FF77\U+FF6C\U+FF6F\U+FF8C\U+FF9F\U+FF8E\U+FF9E\U+FF99\U+FF84
100
AcDbLine
 10
5280.745170005332
 20
-3844.952631786268
 30
0.0
 11
5281.795170005331
 21
-3844.652631786265
 31
0.0
  0
LINE
  5
80620
102
{ACAD_REACTORS
330
808CF
330
80B9A
102
}
330
18
100
AcDbEntity
  8
\U+FF77\U+FF6C\U+FF6F\U+FF8C\U+FF9F\U+FF8E\U+FF9E\U+FF99\U+FF84
100
AcDbLine
 10
5518.199307372483
 20
-3845.452631786268
 30
0.0
 11
5511.199307372483
 21
-3845.452631786268
 31
0.0
  0
LINE
  5
80621
102
{ACAD_REACTORS
330
808CF
330
80B9A
102
}
330
18
100
AcDbEntity
  8
\U+FF77\U+FF6C\U+FF6F\U+FF8C\U+FF9F\U+FF8E\U+FF9E\U+FF99\U+FF84
100
AcDbLine
 10
5518.199307372483
 20
-3844.952631786268
 30
0.0
 11
5517.149307372483
 21
-3844.652631786265
 31
0.0
  0
LINE
  5
80622
102
{ACAD_REACTORS
330
808CF
330
80B9A
102
}
330
18
100
AcDbEntity
  8
\U+FF77\U+FF6C\U+FF6F\U+FF8C\U+FF9F\U+FF8E\U+FF9E\U+FF99\U+FF84
100
AcDbLine
 10
5518.199307372483
 20
-3844.952631786268
 30
0.0
 11
5518.199307372483
 21
-3845.452631786268
 31
0.0
  0
LINE
  5
80623
102
{ACAD_REACTORS
330
808CF
330
80B9A
102
}
330
18
100
AcDbEntity
  8
\U+FF77\U+FF6C\U+FF6F\U+FF8C\U+FF9F\U+FF8E\U+FF9E\U+FF99\U+FF84
100
AcDbLine
 10
5511.199307372483
 20
-3844.952631786268
 30
0.0
 11
5511.199307372483
 21
-3845.452631786268
 31
0.0
  0
LINE
  5
80624
102
{ACAD_REACTORS
330
808CF
330
80B9A
102
}
330
18
100
AcDbEntity
  8
\U+FF77\U+FF6C\U+FF6F\U+FF8C\U+FF9F\U+FF8E\U+FF9E\U+FF99\U+FF84
100
AcDbLine
 10
5511.199307372483
 20
-3844.952631786268
 30
0.0
 11
5512.249307372481
 21
-3844.652631786265
 31
0.0
  0
LINE
  5
80625
102
{ACAD_REACTORS
330
808CF
330
80B9A
102
}
330
18
100
AcDbEntity
  8
\U+FF77\U+FF6C\U+FF6F\U+FF8C\U+FF9F\U+FF8E\U+FF9E\U+FF99\U+FF84
100
AcDbLine
 10
5517.149307372483
 20
-3844.652631786265
 30
0.0
 11
5512.249307372481
 21
-3844.652631786265
 31
0.0
  0
LINE
  5
80626
102
{ACAD_REACTORS
330
808CF
330
80B9A
102
}
330
18
100
AcDbEntity
  8
\U+FF77\U+FF6C\U+FF6F\U+FF8C\U+FF9F\U+FF8E\U+FF9E\U+FF99\U+FF84
100
AcDbLine
 10
5518.199307372483
 20
-3844.952631786268
 30
0.0
 11
5511.199307372483
 21
-3844.952631786268
 31
0.0
  0
LINE
  5
80627
102
{ACAD_REACTORS
330
808CF
330
80B9A
102
}
330
18
100
AcDbEntity
  8
外形線
 48
0.5
100
AcDbLine
 10
5472.199313182256
 20
-3841.652631786271
 30
0.0
 11
5471.699313182256
 21
-3841.152631786271
 31
0.0
  0
LINE
  5
80628
102
{ACAD_REACTORS
330
808CF
330
80B9A
102
}
330
18
100
AcDbEntity
  8
外形線
 48
0.5
100
AcDbLine
 10
5310.199303645866
 20
-3841.652631786271
 30
0.0
 11
5310.699303645866
 21
-3841.152631786271
 31
0.0
  0
ARC
  5
80629
102
{ACAD_REACTORS
330
808CF
330
80B9A
102
}
330
18
100
AcDbEntity
  8
実線
 48
2.0
100
AcDbCircle
 10
5472.599313182257
 20
-3843.752631786272
 30
0.0
 40
0.4000000000000057
100
AcDbArc
 50
180.0
 51
270.0
  0
ARC
  5
8062A
102
{ACAD_REACTORS
330
808CF
330
80B9A
102
}
330
18
100
AcDbEntity
  8
実線
 48
2.0
100
AcDbCircle
 10
5309.799303645864
 20
-3843.752631786272
 30
0.0
 40
0.4000000000000057
100
AcDbArc
 50
270.0
 51
0.0
  0
LINE
  5
8063C
102
{ACAD_REACTORS
330
808CF
330
80B9A
102
}
330
18
100
AcDbEntity
  8
外形線
100
AcDbLine
 10
5518.199307372483
 20
-3879.152631786271
 30
0.0
 11
5266.199307372492
 21
-3879.152631786273
 31
0.0
  0
LINE
  5
8063D
102
{ACAD_REACTORS
330
808CF
330
80B9A
102
}
330
18
100
AcDbEntity
  8
外形線
100
AcDbLine
 10
5491.074229149663
 20
-3879.15263178627
 30
0.0
 11
5491.074229149663
 21
-3899.152631786272
 31
0.0
  0
LINE
  5
8063E
102
{ACAD_REACTORS
330
808CF
330
80B9A
102
}
330
18
100
AcDbEntity
  8
外形線
100
AcDbLine
 10
5291.324385595281
 20
-3879.152631786272
 30
0.0
 11
5291.324385595283
 21
-3899.152631786274
 31
0.0
  0
LINE
  5
8063F
102
{ACAD_REACTORS
330
808CF
330
80B9A
102
}
330
18
100
AcDbEntity
  8
外形線
100
AcDbLine
 10
5266.199307372492
 20
-3845.952632289991
 30
0.0
 11
5266.199307372492
 21
-3899.152631786274
 31
0.0
  0
LINE
  5
80640
102
{ACAD_REACTORS
330
808CF
330
80B9A
102
}
330
18
100
AcDbEntity
  8
外形線
 48
0.5
100
AcDbLine
 10
5518.199307372483
 20
-3846.452632289992
 30
0.0
 11
5517.699307372484
 21
-3845.952632289991
 31
0.0
  0
LINE
  5
80641
102
{ACAD_REACTORS
330
808CF
330
80B9A
102
}
330
18
100
AcDbEntity
  8
外形線
 48
0.5
100
AcDbLine
 10
5251.699307372476
 20
-3845.452631786269
 30
0.0
 11
5251.699307372476
 21
-3845.952632289991
 31
0.0
  0
LINE
  5
80642
102
{ACAD_REACTORS
330
808CF
330
80B9A
102
}
330
18
100
AcDbEntity
  8
外形線
 48
0.5
100
AcDbLine
 10
5251.199307372466
 20
-3846.452632289992
 30
0.0
 11
5251.699307372466
 21
-3845.952632289991
 31
0.0
  0
LINE
  5
80643
102
{ACAD_REACTORS
330
808CF
102
}
330
18
100
AcDbEntity
  8
中心線
100
AcDbLine
 10
5224.846980241871
 20
-3859.152632793718
 30
0.0
 11
5253.6899427879
 21
-3859.152632793718
 31
0.0
  0
LINE
  5
80649
102
{ACAD_REACTORS
330
808CF
330
80B9A
102
}
330
18
100
AcDbEntity
  8
センター線
 48
0.5
100
AcDbLine
 10
5466.199313182256
 20
-3839.4646346267
 30
0.0
 11
5466.199313182256
 21
-3853.020549756201
 31
0.0
  0
LINE
  5
8064A
102
{ACAD_REACTORS
330
808CF
330
80B9A
102
}
330
18
100
AcDbEntity
  8
中心線
100
AcDbLine
 10
5391.18009596451
 20
-3838.437518880044
 30
0.0
 11
5391.199308414061
 21
-3900.617774104648
 31
0.0
  0
LINE
  5
8064B
102
{ACAD_REACTORS
330
808CF
330
80B9A
102
}
330
18
100
AcDbEntity
  8
センター線
 48
0.5
100
AcDbLine
 10
5316.199303645866
 20
-3839.4646346267
 30
0.0
 11
5316.199303645866
 21
-3853.020549756201
 31
0.0
  0
LINE
  5
8064D
102
{ACAD_REACTORS
330
808CF
330
80B9A
102
}
330
18
100
AcDbEntity
  8
外形線
 48
0.5
100
AcDbLine
 10
5306.199303645866
 20
-3844.152631786271
 30
0.0
 11
5476.199303645866
 21
-3844.152631786271
 31
0.0
  0
LINE
  5
8064E
102
{ACAD_REACTORS
330
808CF
330
80B9A
102
}
330
18
100
AcDbEntity
  8
外形線
 48
0.5
100
AcDbLine
 10
5310.199303645864
 20
-3843.752631786272
 30
0.0
 11
5310.199303645866
 21
-3841.652631786271
 31
0.0
  0
LINE
  5
80655
102
{ACAD_REACTORS
330
808CF
330
80B9A
102
}
330
18
100
AcDbEntity
  8
外形線
100
AcDbLine
 10
5518.199307372483
 20
-3879.152631786271
 30
0.0
 11
5518.199307372483
 21
-3846.452632289992
 31
0.0
  0
LINE
  5
80656
102
{ACAD_REACTORS
330
808CF
330
80B9A
102
}
330
18
100
AcDbEntity
  8
外形線
 48
0.5
100
AcDbLine
 10
5472.199313182256
 20
-3841.652631786271
 30
0.0
 11
5472.199313182258
 21
-3843.752631786272
 31
0.0
  0
LINE
  5
80657
102
{ACAD_REACTORS
330
808CF
330
80B9A
102
}
330
18
100
AcDbEntity
  8
外形線
 48
0.5
100
AcDbLine
 10
5471.699313182256
 20
-3841.152631786271
 30
0.0
 11
5310.699303645866
 21
-3841.152631786271
 31
0.0
  0
LINE
  5
80658
102
{ACAD_REACTORS
330
808CF
330
80B9A
102
}
330
18
100
AcDbEntity
  8
外形線
 48
0.5
100
AcDbLine
 10
5476.199303645866
 20
-3844.152631786271
 30
0.0
 11
5476.199303645866
 21
-3845.452631786269
 31
0.0
  0
LINE
  5
80659
102
{ACAD_REACTORS
330
808CF
330
80B9A
102
}
330
18
100
AcDbEntity
  8
外形線
 48
0.5
100
AcDbLine
 10
5518.199307372483
 20
-3845.452631786268
 30
0.0
 11
5518.199307372483
 21
-3845.952631786268
 31
0.0
  0
LINE
  5
8065D
102
{ACAD_REACTORS
330
808CF
330
80B9A
102
}
330
18
100
AcDbEntity
  8
外形線
100
AcDbLine
 10
5516.199307372454
 20
-3899.152631786272
 30
0.0
 11
5451.199308414061
 21
-3899.152631786272
 31
0.0
  0
LINE
  5
8065E
102
{ACAD_REACTORS
330
808CF
330
80B9A
102
}
330
18
100
AcDbEntity
  8
外形線
 48
0.5
100
AcDbLine
 10
5306.199294109468
 20
-3844.152631786271
 30
0.0
 11
5306.199294109468
 21
-3845.452631786269
 31
0.0
  0
LINE
  5
8065F
102
{ACAD_REACTORS
330
808CF
330
80B9A
102
}
330
18
100
AcDbEntity
  8
外形線
 48
0.5
100
AcDbLine
 10
5251.699307372476
 20
-3845.452631786269
 30
0.0
 11
5518.199307372483
 21
-3845.45263178627
 31
0.0
  0
LINE
  5
80660
102
{ACAD_REACTORS
330
808CF
330
80B9A
102
}
330
18
100
AcDbEntity
  8
外形線
 48
0.5
100
AcDbLine
 10
5251.699307372466
 20
-3845.952632289991
 30
0.0
 11
5518.199307372483
 21
-3845.952632289991
 31
0.0
  0
LINE
  5
80661
102
{ACAD_REACTORS
330
808CF
330
80B9A
102
}
330
18
100
AcDbEntity
  8
\U+FF7A\U+FF88\U+FF78\U+FF80
100
AcDbLine
 10
5251.199308414067
 20
-3896.806431786271
 30
0.0
 11
5251.199308414067
 21
-3879.498831786271
 31
0.0
  0
LINE
  5
80662
102
{ACAD_REACTORS
330
808CF
330
80B9A
102
}
330
18
100
AcDbEntity
  8
外形線
100
AcDbLine
 10
5251.199307372466
 20
-3846.452632289992
 30
0.0
 11
5251.199307372472
 21
-3899.152631786273
 31
0.0
  0
LINE
  5
80663
102
{ACAD_REACTORS
330
808CF
102
}
330
18
100
AcDbEntity
  8
中心線
100
AcDbLine
 10
5253.68200104115
 20
-3888.156028870199
 30
0.0
 11
5224.846980241871
 21
-3888.156028870199
 31
0.0
  0
LINE
  5
80664
102
{ACAD_REACTORS
330
808CF
102
}
330
18
100
AcDbEntity
  8
\U+FF7A\U+FF88\U+FF78\U+FF80
100
AcDbLine
 10
5251.199308414067
 20
-3879.498831786271
 30
0.0
 11
5246.199308414066
 21
-3879.498831786271
 31
0.0
  0
LINE
  5
80665
102
{ACAD_REACTORS
330
808CF
102
}
330
18
100
AcDbEntity
  8
\U+FF7A\U+FF88\U+FF78\U+FF80
100
AcDbLine
 10
5251.199308414067
 20
-3883.065731786271
 30
0.0
 11
5246.199308414066
 21
-3883.065731786271
 31
0.0
  0
LINE
  5
80666
102
{ACAD_REACTORS
330
808CF
102
}
330
18
100
AcDbEntity
  8
\U+FF7A\U+FF88\U+FF78\U+FF80
100
AcDbLine
 10
5251.199308414067
 20
-3884.585731786271
 30
0.0
 11
5246.199308414066
 21
-3884.585731786271
 31
0.0
  0
LINE
  5
80667
102
{ACAD_REACTORS
330
808CF
102
}
330
18
100
AcDbEntity
  8
\U+FF7A\U+FF88\U+FF78\U+FF80
100
AcDbLine
 10
5251.199308414067
 20
-3893.239531786272
 30
0.0
 11
5246.199308414066
 21
-3893.239531786272
 31
0.0
  0
LINE
  5
80668
102
{ACAD_REACTORS
330
808CF
102
}
330
18
100
AcDbEntity
  8
\U+FF7A\U+FF88\U+FF78\U+FF80
100
AcDbLine
 10
5251.199308414067
 20
-3891.719531786272
 30
0.0
 11
5246.199308414066
 21
-3891.719531786272
 31
0.0
  0
LINE
  5
80669
102
{ACAD_REACTORS
330
808CF
102
}
330
18
100
AcDbEntity
  8
\U+FF7A\U+FF88\U+FF78\U+FF80
100
AcDbLine
 10
5251.199308414067
 20
-3896.806431786271
 30
0.0
 11
5246.199308414066
 21
-3896.806431786271
 31
0.0
  0
LINE
  5
8066A
102
{ACAD_REACTORS
330
808CF
102
}
330
18
100
AcDbEntity
  8
\U+FF7A\U+FF88\U+FF78\U+FF80
100
AcDbLine
 10
5241.199308414067
 20
-3879.498831786271
 30
0.0
 11
5233.199308414067
 21
-3879.498831786271
 31
0.0
  0
LINE
  5
8066B
102
{ACAD_REACTORS
330
808CF
102
}
330
18
100
AcDbEntity
  8
\U+FF7A\U+FF88\U+FF78\U+FF80
100
AcDbLine
 10
5246.199308414066
 20
-3882.152633047905
 30
0.0
 11
5241.199308414067
 21
-3882.152634309539
 31
0.0
  0
LINE
  5
8066C
102
{ACAD_REACTORS
330
808CF
102
}
330
18
100
AcDbEntity
  8
\U+FF7A\U+FF88\U+FF78\U+FF80
100
AcDbLine
 10
5246.199308414066
 20
-3894.152633047906
 30
0.0
 11
5241.199308414067
 21
-3894.152634309542
 31
0.0
  0
ARC
  5
8066D
102
{ACAD_REACTORS
330
808CF
102
}
330
18
100
AcDbEntity
  8
\U+FF7A\U+FF88\U+FF78\U+FF80
100
AcDbCircle
 10
5241.199308414067
 20
-3896.806431786271
 30
0.0
 40
8.0
100
AcDbArc
 50
153.5214655210359
 51
180.0
  0
LINE
  5
8066E
102
{ACAD_REACTORS
330
808CF
102
}
330
18
100
AcDbEntity
  8
\U+FF7A\U+FF88\U+FF78\U+FF80
100
AcDbLine
 10
5234.038496701
 20
-3883.065731786271
 30
0.0
 11
5234.038496701
 21
-3884.585731786271
 31
0.0
  0
LINE
  5
8066F
102
{ACAD_REACTORS
330
808CF
102
}
330
18
100
AcDbEntity
  8
\U+FF7A\U+FF88\U+FF78\U+FF80
100
AcDbLine
 10
5234.038496701
 20
-3891.719531786272
 30
0.0
 11
5234.038496701
 21
-3893.239531786272
 31
0.0
  0
ARC
  5
80670
102
{ACAD_REACTORS
330
808CF
102
}
330
18
100
AcDbEntity
  8
\U+FF7A\U+FF88\U+FF78\U+FF80
100
AcDbCircle
 10
5241.199308414067
 20
-3888.152631786271
 30
0.0
 40
8.0
100
AcDbArc
 50
153.5214655210359
 51
206.4785344789641
  0
LINE
  5
80671
102
{ACAD_REACTORS
330
808CF
102
}
330
18
100
AcDbEntity
  8
\U+FF7A\U+FF88\U+FF78\U+FF80
100
AcDbLine
 10
5241.199308414067
 20
-3884.585731786271
 30
0.0
 11
5234.038496701
 21
-3884.585731786271
 31
0.0
  0
LINE
  5
80672
102
{ACAD_REACTORS
330
808CF
102
}
330
18
100
AcDbEntity
  8
\U+FF7A\U+FF88\U+FF78\U+FF80
100
AcDbLine
 10
5241.199308414067
 20
-3883.065731786271
 30
0.0
 11
5234.038496701
 21
-3883.065731786271
 31
0.0
  0
LINE
  5
80673
102
{ACAD_REACTORS
330
808CF
102
}
330
18
100
AcDbEntity
  8
\U+FF7A\U+FF88\U+FF78\U+FF80
100
AcDbLine
 10
5241.199308414067
 20
-3893.239531786272
 30
0.0
 11
5234.038496701
 21
-3893.239531786272
 31
0.0
  0
LINE
  5
80674
102
{ACAD_REACTORS
330
808CF
102
}
330
18
100
AcDbEntity
  8
\U+FF7A\U+FF88\U+FF78\U+FF80
100
AcDbLine
 10
5241.199308414067
 20
-3891.719531786272
 30
0.0
 11
5234.038496701
 21
-3891.719531786272
 31
0.0
  0
LINE
  5
80675
102
{ACAD_REACTORS
330
808CF
102
}
330
18
100
AcDbEntity
  8
\U+FF7A\U+FF88\U+FF78\U+FF80
100
AcDbLine
 10
5241.199308414067
 20
-3896.806431786271
 30
0.0
 11
5233.199308414067
 21
-3896.806431786271
 31
0.0
  0
LINE
  5
8067A
102
{ACAD_REACTORS
330
808CF
102
}
330
18
100
AcDbEntity
  8
\U+FF7A\U+FF88\U+FF78\U+FF80
100
AcDbLine
 10
5229.199308414067
 20
-3893.450033261562
 30
0.0
 11
5229.199308414067
 21
-3882.85523031098
 31
0.0
  0
LINE
  5
8067B
102
{ACAD_REACTORS
330
808CF
102
}
330
18
100
AcDbEntity
  8
\U+FF7A\U+FF88\U+FF78\U+FF80
100
AcDbLine
 10
5233.199308414067
 20
-3896.806431786271
 30
0.0
 11
5229.199308414067
 21
-3893.450033261562
 31
0.0
  0
LINE
  5
8067C
102
{ACAD_REACTORS
330
808CF
102
}
330
18
100
AcDbEntity
  8
\U+FF7A\U+FF88\U+FF78\U+FF80
100
AcDbLine
 10
5246.199308414066
 20
-3896.806431786271
 30
0.0
 11
5246.199308414066
 21
-3879.498831786271
 31
0.0
  0
LINE
  5
8067D
102
{ACAD_REACTORS
330
808CF
102
}
330
18
100
AcDbEntity
  8
\U+FF7A\U+FF88\U+FF78\U+FF80
100
AcDbLine
 10
5241.199308414067
 20
-3896.806431786271
 30
0.0
 11
5241.199308414067
 21
-3879.498831786271
 31
0.0
  0
LINE
  5
8067E
102
{ACAD_REACTORS
330
808CF
102
}
330
18
100
AcDbEntity
  8
\U+FF7A\U+FF88\U+FF78\U+FF80
100
AcDbLine
 10
5233.199308414067
 20
-3879.498831786271
 30
0.0
 11
5229.199308414067
 21
-3882.85523031098
 31
0.0
  0
ARC
  5
8067F
102
{ACAD_REACTORS
330
808CF
102
}
330
18
100
AcDbEntity
  8
\U+FF7A\U+FF88\U+FF78\U+FF80
100
AcDbCircle
 10
5241.199308414067
 20
-3879.498831786271
 30
0.0
 40
8.0
100
AcDbArc
 50
180.0
 51
206.4785344789641
  0
LINE
  5
80680
102
{ACAD_REACTORS
330
808CF
102
}
330
18
100
AcDbEntity
  8
\U+FF7A\U+FF88\U+FF78\U+FF80
100
AcDbLine
 10
5233.199308414067
 20
-3896.806431786271
 30
0.0
 11
5233.199308414067
 21
-3879.498831786271
 31
0.0
  0
LINE
  5
80681
102
{ACAD_REACTORS
330
808CF
330
80B9A
102
}
330
18
100
AcDbEntity
  8
\U+FF7A\U+FF88\U+FF78\U+FF80
100
AcDbLine
 10
5251.199308414067
 20
-3879.498831786271
 30
0.0
 11
5251.199308414067
 21
-3896.806431786271
 31
0.0
  0
LINE
  5
80682
102
{ACAD_REACTORS
330
808CF
102
}
330
18
100
AcDbEntity
  8
\U+FF7A\U+FF88\U+FF78\U+FF80
100
AcDbLine
 10
5251.199307372472
 20
-3850.498832289999
 30
0.0
 11
5246.199307372472
 21
-3850.498832289999
 31
0.0
  0
LINE
  5
80685
102
{ACAD_REACTORS
330
808CF
102
}
330
18
100
AcDbEntity
  8
\U+FF7A\U+FF88\U+FF78\U+FF80
100
AcDbLine
 10
5246.199307372472
 20
-3867.806432289999
 30
0.0
 11
5246.199307372472
 21
-3850.498832289999
 31
0.0
  0
LINE
  5
80686
102
{ACAD_REACTORS
330
808CF
102
}
330
18
100
AcDbEntity
  8
\U+FF7A\U+FF88\U+FF78\U+FF80
100
AcDbLine
 10
5241.199307372472
 20
-3867.806432289999
 30
0.0
 11
5241.199307372472
 21
-3850.498832289999
 31
0.0
  0
LINE
  5
80687
102
{ACAD_REACTORS
330
808CF
102
}
330
18
100
AcDbEntity
  8
\U+FF7A\U+FF88\U+FF78\U+FF80
100
AcDbLine
 10
5229.199307372471
 20
-3864.450033765289
 30
0.0
 11
5229.199307372471
 21
-3853.855230814708
 31
0.0
  0
ARC
  5
80688
102
{ACAD_REACTORS
330
808CF
102
}
330
18
100
AcDbEntity
  8
\U+FF7A\U+FF88\U+FF78\U+FF80
100
AcDbCircle
 10
5241.199307372472
 20
-3859.152632289999
 30
0.0
 40
8.0
100
AcDbArc
 50
153.5214655209427
 51
206.4785344790573
  0
LINE
  5
80689
102
{ACAD_REACTORS
330
808CF
102
}
330
18
100
AcDbEntity
  8
\U+FF7A\U+FF88\U+FF78\U+FF80
100
AcDbLine
 10
5233.199307372472
 20
-3867.806432289999
 30
0.0
 11
5233.199307372472
 21
-3850.498832289999
 31
0.0
  0
LINE
  5
8068A
102
{ACAD_REACTORS
330
808CF
102
}
330
18
100
AcDbEntity
  8
\U+FF7A\U+FF88\U+FF78\U+FF80
100
AcDbLine
 10
5246.199307372472
 20
-3865.152633551633
 30
0.0
 11
5241.199307372472
 21
-3865.152634813268
 31
0.0
  0
LINE
  5
8068B
102
{ACAD_REACTORS
330
808CF
102
}
330
18
100
AcDbEntity
  8
\U+FF7A\U+FF88\U+FF78\U+FF80
100
AcDbLine
 10
5233.199307372472
 20
-3867.806432289999
 30
0.0
 11
5229.199307372471
 21
-3864.450033765289
 31
0.0
  0
LINE
  5
8068F
102
{ACAD_REACTORS
330
808CF
102
}
330
18
100
AcDbEntity
  8
\U+FF7A\U+FF88\U+FF78\U+FF80
100
AcDbLine
 10
5234.038495659405
 20
-3862.719532289998
 30
0.0
 11
5234.038495659405
 21
-3864.239532289999
 31
0.0
  0
LINE
  5
80690
102
{ACAD_REACTORS
330
808CF
102
}
330
18
100
AcDbEntity
  8
\U+FF7A\U+FF88\U+FF78\U+FF80
100
AcDbLine
 10
5241.199307372472
 20
-3864.239532289999
 30
0.0
 11
5234.038495659405
 21
-3864.239532289999
 31
0.0
  0
LINE
  5
80691
102
{ACAD_REACTORS
330
808CF
102
}
330
18
100
AcDbEntity
  8
\U+FF7A\U+FF88\U+FF78\U+FF80
100
AcDbLine
 10
5241.199307372472
 20
-3862.719532289998
 30
0.0
 11
5234.038495659405
 21
-3862.719532289998
 31
0.0
  0
LINE
  5
80692
102
{ACAD_REACTORS
330
808CF
102
}
330
18
100
AcDbEntity
  8
\U+FF7A\U+FF88\U+FF78\U+FF80
100
AcDbLine
 10
5241.199307372472
 20
-3867.806432289999
 30
0.0
 11
5233.199307372472
 21
-3867.806432289999
 31
0.0
  0
ARC
  5
80693
102
{ACAD_REACTORS
330
808CF
102
}
330
18
100
AcDbEntity
  8
\U+FF7A\U+FF88\U+FF78\U+FF80
100
AcDbCircle
 10
5241.199307372472
 20
-3867.806432289999
 30
0.0
 40
8.0
100
AcDbArc
 50
153.5214655209427
 51
180.0
  0
LINE
  5
80694
102
{ACAD_REACTORS
330
808CF
102
}
330
18
100
AcDbEntity
  8
\U+FF7A\U+FF88\U+FF78\U+FF80
100
AcDbLine
 10
5251.199307372472
 20
-3864.239532289999
 30
0.0
 11
5246.199307372472
 21
-3864.239532289999
 31
0.0
  0
LINE
  5
80695
102
{ACAD_REACTORS
330
808CF
102
}
330
18
100
AcDbEntity
  8
\U+FF7A\U+FF88\U+FF78\U+FF80
100
AcDbLine
 10
5251.199307372472
 20
-3862.719532289998
 30
0.0
 11
5246.199307372472
 21
-3862.719532289998
 31
0.0
  0
LINE
  5
80696
102
{ACAD_REACTORS
330
808CF
102
}
330
18
100
AcDbEntity
  8
\U+FF7A\U+FF88\U+FF78\U+FF80
100
AcDbLine
 10
5251.199307372472
 20
-3867.806432289999
 30
0.0
 11
5246.199307372472
 21
-3867.806432289999
 31
0.0
  0
ARC
  5
80697
102
{ACAD_REACTORS
330
808CF
102
}
330
18
100
AcDbEntity
  8
\U+FF7A\U+FF88\U+FF78\U+FF80
100
AcDbCircle
 10
5241.199307372472
 20
-3850.498832289999
 30
0.0
 40
8.0
100
AcDbArc
 50
180.0
 51
206.4785344790573
  0
LINE
  5
80698
102
{ACAD_REACTORS
330
808CF
102
}
330
18
100
AcDbEntity
  8
\U+FF7A\U+FF88\U+FF78\U+FF80
100
AcDbLine
 10
5233.199307372472
 20
-3850.498832289999
 30
0.0
 11
5229.199307372471
 21
-3853.855230814708
 31
0.0
  0
LINE
  5
8069B
102
{ACAD_REACTORS
330
808CF
102
}
330
18
100
AcDbEntity
  8
\U+FF7A\U+FF88\U+FF78\U+FF80
100
AcDbLine
 10
5234.038495659405
 20
-3854.065732289998
 30
0.0
 11
5234.038495659405
 21
-3855.58573229
 31
0.0
  0
LINE
  5
8069C
102
{ACAD_REACTORS
330
808CF
102
}
330
18
100
AcDbEntity
  8
\U+FF7A\U+FF88\U+FF78\U+FF80
100
AcDbLine
 10
5241.199307372472
 20
-3855.58573229
 30
0.0
 11
5234.038495659405
 21
-3855.58573229
 31
0.0
  0
LINE
  5
8069D
102
{ACAD_REACTORS
330
808CF
102
}
330
18
100
AcDbEntity
  8
\U+FF7A\U+FF88\U+FF78\U+FF80
100
AcDbLine
 10
5241.199307372472
 20
-3854.065732289998
 30
0.0
 11
5234.038495659405
 21
-3854.065732289998
 31
0.0
  0
LINE
  5
8069E
102
{ACAD_REACTORS
330
808CF
102
}
330
18
100
AcDbEntity
  8
\U+FF7A\U+FF88\U+FF78\U+FF80
100
AcDbLine
 10
5241.199307372472
 20
-3850.498832289999
 30
0.0
 11
5233.199307372472
 21
-3850.498832289999
 31
0.0
  0
LINE
  5
8069F
102
{ACAD_REACTORS
330
808CF
102
}
330
18
100
AcDbEntity
  8
\U+FF7A\U+FF88\U+FF78\U+FF80
100
AcDbLine
 10
5251.199307372472
 20
-3854.065732289998
 30
0.0
 11
5246.199307372472
 21
-3854.065732289998
 31
0.0
  0
LINE
  5
806A0
102
{ACAD_REACTORS
330
808CF
102
}
330
18
100
AcDbEntity
  8
\U+FF7A\U+FF88\U+FF78\U+FF80
100
AcDbLine
 10
5251.199307372472
 20
-3855.58573229
 30
0.0
 11
5246.199307372472
 21
-3855.58573229
 31
0.0
  0
LINE
  5
806A1
102
{ACAD_REACTORS
330
808CF
330
80B9A
102
}
330
18
100
AcDbEntity
  8
\U+FF7A\U+FF88\U+FF78\U+FF80
100
AcDbLine
 10
5251.199307372472
 20
-3850.498832289999
 30
0.0
 11
5251.199307372472
 21
-3867.806432289999
 31
0.0
  0
LINE
  5
806A2
102
{ACAD_REACTORS
330
808CF
102
}
330
18
100
AcDbEntity
  8
\U+FF7A\U+FF88\U+FF78\U+FF80
100
AcDbLine
 10
5246.199307372472
 20
-3853.152633551631
 30
0.0
 11
5241.199307372472
 21
-3853.152634813264
 31
0.0
  0
LINE
  5
806A4
102
{ACAD_REACTORS
330
808CE
330
808D6
102
}
330
18
100
AcDbEntity
  8
中心線
100
AcDbLine
 10
5525.482879550986
 20
-3601.847111061252
 30
0.0
 11
5210.660516525689
 21
-3601.847111061252
 31
0.0
  0
ARC
  5
806A5
102
{ACAD_REACTORS
330
808CE
330
808D6
102
}
330
18
100
AcDbEntity
  8
中心線
100
AcDbCircle
 10
5391.199307372474
 20
-3601.847111061253
 30
0.0
 40
142.0
100
AcDbArc
 50
35.00000000000006
 51
55.00000000000006
  0
ARC
  5
806A6
102
{ACAD_REACTORS
330
808CE
330
808D6
102
}
330
18
100
AcDbEntity
  8
中心線
100
AcDbCircle
 10
5391.199307372474
 20
-3601.847111061253
 30
0.0
 40
142.0
100
AcDbArc
 50
215.0
 51
235.0000000000001
  0
LINE
  5
806CD
102
{ACAD_REACTORS
330
808CE
330
808D6
102
}
330
18
100
AcDbEntity
  8
\U+FF7A\U+FF88\U+FF78\U+FF80
100
AcDbLine
 10
5251.199307372473
 20
-3593.193311061253
 30
0.0
 11
5251.199307372473
 21
-3610.500911061252
 31
0.0
  0
LINE
  5
806CF
102
{ACAD_REACTORS
330
808CE
330
808D6
102
}
330
18
100
AcDbEntity
  8
\U+FF7A\U+FF88\U+FF78\U+FF80
100
AcDbLine
 10
5246.199307372473
 20
-3595.847112322886
 30
0.0
 11
5241.199307372474
 21
-3595.84711358452
 31
0.0
  0
LINE
  5
806D0
102
{ACAD_REACTORS
330
808CE
330
808D6
102
}
330
18
100
AcDbEntity
  8
\U+FF7A\U+FF88\U+FF78\U+FF80
100
AcDbLine
 10
5246.199307372473
 20
-3607.84711232289
 30
0.0
 11
5241.199307372474
 21
-3607.847113584523
 31
0.0
  0
LINE
  5
806D1
102
{ACAD_REACTORS
330
808CE
330
808D6
102
}
330
18
100
AcDbEntity
  8
\U+FF7A\U+FF88\U+FF78\U+FF80
100
AcDbLine
 10
5241.199307372474
 20
-3598.280211061254
 30
0.0
 11
5234.038495659405
 21
-3598.280211061254
 31
0.0
  0
LINE
  5
806D2
102
{ACAD_REACTORS
330
808CE
330
808D6
102
}
330
18
100
AcDbEntity
  8
\U+FF7A\U+FF88\U+FF78\U+FF80
100
AcDbLine
 10
5241.199307372474
 20
-3596.760211061254
 30
0.0
 11
5234.038495659405
 21
-3596.760211061254
 31
0.0
  0
LINE
  5
806D3
102
{ACAD_REACTORS
330
808CE
330
808D6
102
}
330
18
100
AcDbEntity
  8
\U+FF7A\U+FF88\U+FF78\U+FF80
100
AcDbLine
 10
5241.199307372474
 20
-3606.934011061254
 30
0.0
 11
5234.038495659405
 21
-3606.934011061254
 31
0.0
  0
LINE
  5
806D4
102
{ACAD_REACTORS
330
808CE
330
808D6
102
}
330
18
100
AcDbEntity
  8
\U+FF7A\U+FF88\U+FF78\U+FF80
100
AcDbLine
 10
5241.199307372474
 20
-3605.414011061254
 30
0.0
 11
5234.038495659405
 21
-3605.414011061254
 31
0.0
  0
LINE
  5
806D5
102
{ACAD_REACTORS
330
808CE
330
808D6
102
}
330
18
100
AcDbEntity
  8
\U+FF7A\U+FF88\U+FF78\U+FF80
100
AcDbLine
 10
5241.199307372474
 20
-3610.500911061252
 30
0.0
 11
5233.199307372473
 21
-3610.500911061252
 31
0.0
  0
LINE
  5
806D6
102
{ACAD_REACTORS
330
808CE
330
808D6
102
}
330
18
100
AcDbEntity
  8
\U+FF7A\U+FF88\U+FF78\U+FF80
100
AcDbLine
 10
5241.199307372474
 20
-3593.193311061253
 30
0.0
 11
5233.199307372473
 21
-3593.193311061253
 31
0.0
  0
LINE
  5
806D7
102
{ACAD_REACTORS
330
808CE
330
808D6
102
}
330
18
100
AcDbEntity
  8
\U+FF7A\U+FF88\U+FF78\U+FF80
100
AcDbLine
 10
5233.199307372473
 20
-3593.193311061253
 30
0.0
 11
5229.199307372473
 21
-3596.549709585961
 31
0.0
  0
LINE
  5
806D8
102
{ACAD_REACTORS
330
808CE
330
808D6
102
}
330
18
100
AcDbEntity
  8
\U+FF7A\U+FF88\U+FF78\U+FF80
100
AcDbLine
 10
5233.199307372473
 20
-3610.500911061252
 30
0.0
 11
5229.199307372473
 21
-3607.144512536543
 31
0.0
  0
LINE
  5
806D9
102
{ACAD_REACTORS
330
808CE
330
808D6
102
}
330
18
100
AcDbEntity
  8
\U+FF7A\U+FF88\U+FF78\U+FF80
100
AcDbLine
 10
5229.199307372473
 20
-3607.144512536543
 30
0.0
 11
5229.199307372473
 21
-3596.549709585961
 31
0.0
  0
ARC
  5
806DA
102
{ACAD_REACTORS
330
808CE
330
808D6
102
}
330
18
100
AcDbEntity
  8
\U+FF7A\U+FF88\U+FF78\U+FF80
100
AcDbCircle
 10
5241.199307372474
 20
-3593.193311061253
 30
0.0
 40
8.0
100
AcDbArc
 50
180.0
 51
206.4785344790573
  0
ARC
  5
806DB
102
{ACAD_REACTORS
330
808CE
330
808D6
102
}
330
18
100
AcDbEntity
  8
\U+FF7A\U+FF88\U+FF78\U+FF80
100
AcDbCircle
 10
5241.199307372474
 20
-3610.500911061254
 30
0.0
 40
8.0
100
AcDbArc
 50
153.5214655209427
 51
180.0
  0
LINE
  5
806DC
102
{ACAD_REACTORS
330
808CE
330
808D6
102
}
330
18
100
AcDbEntity
  8
\U+FF7A\U+FF88\U+FF78\U+FF80
100
AcDbLine
 10
5233.199307372473
 20
-3610.500911061252
 30
0.0
 11
5233.199307372473
 21
-3593.193311061253
 31
0.0
  0
LINE
  5
806DD
102
{ACAD_REACTORS
330
808CE
330
808D6
102
}
330
18
100
AcDbEntity
  8
\U+FF7A\U+FF88\U+FF78\U+FF80
100
AcDbLine
 10
5234.038495659405
 20
-3596.760211061254
 30
0.0
 11
5234.038495659405
 21
-3598.280211061254
 31
0.0
  0
LINE
  5
806DE
102
{ACAD_REACTORS
330
808CE
330
808D6
102
}
330
18
100
AcDbEntity
  8
\U+FF7A\U+FF88\U+FF78\U+FF80
100
AcDbLine
 10
5234.038495659405
 20
-3605.414011061254
 30
0.0
 11
5234.038495659405
 21
-3606.934011061254
 31
0.0
  0
ARC
  5
806DF
102
{ACAD_REACTORS
330
808CE
330
808D6
102
}
330
18
100
AcDbEntity
  8
\U+FF7A\U+FF88\U+FF78\U+FF80
100
AcDbCircle
 10
5241.199307372474
 20
-3601.847111061253
 30
0.0
 40
8.0
100
AcDbArc
 50
153.5214655209427
 51
206.4785344790573
  0
LINE
  5
806E0
102
{ACAD_REACTORS
330
808CE
330
808D6
102
}
330
18
100
AcDbEntity
  8
\U+FF7A\U+FF88\U+FF78\U+FF80
100
AcDbLine
 10
5241.199307372474
 20
-3610.500911061252
 30
0.0
 11
5241.199307372474
 21
-3593.193311061253
 31
0.0
  0
LINE
  5
806E1
102
{ACAD_REACTORS
330
808CE
330
808D6
102
}
330
18
100
AcDbEntity
  8
\U+FF7A\U+FF88\U+FF78\U+FF80
100
AcDbLine
 10
5246.199307372473
 20
-3610.500911061252
 30
0.0
 11
5246.199307372473
 21
-3593.193311061253
 31
0.0
  0
LINE
  5
806E2
102
{ACAD_REACTORS
330
808CE
330
808D6
102
}
330
18
100
AcDbEntity
  8
\U+FF7A\U+FF88\U+FF78\U+FF80
100
AcDbLine
 10
5251.199307372473
 20
-3596.760211061254
 30
0.0
 11
5246.199307372473
 21
-3596.760211061254
 31
0.0
  0
LINE
  5
806E3
102
{ACAD_REACTORS
330
808CE
330
808D6
102
}
330
18
100
AcDbEntity
  8
\U+FF7A\U+FF88\U+FF78\U+FF80
100
AcDbLine
 10
5251.199307372473
 20
-3598.280211061254
 30
0.0
 11
5246.199307372473
 21
-3598.280211061254
 31
0.0
  0
LINE
  5
806E4
102
{ACAD_REACTORS
330
808CE
330
808D6
102
}
330
18
100
AcDbEntity
  8
\U+FF7A\U+FF88\U+FF78\U+FF80
100
AcDbLine
 10
5251.199307372473
 20
-3606.934011061254
 30
0.0
 11
5246.199307372473
 21
-3606.934011061254
 31
0.0
  0
LINE
  5
806E5
102
{ACAD_REACTORS
330
808CE
330
808D6
102
}
330
18
100
AcDbEntity
  8
\U+FF7A\U+FF88\U+FF78\U+FF80
100
AcDbLine
 10
5251.199307372473
 20
-3605.414011061254
 30
0.0
 11
5246.199307372473
 21
-3605.414011061254
 31
0.0
  0
LINE
  5
806E6
102
{ACAD_REACTORS
330
808CE
330
808D6
102
}
330
18
100
AcDbEntity
  8
\U+FF7A\U+FF88\U+FF78\U+FF80
100
AcDbLine
 10
5251.199307372473
 20
-3610.500911061252
 30
0.0
 11
5246.199307372473
 21
-3610.500911061252
 31
0.0
  0
LINE
  5
806E7
102
{ACAD_REACTORS
330
808CE
330
808D6
102
}
330
18
100
AcDbEntity
  8
\U+FF7A\U+FF88\U+FF78\U+FF80
100
AcDbLine
 10
5251.199307372473
 20
-3593.193311061253
 30
0.0
 11
5246.199307372473
 21
-3593.193311061253
 31
0.0
  0
LINE
  5
806E8
102
{ACAD_REACTORS
330
808CE
330
808D6
102
}
330
18
100
AcDbEntity
  8
中心線
100
AcDbLine
 10
5279.131566148245
 20
-3489.779369837023
 30
0.0
 11
5302.448722739722
 21
-3513.096526428501
 31
0.0
  0
ARC
  5
806E9
102
{ACAD_REACTORS
330
808CE
330
808D6
102
}
330
18
100
AcDbEntity
  8
実線
100
AcDbCircle
 10
5261.19930737247
 20
-3537.62094816793
 30
0.0
 40
5.0
100
AcDbArc
 50
333.7084447252311
 51
0.0
  0
ARC
  5
806EA
102
{ACAD_REACTORS
330
808CE
330
808D6
102
}
330
18
100
AcDbEntity
  8
実線
100
AcDbCircle
 10
5261.199307372473
 20
-3666.073273954579
 30
0.0
 40
5.0
100
AcDbArc
 50
0.0
 51
26.29155527476891
  0
ARC
  5
806EB
102
{ACAD_REACTORS
330
808CE
330
808D6
102
}
330
18
100
AcDbEntity
  8
実線
100
AcDbCircle
 10
5269.873300267648
 20
-3684.847111061253
 30
0.0
 40
20.0
100
AcDbArc
 50
34.3763137236152
 51
90.0
  0
ARC
  5
806EC
102
{ACAD_REACTORS
330
808CE
330
808D6
102
}
330
18
100
AcDbEntity
  8
実線
100
AcDbCircle
 10
5269.873300267648
 20
-3518.847111061249
 30
0.0
 40
20.0
100
AcDbArc
 50
270.0
 51
325.6236862763848
  0
ARC
  5
806ED
102
{ACAD_REACTORS
330
808CE
330
808D6
102
}
330
18
100
AcDbEntity
  8
実線
100
AcDbCircle
 10
5391.199307372474
 20
-3601.847111061253
 30
0.0
 40
140.0
100
AcDbArc
 50
153.7084447252311
 51
206.2915552747687
  0
LINE
  5
806EE
102
{ACAD_REACTORS
330
808CE
330
808D6
102
}
330
18
100
AcDbEntity
  8
実線
100
AcDbLine
 10
5269.873300267648
 20
-3538.847111061252
 30
0.0
 11
5266.046628752268
 21
-3538.847111061254
 31
0.0
  0
LINE
  5
806EF
102
{ACAD_REACTORS
330
808CE
330
808D6
102
}
330
18
100
AcDbEntity
  8
実線
100
AcDbLine
 10
5269.873300267648
 20
-3664.847111061252
 30
0.0
 11
5266.046628752268
 21
-3664.84711106125
 31
0.0
  0
LINE
  5
806F0
102
{ACAD_REACTORS
330
808CE
330
808D6
102
}
330
18
100
AcDbEntity
  8
中心線
100
AcDbLine
 10
5302.448722739722
 20
-3690.597695694004
 30
0.0
 11
5279.131566148243
 21
-3713.91485228548
 31
0.0
  0
ARC
  5
806F1
102
{ACAD_REACTORS
330
808CE
330
808D6
102
}
330
18
100
AcDbEntity
  8
中心線
100
AcDbCircle
 10
5391.199307372474
 20
-3601.847111061253
 30
0.0
 40
142.0
100
AcDbArc
 50
125.0
 51
145.0
  0
ARC
  5
806F2
102
{ACAD_REACTORS
330
808CE
330
808D6
102
}
330
18
100
AcDbEntity
  8
中心線
100
AcDbCircle
 10
5391.199307372474
 20
-3601.847111061253
 30
0.0
 40
142.0
100
AcDbArc
 50
304.9999999999998
 51
324.9999999999999
  0
CIRCLE
  5
806F3
102
{ACAD_REACTORS
330
808CE
330
808D6
102
}
330
18
100
AcDbEntity
  8
実線
100
AcDbCircle
 10
5290.790144443985
 20
-3501.437948132761
 30
0.0
 40
6.5
  0
CIRCLE
  5
806F4
102
{ACAD_REACTORS
330
808CE
330
808D6
102
}
330
18
100
AcDbEntity
  8
実線
100
AcDbCircle
 10
5290.790144443971
 20
-3501.437948132771
 30
0.0
 40
12.5
  0
CIRCLE
  5
806F5
102
{ACAD_REACTORS
330
808CE
330
808D6
102
}
330
18
100
AcDbEntity
  8
実線
100
AcDbCircle
 10
5290.790144443985
 20
-3702.256273989741
 30
0.0
 40
6.5
  0
CIRCLE
  5
806F6
102
{ACAD_REACTORS
330
808CE
330
808D6
102
}
330
18
100
AcDbEntity
  8
実線
100
AcDbCircle
 10
5290.790144443971
 20
-3702.25627398973
 30
0.0
 40
12.5
  0
CIRCLE
  5
806F7
102
{ACAD_REACTORS
330
808CE
330
808D6
102
}
330
18
100
AcDbEntity
  8
実線
100
AcDbCircle
 10
5491.608470300974
 20
-3501.437948132771
 30
0.0
 40
12.5
  0
CIRCLE
  5
806F8
102
{ACAD_REACTORS
330
808CE
330
808D6
102
}
330
18
100
AcDbEntity
  8
実線
100
AcDbCircle
 10
5491.608470300961
 20
-3501.437948132761
 30
0.0
 40
6.5
  0
CIRCLE
  5
806F9
102
{ACAD_REACTORS
330
808CE
330
808D6
102
}
330
18
100
AcDbEntity
  8
実線
100
AcDbCircle
 10
5491.608470300974
 20
-3702.25627398973
 30
0.0
 40
12.5
  0
CIRCLE
  5
806FA
102
{ACAD_REACTORS
330
808CE
330
808D6
102
}
330
18
100
AcDbEntity
  8
実線
100
AcDbCircle
 10
5491.608470300961
 20
-3702.256273989741
 30
0.0
 40
6.5
  0
LINE
  5
806FB
102
{ACAD_REACTORS
330
808CE
330
808D6
102
}
330
18
100
AcDbEntity
  8
中心線
100
AcDbLine
 10
5503.267048596701
 20
-3489.779369837023
 30
0.0
 11
5479.949892005223
 21
-3513.096526428501
 31
0.0
  0
LINE
  5
806FC
102
{ACAD_REACTORS
330
808CE
330
808D6
102
}
330
18
100
AcDbEntity
  8
実線
100
AcDbLine
 10
5368.749363051821
 20
-3476.847111061255
 30
0.0
 11
5291.324385595281
 21
-3476.847111061255
 31
0.0
  0
LINE
  5
806FD
102
{ACAD_REACTORS
330
808CE
330
808D6
102
}
330
18
100
AcDbEntity
  8
実線
100
AcDbLine
 10
5516.199307372474
 20
-3579.397166740606
 30
0.0
 11
5516.199307372474
 21
-3501.972189284062
 31
0.0
  0
LINE
  5
806FE
102
{ACAD_REACTORS
330
808CE
330
808D6
102
}
330
18
100
AcDbEntity
  8
実線
100
AcDbLine
 10
5368.749363051828
 20
-3726.847111061252
 30
0.0
 11
5291.324385595281
 21
-3726.847111061252
 31
0.0
  0
LINE
  5
806FF
102
{ACAD_REACTORS
330
808CE
330
808D6
102
}
330
18
100
AcDbEntity
  8
実線
100
AcDbLine
 10
5266.19930737247
 20
-3537.620948167931
 30
0.0
 11
5266.199307372474
 21
-3501.972189284062
 31
0.0
  0
ARC
  5
80700
102
{ACAD_REACTORS
330
808CE
330
808D6
102
}
330
18
100
AcDbEntity
  8
実線
100
AcDbCircle
 10
5391.199307372474
 20
-3601.847111061253
 30
0.0
 40
160.0
100
AcDbArc
 50
218.6248328730633
 51
231.3751671269369
  0
ARC
  5
80701
102
{ACAD_REACTORS
330
808CE
330
808D6
102
}
330
18
100
AcDbEntity
  8
実線
100
AcDbCircle
 10
5391.199307372474
 20
-3601.847111061253
 30
0.0
 40
160.0
100
AcDbArc
 50
128.6248328730631
 51
141.3751671269366
  0
ARC
  5
80702
102
{ACAD_REACTORS
330
808CE
330
808D6
102
}
330
18
100
AcDbEntity
  8
実線
100
AcDbCircle
 10
5391.199307372474
 20
-3601.847111061253
 30
0.0
 40
160.0
100
AcDbArc
 50
38.6248328730633
 51
51.37516712693692
  0
ARC
  5
80703
102
{ACAD_REACTORS
330
808CE
330
808D6
102
}
330
18
100
AcDbEntity
  8
実線
100
AcDbCircle
 10
5391.199307372474
 20
-3601.847111061253
 30
0.0
 40
160.0
100
AcDbArc
 50
308.6248328730631
 51
321.3751671269367
  0
LINE
  5
80704
102
{ACAD_REACTORS
330
808CE
330
808D6
102
}
330
18
100
AcDbEntity
  8
実線
100
AcDbLine
 10
5266.199307372474
 20
-3701.722032838443
 30
0.0
 11
5266.199307372474
 21
-3666.073273954579
 31
0.0
  0
LINE
  5
80705
102
{ACAD_REACTORS
330
808CE
330
808D6
102
}
330
18
100
AcDbEntity
  8
実線
100
AcDbLine
 10
5491.074229149663
 20
-3476.847111061252
 30
0.0
 11
5413.64925169312
 21
-3476.847111061252
 31
0.0
  0
LINE
  5
80706
102
{ACAD_REACTORS
330
808CE
330
808D6
102
}
330
18
100
AcDbEntity
  8
実線
100
AcDbLine
 10
5491.074229149663
 20
-3726.847111061252
 30
0.0
 11
5413.649251693117
 21
-3726.847111061252
 31
0.0
  0
LINE
  5
80707
102
{ACAD_REACTORS
330
808CE
330
808D6
102
}
330
18
100
AcDbEntity
  8
実線
100
AcDbLine
 10
5516.199307372474
 20
-3701.722032838443
 30
0.0
 11
5516.199307372474
 21
-3624.297055381898
 31
0.0
  0
ARC
  5
80708
102
{ACAD_REACTORS
330
808CE
330
808D6
102
}
330
18
100
AcDbEntity
  8
実線
100
AcDbCircle
 10
5391.199307372474
 20
-3601.847111061253
 30
0.0
 40
127.0
100
AcDbArc
 50
214.376313723616
 51
145.6236862763839
  0
CIRCLE
  5
8070A
102
{ACAD_REACTORS
330
808CE
330
808D6
102
}
330
18
100
AcDbEntity
  8
実線
100
AcDbCircle
 10
5391.199307372474
 20
-3601.847111061253
 30
0.0
 40
68.0
  0
CIRCLE
  5
8070B
102
{ACAD_REACTORS
330
808CE
330
808D6
102
}
330
18
100
AcDbEntity
  8
中心線
100
AcDbCircle
 10
5391.199307372474
 20
-3601.847111061253
 30
0.0
 40
75.0
  0
CIRCLE
  5
8070C
102
{ACAD_REACTORS
330
808CE
330
808D6
102
}
330
18
100
AcDbEntity
  8
細線
 48
0.5
100
AcDbCircle
 10
5316.199307372474
 20
-3601.847111061253
 30
0.0
 40
3.0
  0
CIRCLE
  5
8070D
102
{ACAD_REACTORS
330
808CE
330
808D6
102
}
330
18
100
AcDbEntity
  8
実線
100
AcDbCircle
 10
5316.199307372474
 20
-3601.847111061253
 30
0.0
 40
2.5
  0
CIRCLE
  5
8070E
102
{ACAD_REACTORS
330
808CE
330
808D6
102
}
330
18
100
AcDbEntity
  8
実線
100
AcDbCircle
 10
5353.699307372473
 20
-3666.799016345084
 30
0.0
 40
2.5
  0
CIRCLE
  5
8070F
102
{ACAD_REACTORS
330
808CE
330
808D6
102
}
330
18
100
AcDbEntity
  8
細線
 48
0.5
100
AcDbCircle
 10
5353.699307372473
 20
-3666.799016345084
 30
0.0
 40
3.0
  0
CIRCLE
  5
80710
102
{ACAD_REACTORS
330
808CE
330
808D6
102
}
330
18
100
AcDbEntity
  8
実線
100
AcDbCircle
 10
5428.699307372471
 20
-3666.799016345082
 30
0.0
 40
2.5
  0
CIRCLE
  5
80711
102
{ACAD_REACTORS
330
808CE
330
808D6
102
}
330
18
100
AcDbEntity
  8
細線
 48
0.5
100
AcDbCircle
 10
5428.699307372471
 20
-3666.799016345082
 30
0.0
 40
3.0
  0
CIRCLE
  5
80712
102
{ACAD_REACTORS
330
808CE
330
808D6
102
}
330
18
100
AcDbEntity
  8
実線
100
AcDbCircle
 10
5466.199307372471
 20
-3601.847111061252
 30
0.0
 40
2.5
  0
CIRCLE
  5
80713
102
{ACAD_REACTORS
330
808CE
330
808D6
102
}
330
18
100
AcDbEntity
  8
細線
 48
0.5
100
AcDbCircle
 10
5466.199307372471
 20
-3601.847111061252
 30
0.0
 40
3.0
  0
CIRCLE
  5
80714
102
{ACAD_REACTORS
330
808CE
330
808D6
102
}
330
18
100
AcDbEntity
  8
実線
100
AcDbCircle
 10
5428.699307372468
 20
-3536.89520577742
 30
0.0
 40
2.5
  0
CIRCLE
  5
80715
102
{ACAD_REACTORS
330
808CE
330
808D6
102
}
330
18
100
AcDbEntity
  8
細線
 48
0.5
100
AcDbCircle
 10
5428.699307372468
 20
-3536.89520577742
 30
0.0
 40
3.0
  0
CIRCLE
  5
80716
102
{ACAD_REACTORS
330
808CE
330
808D6
102
}
330
18
100
AcDbEntity
  8
実線
100
AcDbCircle
 10
5353.699307372474
 20
-3536.89520577742
 30
0.0
 40
2.5
  0
CIRCLE
  5
80717
102
{ACAD_REACTORS
330
808CE
330
808D6
102
}
330
18
100
AcDbEntity
  8
細線
 48
0.5
100
AcDbCircle
 10
5353.699307372474
 20
-3536.89520577742
 30
0.0
 40
3.0
  0
CIRCLE
  5
80718
102
{ACAD_REACTORS
330
808CE
330
808D6
102
}
330
18
100
AcDbEntity
  8
実線
100
AcDbCircle
 10
5391.199307372474
 20
-3601.847111061253
 30
0.0
 40
81.0
  0
CIRCLE
  5
80719
102
{ACAD_REACTORS
330
808CE
330
808D6
102
}
330
18
100
AcDbEntity
  8
実線
100
AcDbCircle
 10
5391.199307372474
 20
-3601.847111061253
 30
0.0
 40
85.0
  0
LINE
  5
8071A
102
{ACAD_REACTORS
330
808CE
330
808D6
102
}
330
18
100
AcDbEntity
  8
中心線
100
AcDbLine
 10
5351.455131028507
 20
-3533.008178328524
 30
0.0
 11
5355.943483716441
 21
-3540.782233226315
 31
0.0
  0
LINE
  5
8071B
102
{ACAD_REACTORS
330
808CE
330
808D6
102
}
330
18
100
AcDbEntity
  8
中心線
100
AcDbLine
 10
5311.71095468454
 20
-3601.84711106125
 30
0.0
 11
5320.687660060409
 21
-3601.847111061251
 31
0.0
  0
LINE
  5
8071C
102
{ACAD_REACTORS
330
808CE
330
808D6
102
}
330
18
100
AcDbEntity
  8
中心線
100
AcDbLine
 10
5351.455131028504
 20
-3670.686043793978
 30
0.0
 11
5355.943483716441
 21
-3662.911988896187
 31
0.0
  0
LINE
  5
8071D
102
{ACAD_REACTORS
330
808CE
330
808D6
102
}
330
18
100
AcDbEntity
  8
中心線
100
AcDbLine
 10
5430.943483716436
 20
-3670.68604379398
 30
0.0
 11
5426.455131028504
 21
-3662.911988896187
 31
0.0
  0
LINE
  5
8071E
102
{ACAD_REACTORS
330
808CE
330
808D6
102
}
330
18
100
AcDbEntity
  8
中心線
100
AcDbLine
 10
5470.687660060406
 20
-3601.847111061255
 30
0.0
 11
5461.710954684536
 21
-3601.847111061252
 31
0.0
  0
LINE
  5
8071F
102
{ACAD_REACTORS
330
808CE
330
808D6
102
}
330
18
100
AcDbEntity
  8
中心線
100
AcDbLine
 10
5430.943483716442
 20
-3533.008178328525
 30
0.0
 11
5426.455131028505
 21
-3540.782233226315
 31
0.0
  0
ARC
  5
80720
102
{ACAD_REACTORS
330
808CE
330
808D6
102
}
330
18
100
AcDbEntity
  8
実線
100
AcDbCircle
 10
5391.199307371312
 20
-3601.847111060902
 30
0.0
 40
127.0
100
AcDbArc
 50
213.9053859125558
 51
146.0946140878202
  0
CIRCLE
  5
80721
102
{ACAD_REACTORS
330
808CE
330
808D6
102
}
330
18
100
AcDbEntity
  8
実線
100
AcDbCircle
 10
5391.199307372474
 20
-3601.847111061262
 30
0.0
 40
85.5
  0
ARC
  5
80722
102
{ACAD_REACTORS
330
808CE
330
808D6
102
}
330
18
100
AcDbEntity
  8
実線
100
AcDbCircle
 10
5391.199307372477
 20
-3601.847111061811
 30
0.0
 40
139.5
100
AcDbArc
 50
153.8684749057058
 51
206.1315250937812
  0
ARC
  5
80723
102
{ACAD_REACTORS
330
808CE
330
808D6
102
}
330
18
100
AcDbEntity
  8
実線
100
AcDbCircle
 10
5269.195209079743
 20
-3683.847111061276
 30
0.0
 40
20.0
100
AcDbArc
 50
33.90538591255638
 51
89.99999999989578
  0
LINE
  5
80724
102
{ACAD_REACTORS
330
808CE
330
808D6
102
}
330
18
100
AcDbEntity
  8
実線
100
AcDbLine
 10
5266.85603252391
 20
-3663.847111061274
 30
0.0
 11
5269.195209079756
 21
-3663.847111061276
 31
0.0
  0
ARC
  5
80725
102
{ACAD_REACTORS
330
808CE
330
808D6
102
}
330
18
100
AcDbEntity
  8
実線
100
AcDbCircle
 10
5266.856032523911
 20
-3662.847111061273
 30
0.0
 40
1.0
100
AcDbArc
 50
206.1315250937812
 51
269.9999999998957
  0
ARC
  5
80726
102
{ACAD_REACTORS
330
808CE
330
808D6
102
}
330
18
100
AcDbEntity
  8
実線
100
AcDbCircle
 10
5269.195209079255
 20
-3519.847111061251
 30
0.0
 40
20.0
100
AcDbArc
 50
270.0
 51
326.0946140878197
  0
ARC
  5
80727
102
{ACAD_REACTORS
330
808CE
330
808D6
102
}
330
18
100
AcDbEntity
  8
実線
100
AcDbCircle
 10
5266.85603252445
 20
-3540.847111061251
 30
0.0
 40
1.0
100
AcDbArc
 50
90.0
 51
153.8684749057058
  0
LINE
  5
80728
102
{ACAD_REACTORS
330
808CE
330
808D6
102
}
330
18
100
AcDbEntity
  8
実線
100
AcDbLine
 10
5266.856032524447
 20
-3539.84711106125
 30
0.0
 11
5269.195209079252
 21
-3539.84711106125
 31
0.0
  0
CIRCLE
  5
80729
102
{ACAD_REACTORS
330
808CE
330
808D6
102
}
330
18
100
AcDbEntity
  8
\U+FF77\U+FF6C\U+FF6F\U+FF8C\U+FF9F\U+FF8E\U+FF9E\U+FF99\U+FF84
100
AcDbCircle
 10
5514.699307372484
 20
-3601.847111061796
 30
0.0
 40
3.5
  0
ARC
  5
8072A
102
{ACAD_REACTORS
330
808CE
330
808D6
102
}
330
18
100
AcDbEntity
  8
\U+FF77\U+FF6C\U+FF6F\U+FF8C\U+FF9F\U+FF8E\U+FF9E\U+FF99\U+FF84
100
AcDbCircle
 10
5513.747302783996
 20
-3601.847111061797
 30
0.0
 40
0.3170045884846654
100
AcDbArc
 50
314.6530614095959
 51
45.34693859040408
  0
CIRCLE
  5
8072B
102
{ACAD_REACTORS
330
808CE
330
808D6
102
}
330
18
100
AcDbEntity
  8
\U+FF77\U+FF6C\U+FF6F\U+FF8C\U+FF9F\U+FF8E\U+FF9E\U+FF99\U+FF84
100
AcDbCircle
 10
5514.699307372484
 20
-3601.847111061796
 30
0.0
 40
0.875
  0
ARC
  5
8072C
102
{ACAD_REACTORS
330
808CE
330
808D6
102
}
330
18
100
AcDbEntity
  8
\U+FF77\U+FF6C\U+FF6F\U+FF8C\U+FF9F\U+FF8E\U+FF9E\U+FF99\U+FF84
100
AcDbCircle
 10
5514.093089589835
 20
-3601.497111061795
 30
0.0
 40
0.175
100
AcDbArc
 50
74.65306140976245
 51
225.3469385904496
  0
ARC
  5
8072D
102
{ACAD_REACTORS
330
808CE
330
808D6
102
}
330
18
100
AcDbEntity
  8
\U+FF77\U+FF6C\U+FF6F\U+FF8C\U+FF9F\U+FF8E\U+FF9E\U+FF99\U+FF84
100
AcDbCircle
 10
5514.093089589834
 20
-3602.197111061796
 30
0.0
 40
0.175
100
AcDbArc
 50
134.6530614095503
 51
285.3469385902375
  0
ARC
  5
8072E
102
{ACAD_REACTORS
330
808CE
330
808D6
102
}
330
18
100
AcDbEntity
  8
\U+FF77\U+FF6C\U+FF6F\U+FF8C\U+FF9F\U+FF8E\U+FF9E\U+FF99\U+FF84
100
AcDbCircle
 10
5514.223305078239
 20
-3602.671571219942
 30
0.0
 40
0.3170045884846654
100
AcDbArc
 50
14.65306140975972
 51
105.3469385903166
  0
ARC
  5
8072F
102
{ACAD_REACTORS
330
808CE
330
808D6
102
}
330
18
100
AcDbEntity
  8
\U+FF77\U+FF6C\U+FF6F\U+FF8C\U+FF9F\U+FF8E\U+FF9E\U+FF99\U+FF84
100
AcDbCircle
 10
5515.175309666724
 20
-3602.671571219942
 30
0.0
 40
0.3170045884846654
100
AcDbArc
 50
74.6530614096834
 51
165.3469385902403
  0
ARC
  5
80730
102
{ACAD_REACTORS
330
808CE
330
808D6
102
}
330
18
100
AcDbEntity
  8
\U+FF77\U+FF6C\U+FF6F\U+FF8C\U+FF9F\U+FF8E\U+FF9E\U+FF99\U+FF84
100
AcDbCircle
 10
5515.651311960967
 20
-3601.847111061796
 30
0.0
 40
0.3170045884846654
100
AcDbArc
 50
134.6530614095959
 51
225.3469385904041
  0
ARC
  5
80731
102
{ACAD_REACTORS
330
808CE
330
808D6
102
}
330
18
100
AcDbEntity
  8
\U+FF77\U+FF6C\U+FF6F\U+FF8C\U+FF9F\U+FF8E\U+FF9E\U+FF99\U+FF84
100
AcDbCircle
 10
5515.175309666727
 20
-3601.02265090365
 30
0.0
 40
0.3170045884846654
100
AcDbArc
 50
194.6530614097597
 51
285.3469385903166
  0
ARC
  5
80732
102
{ACAD_REACTORS
330
808CE
330
808D6
102
}
330
18
100
AcDbEntity
  8
\U+FF77\U+FF6C\U+FF6F\U+FF8C\U+FF9F\U+FF8E\U+FF9E\U+FF99\U+FF84
100
AcDbCircle
 10
5514.223305078239
 20
-3601.02265090365
 30
0.0
 40
0.3170045884846654
100
AcDbArc
 50
254.6530614096834
 51
345.3469385902403
  0
ARC
  5
80733
102
{ACAD_REACTORS
330
808CE
330
808D6
102
}
330
18
100
AcDbEntity
  8
\U+FF77\U+FF6C\U+FF6F\U+FF8C\U+FF9F\U+FF8E\U+FF9E\U+FF99\U+FF84
100
AcDbCircle
 10
5514.699307372484
 20
-3601.147111061794
 30
0.0
 40
0.175
100
AcDbArc
 50
14.65306140964837
 51
165.3469385903516
  0
ARC
  5
80734
102
{ACAD_REACTORS
330
808CE
330
808D6
102
}
330
18
100
AcDbEntity
  8
\U+FF77\U+FF6C\U+FF6F\U+FF8C\U+FF9F\U+FF8E\U+FF9E\U+FF99\U+FF84
100
AcDbCircle
 10
5514.699307372484
 20
-3602.547111061795
 30
0.0
 40
0.175
100
AcDbArc
 50
194.6530614098676
 51
345.3469385903518
  0
ARC
  5
80735
102
{ACAD_REACTORS
330
808CE
330
808D6
102
}
330
18
100
AcDbEntity
  8
\U+FF77\U+FF6C\U+FF6F\U+FF8C\U+FF9F\U+FF8E\U+FF9E\U+FF99\U+FF84
100
AcDbCircle
 10
5515.305525155127
 20
-3602.197111061797
 30
0.0
 40
0.175
100
AcDbArc
 50
254.6530614097624
 51
45.34693859044955
  0
ARC
  5
80736
102
{ACAD_REACTORS
330
808CE
330
808D6
102
}
330
18
100
AcDbEntity
  8
\U+FF77\U+FF6C\U+FF6F\U+FF8C\U+FF9F\U+FF8E\U+FF9E\U+FF99\U+FF84
100
AcDbCircle
 10
5515.305525155127
 20
-3601.497111061796
 30
0.0
 40
0.175
100
AcDbArc
 50
314.6530614095504
 51
105.3469385902375
  0
CIRCLE
  5
80737
102
{ACAD_REACTORS
330
808CE
330
808D6
102
}
330
18
100
AcDbEntity
  8
\U+FF77\U+FF6C\U+FF6F\U+FF8C\U+FF9F\U+FF8E\U+FF9E\U+FF99\U+FF84
100
AcDbCircle
 10
5452.949307372247
 20
-3494.89297369429
 30
0.0
 40
3.5
  0
ARC
  5
80738
102
{ACAD_REACTORS
330
808CE
330
808D6
102
}
330
18
100
AcDbEntity
  8
\U+FF77\U+FF6C\U+FF6F\U+FF8C\U+FF9F\U+FF8E\U+FF9E\U+FF99\U+FF84
100
AcDbCircle
 10
5453.425309666489
 20
-3494.068513536142
 30
0.0
 40
0.3170045884846654
100
AcDbArc
 50
194.6530614096007
 51
285.3469385903384
  0
CIRCLE
  5
80739
102
{ACAD_REACTORS
330
808CE
330
808D6
102
}
330
18
100
AcDbEntity
  8
\U+FF77\U+FF6C\U+FF6F\U+FF8C\U+FF9F\U+FF8E\U+FF9E\U+FF99\U+FF84
100
AcDbCircle
 10
5452.949307372247
 20
-3494.89297369429
 30
0.0
 40
0.875
  0
ARC
  5
8073A
102
{ACAD_REACTORS
330
808CE
330
808D6
102
}
330
18
100
AcDbEntity
  8
\U+FF77\U+FF6C\U+FF6F\U+FF8C\U+FF9F\U+FF8E\U+FF9E\U+FF99\U+FF84
100
AcDbCircle
 10
5453.555525154897
 20
-3494.542973694293
 30
0.0
 40
0.175
100
AcDbArc
 50
314.6530614096551
 51
105.3469385905247
  0
ARC
  5
8073B
102
{ACAD_REACTORS
330
808CE
330
808D6
102
}
330
18
100
AcDbEntity
  8
\U+FF77\U+FF6C\U+FF6F\U+FF8C\U+FF9F\U+FF8E\U+FF9E\U+FF99\U+FF84
100
AcDbCircle
 10
5452.949307372247
 20
-3494.192973694295
 30
0.0
 40
0.175
100
AcDbArc
 50
14.65306140950432
 51
165.3469385903516
  0
ARC
  5
8073C
102
{ACAD_REACTORS
330
808CE
330
808D6
102
}
330
18
100
AcDbEntity
  8
\U+FF77\U+FF6C\U+FF6F\U+FF8C\U+FF9F\U+FF8E\U+FF9E\U+FF99\U+FF84
100
AcDbCircle
 10
5452.473305078006
 20
-3494.068513536144
 30
0.0
 40
0.3170045884846654
100
AcDbArc
 50
254.6530614096834
 51
345.3469385902403
  0
ARC
  5
8073D
102
{ACAD_REACTORS
330
808CE
330
808D6
102
}
330
18
100
AcDbEntity
  8
\U+FF77\U+FF6C\U+FF6F\U+FF8C\U+FF9F\U+FF8E\U+FF9E\U+FF99\U+FF84
100
AcDbCircle
 10
5451.997302783763
 20
-3494.892973694292
 30
0.0
 40
0.3170045884846654
100
AcDbArc
 50
314.6530614097115
 51
45.34693859028855
  0
ARC
  5
8073E
102
{ACAD_REACTORS
330
808CE
330
808D6
102
}
330
18
100
AcDbEntity
  8
\U+FF77\U+FF6C\U+FF6F\U+FF8C\U+FF9F\U+FF8E\U+FF9E\U+FF99\U+FF84
100
AcDbCircle
 10
5452.473305078004
 20
-3495.717433852438
 30
0.0
 40
0.3170045884846654
100
AcDbArc
 50
14.65306140960069
 51
105.3469385903384
  0
ARC
  5
8073F
102
{ACAD_REACTORS
330
808CE
330
808D6
102
}
330
18
100
AcDbEntity
  8
\U+FF77\U+FF6C\U+FF6F\U+FF8C\U+FF9F\U+FF8E\U+FF9E\U+FF99\U+FF84
100
AcDbCircle
 10
5453.425309666489
 20
-3495.717433852438
 30
0.0
 40
0.3170045884846654
100
AcDbArc
 50
74.6530614096834
 51
165.3469385902403
  0
ARC
  5
80740
102
{ACAD_REACTORS
330
808CE
330
808D6
102
}
330
18
100
AcDbEntity
  8
\U+FF77\U+FF6C\U+FF6F\U+FF8C\U+FF9F\U+FF8E\U+FF9E\U+FF99\U+FF84
100
AcDbCircle
 10
5453.901311960731
 20
-3494.89297369429
 30
0.0
 40
0.3170045884846654
100
AcDbArc
 50
134.6530614097115
 51
225.3469385902886
  0
ARC
  5
80741
102
{ACAD_REACTORS
330
808CE
330
808D6
102
}
330
18
100
AcDbEntity
  8
\U+FF77\U+FF6C\U+FF6F\U+FF8C\U+FF9F\U+FF8E\U+FF9E\U+FF99\U+FF84
100
AcDbCircle
 10
5453.555525154897
 20
-3495.242973694292
 30
0.0
 40
0.175
100
AcDbArc
 50
254.6530614097624
 51
45.34693859034491
  0
ARC
  5
80742
102
{ACAD_REACTORS
330
808CE
330
808D6
102
}
330
18
100
AcDbEntity
  8
\U+FF77\U+FF6C\U+FF6F\U+FF8C\U+FF9F\U+FF8E\U+FF9E\U+FF99\U+FF84
100
AcDbCircle
 10
5452.343089589599
 20
-3494.542973694293
 30
0.0
 40
0.175
100
AcDbArc
 50
74.65306140980183
 51
225.346938590345
  0
ARC
  5
80743
102
{ACAD_REACTORS
330
808CE
330
808D6
102
}
330
18
100
AcDbEntity
  8
\U+FF77\U+FF6C\U+FF6F\U+FF8C\U+FF9F\U+FF8E\U+FF9E\U+FF99\U+FF84
100
AcDbCircle
 10
5452.343089589599
 20
-3495.242973694287
 30
0.0
 40
0.175
100
AcDbArc
 50
134.6530614096551
 51
285.3469385905247
  0
ARC
  5
80744
102
{ACAD_REACTORS
330
808CE
330
808D6
102
}
330
18
100
AcDbEntity
  8
\U+FF77\U+FF6C\U+FF6F\U+FF8C\U+FF9F\U+FF8E\U+FF9E\U+FF99\U+FF84
100
AcDbCircle
 10
5452.949307372247
 20
-3495.592973694289
 30
0.0
 40
0.175
100
AcDbArc
 50
194.6530614095042
 51
345.3469385903518
  0
CIRCLE
  5
80745
102
{ACAD_REACTORS
330
808CE
330
808D6
102
}
330
18
100
AcDbEntity
  8
\U+FF77\U+FF6C\U+FF6F\U+FF8C\U+FF9F\U+FF8E\U+FF9E\U+FF99\U+FF84
100
AcDbCircle
 10
5329.449309626368
 20
-3494.892972393137
 30
0.0
 40
3.5
  0
ARC
  5
80746
102
{ACAD_REACTORS
330
808CE
330
808D6
102
}
330
18
100
AcDbEntity
  8
\U+FF77\U+FF6C\U+FF6F\U+FF8C\U+FF9F\U+FF8E\U+FF9E\U+FF99\U+FF84
100
AcDbCircle
 10
5328.973307332127
 20
-3494.068512234989
 30
0.0
 40
0.3170045884846654
100
AcDbArc
 50
254.6530614096616
 51
345.3469385903993
  0
CIRCLE
  5
80747
102
{ACAD_REACTORS
330
808CE
330
808D6
102
}
330
18
100
AcDbEntity
  8
\U+FF77\U+FF6C\U+FF6F\U+FF8C\U+FF9F\U+FF8E\U+FF9E\U+FF99\U+FF84
100
AcDbCircle
 10
5329.449309626368
 20
-3494.892972393137
 30
0.0
 40
0.875
  0
ARC
  5
80748
102
{ACAD_REACTORS
330
808CE
330
808D6
102
}
330
18
100
AcDbEntity
  8
\U+FF77\U+FF6C\U+FF6F\U+FF8C\U+FF9F\U+FF8E\U+FF9E\U+FF99\U+FF84
100
AcDbCircle
 10
5328.843091843718
 20
-3494.542972393141
 30
0.0
 40
0.175
100
AcDbArc
 50
74.6530614094753
 51
225.346938590345
  0
ARC
  5
80749
102
{ACAD_REACTORS
330
808CE
330
808D6
102
}
330
18
100
AcDbEntity
  8
\U+FF77\U+FF6C\U+FF6F\U+FF8C\U+FF9F\U+FF8E\U+FF9E\U+FF99\U+FF84
100
AcDbCircle
 10
5329.449309626368
 20
-3494.192972393142
 30
0.0
 40
0.175
100
AcDbArc
 50
14.65306140964837
 51
165.3469385904957
  0
ARC
  5
8074A
102
{ACAD_REACTORS
330
808CE
330
808D6
102
}
330
18
100
AcDbEntity
  8
\U+FF77\U+FF6C\U+FF6F\U+FF8C\U+FF9F\U+FF8E\U+FF9E\U+FF99\U+FF84
100
AcDbCircle
 10
5329.925311920608
 20
-3494.068512234991
 30
0.0
 40
0.3170045884846654
100
AcDbArc
 50
194.6530614097597
 51
285.3469385903166
  0
ARC
  5
8074B
102
{ACAD_REACTORS
330
808CE
330
808D6
102
}
330
18
100
AcDbEntity
  8
\U+FF77\U+FF6C\U+FF6F\U+FF8C\U+FF9F\U+FF8E\U+FF9E\U+FF99\U+FF84
100
AcDbCircle
 10
5330.40131421485
 20
-3494.892972393139
 30
0.0
 40
0.3170045884846654
100
AcDbArc
 50
134.6530614097115
 51
225.3469385902886
  0
ARC
  5
8074C
102
{ACAD_REACTORS
330
808CE
330
808D6
102
}
330
18
100
AcDbEntity
  8
\U+FF77\U+FF6C\U+FF6F\U+FF8C\U+FF9F\U+FF8E\U+FF9E\U+FF99\U+FF84
100
AcDbCircle
 10
5329.925311920611
 20
-3495.717432551285
 30
0.0
 40
0.3170045884846654
100
AcDbArc
 50
74.65306140966164
 51
165.3469385903993
  0
ARC
  5
8074D
102
{ACAD_REACTORS
330
808CE
330
808D6
102
}
330
18
100
AcDbEntity
  8
\U+FF77\U+FF6C\U+FF6F\U+FF8C\U+FF9F\U+FF8E\U+FF9E\U+FF99\U+FF84
100
AcDbCircle
 10
5328.973307332127
 20
-3495.717432551285
 30
0.0
 40
0.3170045884846654
100
AcDbArc
 50
14.65306140975972
 51
105.3469385903166
  0
ARC
  5
8074E
102
{ACAD_REACTORS
330
808CE
330
808D6
102
}
330
18
100
AcDbEntity
  8
\U+FF77\U+FF6C\U+FF6F\U+FF8C\U+FF9F\U+FF8E\U+FF9E\U+FF99\U+FF84
100
AcDbCircle
 10
5328.497305037884
 20
-3494.892972393137
 30
0.0
 40
0.3170045884846654
100
AcDbArc
 50
314.6530614097115
 51
45.34693859028855
  0
ARC
  5
8074F
102
{ACAD_REACTORS
330
808CE
330
808D6
102
}
330
18
100
AcDbEntity
  8
\U+FF77\U+FF6C\U+FF6F\U+FF8C\U+FF9F\U+FF8E\U+FF9E\U+FF99\U+FF84
100
AcDbCircle
 10
5328.843091843718
 20
-3495.242972393139
 30
0.0
 40
0.175
100
AcDbArc
 50
134.6530614096551
 51
285.3469385902375
  0
ARC
  5
80750
102
{ACAD_REACTORS
330
808CE
330
808D6
102
}
330
18
100
AcDbEntity
  8
\U+FF77\U+FF6C\U+FF6F\U+FF8C\U+FF9F\U+FF8E\U+FF9E\U+FF99\U+FF84
100
AcDbCircle
 10
5330.055527409015
 20
-3494.542972393141
 30
0.0
 40
0.175
100
AcDbArc
 50
314.6530614096551
 51
105.3469385901981
  0
ARC
  5
80751
102
{ACAD_REACTORS
330
808CE
330
808D6
102
}
330
18
100
AcDbEntity
  8
\U+FF77\U+FF6C\U+FF6F\U+FF8C\U+FF9F\U+FF8E\U+FF9E\U+FF99\U+FF84
100
AcDbCircle
 10
5330.055527409015
 20
-3495.242972393134
 30
0.0
 40
0.175
100
AcDbArc
 50
254.6530614094753
 51
45.34693859034491
  0
ARC
  5
80752
102
{ACAD_REACTORS
330
808CE
330
808D6
102
}
330
18
100
AcDbEntity
  8
\U+FF77\U+FF6C\U+FF6F\U+FF8C\U+FF9F\U+FF8E\U+FF9E\U+FF99\U+FF84
100
AcDbCircle
 10
5329.449309626368
 20
-3495.592972393136
 30
0.0
 40
0.175
100
AcDbArc
 50
194.6530614096483
 51
345.3469385904957
  0
CIRCLE
  5
80753
102
{ACAD_REACTORS
330
808CE
330
808D6
102
}
330
18
100
AcDbEntity
  8
\U+FF77\U+FF6C\U+FF6F\U+FF8C\U+FF9F\U+FF8E\U+FF9E\U+FF99\U+FF84
100
AcDbCircle
 10
5284.245170005334
 20
-3540.09711106141
 30
0.0
 40
3.5
  0
ARC
  5
80754
102
{ACAD_REACTORS
330
808CE
330
808D6
102
}
330
18
100
AcDbEntity
  8
\U+FF77\U+FF6C\U+FF6F\U+FF8C\U+FF9F\U+FF8E\U+FF9E\U+FF99\U+FF84
100
AcDbCircle
 10
5283.420709847185
 20
-3539.621108767167
 30
0.0
 40
0.3170045884846654
100
AcDbArc
 50
284.6530614096007
 51
15.34693859041763
  0
CIRCLE
  5
80755
102
{ACAD_REACTORS
330
808CE
330
808D6
102
}
330
18
100
AcDbEntity
  8
\U+FF77\U+FF6C\U+FF6F\U+FF8C\U+FF9F\U+FF8E\U+FF9E\U+FF99\U+FF84
100
AcDbCircle
 10
5284.245170005334
 20
-3540.09711106141
 30
0.0
 40
0.875
  0
ARC
  5
80756
102
{ACAD_REACTORS
330
808CE
330
808D6
102
}
330
18
100
AcDbEntity
  8
\U+FF77\U+FF6C\U+FF6F\U+FF8C\U+FF9F\U+FF8E\U+FF9E\U+FF99\U+FF84
100
AcDbCircle
 10
5283.545170005334
 20
-3540.097111061412
 30
0.0
 40
0.175
100
AcDbArc
 50
104.653061409542
 51
255.3469385901699
  0
ARC
  5
80757
102
{ACAD_REACTORS
330
808CE
330
808D6
102
}
330
18
100
AcDbEntity
  8
\U+FF77\U+FF6C\U+FF6F\U+FF8C\U+FF9F\U+FF8E\U+FF9E\U+FF99\U+FF84
100
AcDbCircle
 10
5283.895170005334
 20
-3539.490893278762
 30
0.0
 40
0.175
100
AcDbArc
 50
44.653061409761
 51
195.3469385903417
  0
ARC
  5
80758
102
{ACAD_REACTORS
330
808CE
330
808D6
102
}
330
18
100
AcDbEntity
  8
\U+FF77\U+FF6C\U+FF6F\U+FF8C\U+FF9F\U+FF8E\U+FF9E\U+FF99\U+FF84
100
AcDbCircle
 10
5284.245170005331
 20
-3539.145106472926
 30
0.0
 40
0.3170045884846654
100
AcDbArc
 50
224.6530614098277
 51
315.3469385901723
  0
ARC
  5
80759
102
{ACAD_REACTORS
330
808CE
330
808D6
102
}
330
18
100
AcDbEntity
  8
\U+FF77\U+FF6C\U+FF6F\U+FF8C\U+FF9F\U+FF8E\U+FF9E\U+FF99\U+FF84
100
AcDbCircle
 10
5285.069630163479
 20
-3539.621108767168
 30
0.0
 40
0.3170045884846654
100
AcDbArc
 50
164.6530614096616
 51
255.3469385902403
  0
ARC
  5
8075A
102
{ACAD_REACTORS
330
808CE
330
808D6
102
}
330
18
100
AcDbEntity
  8
\U+FF77\U+FF6C\U+FF6F\U+FF8C\U+FF9F\U+FF8E\U+FF9E\U+FF99\U+FF84
100
AcDbCircle
 10
5285.069630163479
 20
-3540.573113355652
 30
0.0
 40
0.3170045884846654
100
AcDbArc
 50
104.6530614096007
 51
195.3469385904176
  0
ARC
  5
8075B
102
{ACAD_REACTORS
330
808CE
330
808D6
102
}
330
18
100
AcDbEntity
  8
\U+FF77\U+FF6C\U+FF6F\U+FF8C\U+FF9F\U+FF8E\U+FF9E\U+FF99\U+FF84
100
AcDbCircle
 10
5284.245170005334
 20
-3541.049115649895
 30
0.0
 40
0.3170045884846654
100
AcDbArc
 50
44.65306140982769
 51
135.3469385901723
  0
ARC
  5
8075C
102
{ACAD_REACTORS
330
808CE
330
808D6
102
}
330
18
100
AcDbEntity
  8
\U+FF77\U+FF6C\U+FF6F\U+FF8C\U+FF9F\U+FF8E\U+FF9E\U+FF99\U+FF84
100
AcDbCircle
 10
5283.420709847185
 20
-3540.573113355651
 30
0.0
 40
0.3170045884846654
100
AcDbArc
 50
344.6530614096616
 51
75.34693859024028
  0
ARC
  5
8075D
102
{ACAD_REACTORS
330
808CE
330
808D6
102
}
330
18
100
AcDbEntity
  8
\U+FF77\U+FF6C\U+FF6F\U+FF8C\U+FF9F\U+FF8E\U+FF9E\U+FF99\U+FF84
100
AcDbCircle
 10
5283.895170005332
 20
-3540.703328844062
 30
0.0
 40
0.175
100
AcDbArc
 50
164.6530614098019
 51
315.3469385902391
  0
ARC
  5
8075E
102
{ACAD_REACTORS
330
808CE
330
808D6
102
}
330
18
100
AcDbEntity
  8
\U+FF77\U+FF6C\U+FF6F\U+FF8C\U+FF9F\U+FF8E\U+FF9E\U+FF99\U+FF84
100
AcDbCircle
 10
5284.595170005331
 20
-3539.490893278762
 30
0.0
 40
0.175
100
AcDbArc
 50
344.653061409802
 51
135.346938590239
  0
ARC
  5
8075F
102
{ACAD_REACTORS
330
808CE
330
808D6
102
}
330
18
100
AcDbEntity
  8
\U+FF77\U+FF6C\U+FF6F\U+FF8C\U+FF9F\U+FF8E\U+FF9E\U+FF99\U+FF84
100
AcDbCircle
 10
5284.945170005332
 20
-3540.097111061407
 30
0.0
 40
0.175
100
AcDbArc
 50
284.653061409542
 51
75.34693859016994
  0
ARC
  5
80760
102
{ACAD_REACTORS
330
808CE
330
808D6
102
}
330
18
100
AcDbEntity
  8
\U+FF77\U+FF6C\U+FF6F\U+FF8C\U+FF9F\U+FF8E\U+FF9E\U+FF99\U+FF84
100
AcDbCircle
 10
5284.595170005329
 20
-3540.703328844059
 30
0.0
 40
0.175
100
AcDbArc
 50
224.653061409761
 51
15.34693859034172
  0
CIRCLE
  5
80761
102
{ACAD_REACTORS
330
808CE
330
808D6
102
}
330
18
100
AcDbEntity
  8
\U+FF77\U+FF6C\U+FF6F\U+FF8C\U+FF9F\U+FF8E\U+FF9E\U+FF99\U+FF84
100
AcDbCircle
 10
5284.245170005334
 20
-3663.597111061096
 30
0.0
 40
3.5
  0
ARC
  5
80762
102
{ACAD_REACTORS
330
808CE
330
808D6
102
}
330
18
100
AcDbEntity
  8
\U+FF77\U+FF6C\U+FF6F\U+FF8C\U+FF9F\U+FF8E\U+FF9E\U+FF99\U+FF84
100
AcDbCircle
 10
5283.420709847185
 20
-3664.073113355339
 30
0.0
 40
0.3170045884846654
100
AcDbArc
 50
344.6530614095823
 51
75.34693859039932
  0
CIRCLE
  5
80763
102
{ACAD_REACTORS
330
808CE
330
808D6
102
}
330
18
100
AcDbEntity
  8
\U+FF77\U+FF6C\U+FF6F\U+FF8C\U+FF9F\U+FF8E\U+FF9E\U+FF99\U+FF84
100
AcDbCircle
 10
5284.245170005334
 20
-3663.597111061096
 30
0.0
 40
0.875
  0
ARC
  5
80764
102
{ACAD_REACTORS
330
808CE
330
808D6
102
}
330
18
100
AcDbEntity
  8
\U+FF77\U+FF6C\U+FF6F\U+FF8C\U+FF9F\U+FF8E\U+FF9E\U+FF99\U+FF84
100
AcDbCircle
 10
5283.545170005334
 20
-3663.597111061093
 30
0.0
 40
0.175
100
AcDbArc
 50
104.6530614098301
 51
255.346938590458
  0
ARC
  5
80765
102
{ACAD_REACTORS
330
808CE
330
808D6
102
}
330
18
100
AcDbEntity
  8
\U+FF77\U+FF6C\U+FF6F\U+FF8C\U+FF9F\U+FF8E\U+FF9E\U+FF99\U+FF84
100
AcDbCircle
 10
5283.895170005334
 20
-3664.203328843745
 30
0.0
 40
0.175
100
AcDbArc
 50
164.6530614096583
 51
315.3469385902391
  0
ARC
  5
80766
102
{ACAD_REACTORS
330
808CE
330
808D6
102
}
330
18
100
AcDbEntity
  8
\U+FF77\U+FF6C\U+FF6F\U+FF8C\U+FF9F\U+FF8E\U+FF9E\U+FF99\U+FF84
100
AcDbCircle
 10
5284.245170005331
 20
-3664.54911564958
 30
0.0
 40
0.3170045884846654
100
AcDbArc
 50
44.65306140982769
 51
135.3469385901723
  0
ARC
  5
80767
102
{ACAD_REACTORS
330
808CE
330
808D6
102
}
330
18
100
AcDbEntity
  8
\U+FF77\U+FF6C\U+FF6F\U+FF8C\U+FF9F\U+FF8E\U+FF9E\U+FF99\U+FF84
100
AcDbCircle
 10
5285.069630163479
 20
-3664.073113355337
 30
0.0
 40
0.3170045884846654
100
AcDbArc
 50
104.6530614097597
 51
195.3469385903384
  0
ARC
  5
80768
102
{ACAD_REACTORS
330
808CE
330
808D6
102
}
330
18
100
AcDbEntity
  8
\U+FF77\U+FF6C\U+FF6F\U+FF8C\U+FF9F\U+FF8E\U+FF9E\U+FF99\U+FF84
100
AcDbCircle
 10
5285.069630163479
 20
-3663.121108766854
 30
0.0
 40
0.3170045884846654
100
AcDbArc
 50
164.6530614095824
 51
255.3469385903993
  0
ARC
  5
80769
102
{ACAD_REACTORS
330
808CE
330
808D6
102
}
330
18
100
AcDbEntity
  8
\U+FF77\U+FF6C\U+FF6F\U+FF8C\U+FF9F\U+FF8E\U+FF9E\U+FF99\U+FF84
100
AcDbCircle
 10
5284.245170005334
 20
-3662.645106472611
 30
0.0
 40
0.3170045884846654
100
AcDbArc
 50
224.6530614098277
 51
315.3469385901723
  0
ARC
  5
8076A
102
{ACAD_REACTORS
330
808CE
330
808D6
102
}
330
18
100
AcDbEntity
  8
\U+FF77\U+FF6C\U+FF6F\U+FF8C\U+FF9F\U+FF8E\U+FF9E\U+FF99\U+FF84
100
AcDbCircle
 10
5283.420709847185
 20
-3663.121108766854
 30
0.0
 40
0.3170045884846654
100
AcDbArc
 50
284.6530614097597
 51
15.34693859033836
  0
ARC
  5
8076B
102
{ACAD_REACTORS
330
808CE
330
808D6
102
}
330
18
100
AcDbEntity
  8
\U+FF77\U+FF6C\U+FF6F\U+FF8C\U+FF9F\U+FF8E\U+FF9E\U+FF99\U+FF84
100
AcDbCircle
 10
5283.895170005332
 20
-3662.990893278446
 30
0.0
 40
0.175
100
AcDbArc
 50
44.653061409761
 51
195.3469385901981
  0
ARC
  5
8076C
102
{ACAD_REACTORS
330
808CE
330
808D6
102
}
330
18
100
AcDbEntity
  8
\U+FF77\U+FF6C\U+FF6F\U+FF8C\U+FF9F\U+FF8E\U+FF9E\U+FF99\U+FF84
100
AcDbCircle
 10
5284.595170005331
 20
-3664.203328843745
 30
0.0
 40
0.175
100
AcDbArc
 50
224.653061409761
 51
15.34693859019814
  0
ARC
  5
8076D
102
{ACAD_REACTORS
330
808CE
330
808D6
102
}
330
18
100
AcDbEntity
  8
\U+FF77\U+FF6C\U+FF6F\U+FF8C\U+FF9F\U+FF8E\U+FF9E\U+FF99\U+FF84
100
AcDbCircle
 10
5284.945170005332
 20
-3663.597111061098
 30
0.0
 40
0.175
100
AcDbArc
 50
284.6530614098301
 51
75.34693859045802
  0
ARC
  5
8076E
102
{ACAD_REACTORS
330
808CE
330
808D6
102
}
330
18
100
AcDbEntity
  8
\U+FF77\U+FF6C\U+FF6F\U+FF8C\U+FF9F\U+FF8E\U+FF9E\U+FF99\U+FF84
100
AcDbCircle
 10
5284.595170005329
 20
-3662.990893278446
 30
0.0
 40
0.175
100
AcDbArc
 50
344.6530614096583
 51
135.346938590239
  0
CIRCLE
  5
8076F
102
{ACAD_REACTORS
330
808CE
330
808D6
102
}
330
18
100
AcDbEntity
  8
\U+FF77\U+FF6C\U+FF6F\U+FF8C\U+FF9F\U+FF8E\U+FF9E\U+FF99\U+FF84
100
AcDbCircle
 10
5329.449309626368
 20
-3708.801249729368
 30
0.0
 40
3.5
  0
ARC
  5
80770
102
{ACAD_REACTORS
330
808CE
330
808D6
102
}
330
18
100
AcDbEntity
  8
\U+FF77\U+FF6C\U+FF6F\U+FF8C\U+FF9F\U+FF8E\U+FF9E\U+FF99\U+FF84
100
AcDbCircle
 10
5328.973307332127
 20
-3709.625709887517
 30
0.0
 40
0.3170045884846654
100
AcDbArc
 50
14.65306140960069
 51
105.3469385903384
  0
CIRCLE
  5
80771
102
{ACAD_REACTORS
330
808CE
330
808D6
102
}
330
18
100
AcDbEntity
  8
\U+FF77\U+FF6C\U+FF6F\U+FF8C\U+FF9F\U+FF8E\U+FF9E\U+FF99\U+FF84
100
AcDbCircle
 10
5329.449309626368
 20
-3708.801249729368
 30
0.0
 40
0.875
  0
ARC
  5
80772
102
{ACAD_REACTORS
330
808CE
330
808D6
102
}
330
18
100
AcDbEntity
  8
\U+FF77\U+FF6C\U+FF6F\U+FF8C\U+FF9F\U+FF8E\U+FF9E\U+FF99\U+FF84
100
AcDbCircle
 10
5328.843091843718
 20
-3709.151249729365
 30
0.0
 40
0.175
100
AcDbArc
 50
134.6530614096551
 51
285.3469385905247
  0
ARC
  5
80773
102
{ACAD_REACTORS
330
808CE
330
808D6
102
}
330
18
100
AcDbEntity
  8
\U+FF77\U+FF6C\U+FF6F\U+FF8C\U+FF9F\U+FF8E\U+FF9E\U+FF99\U+FF84
100
AcDbCircle
 10
5329.449309626368
 20
-3709.501249729365
 30
0.0
 40
0.175
100
AcDbArc
 50
194.6530614095042
 51
345.3469385903518
  0
ARC
  5
80774
102
{ACAD_REACTORS
330
808CE
330
808D6
102
}
330
18
100
AcDbEntity
  8
\U+FF77\U+FF6C\U+FF6F\U+FF8C\U+FF9F\U+FF8E\U+FF9E\U+FF99\U+FF84
100
AcDbCircle
 10
5329.925311920608
 20
-3709.625709887515
 30
0.0
 40
0.3170045884846654
100
AcDbArc
 50
74.6530614096834
 51
165.3469385902403
  0
ARC
  5
80775
102
{ACAD_REACTORS
330
808CE
330
808D6
102
}
330
18
100
AcDbEntity
  8
\U+FF77\U+FF6C\U+FF6F\U+FF8C\U+FF9F\U+FF8E\U+FF9E\U+FF99\U+FF84
100
AcDbCircle
 10
5330.40131421485
 20
-3708.801249729367
 30
0.0
 40
0.3170045884846654
100
AcDbArc
 50
134.6530614097115
 51
225.3469385902886
  0
ARC
  5
80776
102
{ACAD_REACTORS
330
808CE
330
808D6
102
}
330
18
100
AcDbEntity
  8
\U+FF77\U+FF6C\U+FF6F\U+FF8C\U+FF9F\U+FF8E\U+FF9E\U+FF99\U+FF84
100
AcDbCircle
 10
5329.925311920611
 20
-3707.97678957122
 30
0.0
 40
0.3170045884846654
100
AcDbArc
 50
194.6530614096007
 51
285.3469385903384
  0
ARC
  5
80777
102
{ACAD_REACTORS
330
808CE
330
808D6
102
}
330
18
100
AcDbEntity
  8
\U+FF77\U+FF6C\U+FF6F\U+FF8C\U+FF9F\U+FF8E\U+FF9E\U+FF99\U+FF84
100
AcDbCircle
 10
5328.973307332127
 20
-3707.97678957122
 30
0.0
 40
0.3170045884846654
100
AcDbArc
 50
254.6530614096834
 51
345.3469385902403
  0
ARC
  5
80778
102
{ACAD_REACTORS
330
808CE
330
808D6
102
}
330
18
100
AcDbEntity
  8
\U+FF77\U+FF6C\U+FF6F\U+FF8C\U+FF9F\U+FF8E\U+FF9E\U+FF99\U+FF84
100
AcDbCircle
 10
5328.497305037884
 20
-3708.801249729368
 30
0.0
 40
0.3170045884846654
100
AcDbArc
 50
314.6530614097115
 51
45.34693859028855
  0
ARC
  5
80779
102
{ACAD_REACTORS
330
808CE
330
808D6
102
}
330
18
100
AcDbEntity
  8
\U+FF77\U+FF6C\U+FF6F\U+FF8C\U+FF9F\U+FF8E\U+FF9E\U+FF99\U+FF84
100
AcDbCircle
 10
5328.843091843718
 20
-3708.451249729366
 30
0.0
 40
0.175
100
AcDbArc
 50
74.65306140976245
 51
225.346938590345
  0
ARC
  5
8077A
102
{ACAD_REACTORS
330
808CE
330
808D6
102
}
330
18
100
AcDbEntity
  8
\U+FF77\U+FF6C\U+FF6F\U+FF8C\U+FF9F\U+FF8E\U+FF9E\U+FF99\U+FF84
100
AcDbCircle
 10
5330.055527409015
 20
-3709.151249729365
 30
0.0
 40
0.175
100
AcDbArc
 50
254.6530614098019
 51
45.34693859034491
  0
ARC
  5
8077B
102
{ACAD_REACTORS
330
808CE
330
808D6
102
}
330
18
100
AcDbEntity
  8
\U+FF77\U+FF6C\U+FF6F\U+FF8C\U+FF9F\U+FF8E\U+FF9E\U+FF99\U+FF84
100
AcDbCircle
 10
5330.055527409015
 20
-3708.451249729372
 30
0.0
 40
0.175
100
AcDbArc
 50
314.6530614096551
 51
105.3469385905247
  0
ARC
  5
8077C
102
{ACAD_REACTORS
330
808CE
330
808D6
102
}
330
18
100
AcDbEntity
  8
\U+FF77\U+FF6C\U+FF6F\U+FF8C\U+FF9F\U+FF8E\U+FF9E\U+FF99\U+FF84
100
AcDbCircle
 10
5329.449309626368
 20
-3708.10124972937
 30
0.0
 40
0.175
100
AcDbArc
 50
14.65306140950432
 51
165.3469385903516
  0
CIRCLE
  5
8077D
102
{ACAD_REACTORS
330
808CE
330
808D6
102
}
330
18
100
AcDbEntity
  8
\U+FF77\U+FF6C\U+FF6F\U+FF8C\U+FF9F\U+FF8E\U+FF9E\U+FF99\U+FF84
100
AcDbCircle
 10
5452.949307372247
 20
-3708.801248428216
 30
0.0
 40
3.5
  0
ARC
  5
8077E
102
{ACAD_REACTORS
330
808CE
330
808D6
102
}
330
18
100
AcDbEntity
  8
\U+FF77\U+FF6C\U+FF6F\U+FF8C\U+FF9F\U+FF8E\U+FF9E\U+FF99\U+FF84
100
AcDbCircle
 10
5453.425309666489
 20
-3709.625708586364
 30
0.0
 40
0.3170045884846654
100
AcDbArc
 50
74.65306140966164
 51
165.3469385903993
  0
CIRCLE
  5
8077F
102
{ACAD_REACTORS
330
808CE
330
808D6
102
}
330
18
100
AcDbEntity
  8
\U+FF77\U+FF6C\U+FF6F\U+FF8C\U+FF9F\U+FF8E\U+FF9E\U+FF99\U+FF84
100
AcDbCircle
 10
5452.949307372247
 20
-3708.801248428216
 30
0.0
 40
0.875
  0
ARC
  5
80780
102
{ACAD_REACTORS
330
808CE
330
808D6
102
}
330
18
100
AcDbEntity
  8
\U+FF77\U+FF6C\U+FF6F\U+FF8C\U+FF9F\U+FF8E\U+FF9E\U+FF99\U+FF84
100
AcDbCircle
 10
5453.555525154897
 20
-3709.151248428212
 30
0.0
 40
0.175
100
AcDbArc
 50
254.6530614094753
 51
45.34693859034491
  0
ARC
  5
80781
102
{ACAD_REACTORS
330
808CE
330
808D6
102
}
330
18
100
AcDbEntity
  8
\U+FF77\U+FF6C\U+FF6F\U+FF8C\U+FF9F\U+FF8E\U+FF9E\U+FF99\U+FF84
100
AcDbCircle
 10
5452.949307372247
 20
-3709.50124842821
 30
0.0
 40
0.175
100
AcDbArc
 50
194.6530614096483
 51
345.3469385904957
  0
ARC
  5
80782
102
{ACAD_REACTORS
330
808CE
330
808D6
102
}
330
18
100
AcDbEntity
  8
\U+FF77\U+FF6C\U+FF6F\U+FF8C\U+FF9F\U+FF8E\U+FF9E\U+FF99\U+FF84
100
AcDbCircle
 10
5452.473305078006
 20
-3709.625708586364
 30
0.0
 40
0.3170045884846654
100
AcDbArc
 50
14.65306140975972
 51
105.3469385903166
  0
ARC
  5
80783
102
{ACAD_REACTORS
330
808CE
330
808D6
102
}
330
18
100
AcDbEntity
  8
\U+FF77\U+FF6C\U+FF6F\U+FF8C\U+FF9F\U+FF8E\U+FF9E\U+FF99\U+FF84
100
AcDbCircle
 10
5451.997302783763
 20
-3708.801248428213
 30
0.0
 40
0.3170045884846654
100
AcDbArc
 50
314.6530614097115
 51
45.34693859028855
  0
ARC
  5
80784
102
{ACAD_REACTORS
330
808CE
330
808D6
102
}
330
18
100
AcDbEntity
  8
\U+FF77\U+FF6C\U+FF6F\U+FF8C\U+FF9F\U+FF8E\U+FF9E\U+FF99\U+FF84
100
AcDbCircle
 10
5452.473305078004
 20
-3707.976788270066
 30
0.0
 40
0.3170045884846654
100
AcDbArc
 50
254.6530614096616
 51
345.3469385903993
  0
ARC
  5
80785
102
{ACAD_REACTORS
330
808CE
330
808D6
102
}
330
18
100
AcDbEntity
  8
\U+FF77\U+FF6C\U+FF6F\U+FF8C\U+FF9F\U+FF8E\U+FF9E\U+FF99\U+FF84
100
AcDbCircle
 10
5453.425309666489
 20
-3707.976788270066
 30
0.0
 40
0.3170045884846654
100
AcDbArc
 50
194.6530614097597
 51
285.3469385903166
  0
ARC
  5
80786
102
{ACAD_REACTORS
330
808CE
330
808D6
102
}
330
18
100
AcDbEntity
  8
\U+FF77\U+FF6C\U+FF6F\U+FF8C\U+FF9F\U+FF8E\U+FF9E\U+FF99\U+FF84
100
AcDbCircle
 10
5453.901311960731
 20
-3708.801248428216
 30
0.0
 40
0.3170045884846654
100
AcDbArc
 50
134.6530614097115
 51
225.3469385902886
  0
ARC
  5
80787
102
{ACAD_REACTORS
330
808CE
330
808D6
102
}
330
18
100
AcDbEntity
  8
\U+FF77\U+FF6C\U+FF6F\U+FF8C\U+FF9F\U+FF8E\U+FF9E\U+FF99\U+FF84
100
AcDbCircle
 10
5453.555525154897
 20
-3708.451248428215
 30
0.0
 40
0.175
100
AcDbArc
 50
314.6530614096551
 51
105.3469385902375
  0
ARC
  5
80788
102
{ACAD_REACTORS
330
808CE
330
808D6
102
}
330
18
100
AcDbEntity
  8
\U+FF77\U+FF6C\U+FF6F\U+FF8C\U+FF9F\U+FF8E\U+FF9E\U+FF99\U+FF84
100
AcDbCircle
 10
5452.343089589599
 20
-3709.151248428212
 30
0.0
 40
0.175
100
AcDbArc
 50
134.6530614096551
 51
285.3469385901981
  0
ARC
  5
80789
102
{ACAD_REACTORS
330
808CE
330
808D6
102
}
330
18
100
AcDbEntity
  8
\U+FF77\U+FF6C\U+FF6F\U+FF8C\U+FF9F\U+FF8E\U+FF9E\U+FF99\U+FF84
100
AcDbCircle
 10
5452.343089589599
 20
-3708.451248428218
 30
0.0
 40
0.175
100
AcDbArc
 50
74.6530614094753
 51
225.346938590345
  0
ARC
  5
8078A
102
{ACAD_REACTORS
330
808CE
330
808D6
102
}
330
18
100
AcDbEntity
  8
\U+FF77\U+FF6C\U+FF6F\U+FF8C\U+FF9F\U+FF8E\U+FF9E\U+FF99\U+FF84
100
AcDbCircle
 10
5452.949307372247
 20
-3708.101248428216
 30
0.0
 40
0.175
100
AcDbArc
 50
14.65306140964837
 51
165.3469385904957
  0
LINE
  5
8082E
102
{ACAD_REACTORS
330
808D0
330
84EAD
102
}
330
18
100
AcDbEntity
  8
中心線
100
AcDbLine
 10
5790.532161447183
 20
-3489.779369837022
 30
0.0
 11
5813.849318038661
 21
-3513.096526428501
 31
0.0
  0
ARC
  5
8082F
102
{ACAD_REACTORS
330
808D0
330
84EAD
102
}
330
18
100
AcDbEntity
  8
\U+FF77\U+FF6C\U+FF6F\U+FF8C\U+FF9F\U+FF8E\U+FF9E\U+FF99\U+FF84
100
AcDbCircle
 10
5845.077311973648
 20
-3545.362037160865
 30
0.0
 40
0.446923180059133
100
AcDbArc
 50
305.0000114591653
 51
65.00001145922372
  0
ARC
  5
80830
102
{ACAD_REACTORS
330
808D0
330
84EAD
102
}
330
18
100
AcDbEntity
  8
\U+FF77\U+FF6C\U+FF6F\U+FF8C\U+FF9F\U+FF8E\U+FF9E\U+FF99\U+FF84
100
AcDbCircle
 10
5846.43609835461
 20
-3544.410604289102
 30
0.0
 40
0.446923180059133
100
AcDbArc
 50
185.0000114591538
 51
305.0000114591653
  0
CIRCLE
  5
80831
102
{ACAD_REACTORS
330
808D0
330
84EAD
102
}
330
18
100
AcDbEntity
  8
\U+FF77\U+FF6C\U+FF6F\U+FF8C\U+FF9F\U+FF8E\U+FF9E\U+FF99\U+FF84
100
AcDbCircle
 10
5846.031360350036
 20
-3545.278568647342
 30
0.0
 40
2.858333333333337
  0
CIRCLE
  5
80832
102
{ACAD_REACTORS
330
808D0
330
84EAD
102
}
330
18
100
AcDbEntity
  8
\U+FF77\U+FF6C\U+FF6F\U+FF8C\U+FF9F\U+FF8E\U+FF9E\U+FF99\U+FF84
100
AcDbCircle
 10
5846.031360350036
 20
-3545.278568647342
 30
0.0
 40
3.5
  0
ARC
  5
80833
102
{ACAD_REACTORS
330
808D0
330
84EAD
102
}
330
18
100
AcDbEntity
  8
\U+FF77\U+FF6C\U+FF6F\U+FF8C\U+FF9F\U+FF8E\U+FF9E\U+FF99\U+FF84
100
AcDbCircle
 10
5846.031360176443
 20
-3545.278568566394
 30
0.0
 40
0.83000019153839
100
AcDbArc
 50
152.7957839551987
 51
157.2042389631959
  0
ARC
  5
80834
102
{ACAD_REACTORS
330
808D0
330
84EAD
102
}
330
18
100
AcDbEntity
  8
\U+FF77\U+FF6C\U+FF6F\U+FF8C\U+FF9F\U+FF8E\U+FF9E\U+FF99\U+FF84
100
AcDbCircle
 10
5846.031360176443
 20
-3545.278568566394
 30
0.0
 40
0.83000019153839
100
AcDbArc
 50
92.79578395514951
 51
97.20423896316866
  0
ARC
  5
80835
102
{ACAD_REACTORS
330
808D0
330
84EAD
102
}
330
18
100
AcDbEntity
  8
\U+FF77\U+FF6C\U+FF6F\U+FF8C\U+FF9F\U+FF8E\U+FF9E\U+FF99\U+FF84
100
AcDbCircle
 10
5845.482050151815
 20
-3544.494072883575
 30
0.0
 40
0.446923180059133
100
AcDbArc
 50
245.0000114592238
 51
5.000011459153768
  0
ARC
  5
80836
102
{ACAD_REACTORS
330
808D0
330
84EAD
102
}
330
18
100
AcDbEntity
  8
\U+FF77\U+FF6C\U+FF6F\U+FF8C\U+FF9F\U+FF8E\U+FF9E\U+FF99\U+FF84
100
AcDbCircle
 10
5846.031360176443
 20
-3545.278568566394
 30
0.0
 40
0.83000019153839
100
AcDbArc
 50
212.795783955177
 51
217.2042389630334
  0
ARC
  5
80837
102
{ACAD_REACTORS
330
808D0
330
84EAD
102
}
330
18
100
AcDbEntity
  8
\U+FF77\U+FF6C\U+FF6F\U+FF8C\U+FF9F\U+FF8E\U+FF9E\U+FF99\U+FF84
100
AcDbCircle
 10
5845.626621998275
 20
-3546.146532843688
 30
0.0
 40
0.446923180059133
100
AcDbArc
 50
5.000011459153768
 51
125.0000114591653
  0
ARC
  5
80838
102
{ACAD_REACTORS
330
808D0
330
84EAD
102
}
330
18
100
AcDbEntity
  8
\U+FF77\U+FF6C\U+FF6F\U+FF8C\U+FF9F\U+FF8E\U+FF9E\U+FF99\U+FF84
100
AcDbCircle
 10
5846.031360176443
 20
-3545.278568566394
 30
0.0
 40
0.83000019153839
100
AcDbArc
 50
272.7957839551496
 51
277.2042389630652
  0
ARC
  5
80839
102
{ACAD_REACTORS
330
808D0
330
84EAD
102
}
330
18
100
AcDbEntity
  8
\U+FF77\U+FF6C\U+FF6F\U+FF8C\U+FF9F\U+FF8E\U+FF9E\U+FF99\U+FF84
100
AcDbCircle
 10
5846.031360176443
 20
-3545.278568566394
 30
0.0
 40
0.83000019153839
100
AcDbArc
 50
32.79578395517707
 51
37.20423896303345
  0
ARC
  5
8083A
102
{ACAD_REACTORS
330
808D0
330
84EAD
102
}
330
18
100
AcDbEntity
  8
\U+FF77\U+FF6C\U+FF6F\U+FF8C\U+FF9F\U+FF8E\U+FF9E\U+FF99\U+FF84
100
AcDbCircle
 10
5846.031360176443
 20
-3545.278568566394
 30
0.0
 40
0.83000019153839
100
AcDbArc
 50
332.7957839551054
 51
337.2042389631959
  0
ARC
  5
8083B
102
{ACAD_REACTORS
330
808D0
330
84EAD
102
}
330
18
100
AcDbEntity
  8
\U+FF77\U+FF6C\U+FF6F\U+FF8C\U+FF9F\U+FF8E\U+FF9E\U+FF99\U+FF84
100
AcDbCircle
 10
5846.985408379238
 20
-3545.195099971921
 30
0.0
 40
0.446923180059133
100
AcDbArc
 50
125.0000114591653
 51
245.0000114592238
  0
ARC
  5
8083C
102
{ACAD_REACTORS
330
808D0
330
84EAD
102
}
330
18
100
AcDbEntity
  8
\U+FF77\U+FF6C\U+FF6F\U+FF8C\U+FF9F\U+FF8E\U+FF9E\U+FF99\U+FF84
100
AcDbCircle
 10
5846.580670201074
 20
-3546.063064249216
 30
0.0
 40
0.446923180059133
100
AcDbArc
 50
65.00001145922372
 51
185.0000114591538
  0
ARC
  5
8083D
102
{ACAD_REACTORS
330
808D0
330
84EAD
102
}
330
18
100
AcDbEntity
  8
\U+FF77\U+FF6C\U+FF6F\U+FF8C\U+FF9F\U+FF8E\U+FF9E\U+FF99\U+FF84
100
AcDbCircle
 10
5959.084976571816
 20
-3544.324520363627
 30
0.0
 40
0.446923180059133
100
AcDbArc
 50
215.0000114591589
 51
335.0000114592237
  0
ARC
  5
8083E
102
{ACAD_REACTORS
330
808D0
330
84EAD
102
}
330
18
100
AcDbEntity
  8
\U+FF77\U+FF6C\U+FF6F\U+FF8C\U+FF9F\U+FF8E\U+FF9E\U+FF99\U+FF84
100
AcDbCircle
 10
5960.036409443579
 20
-3545.683306744591
 30
0.0
 40
0.446923180059133
100
AcDbArc
 50
95.00001145915376
 51
215.0000114591589
  0
CIRCLE
  5
8083F
102
{ACAD_REACTORS
330
808D0
330
84EAD
102
}
330
18
100
AcDbEntity
  8
\U+FF77\U+FF6C\U+FF6F\U+FF8C\U+FF9F\U+FF8E\U+FF9E\U+FF99\U+FF84
100
AcDbCircle
 10
5959.168445085339
 20
-3545.278568740016
 30
0.0
 40
2.858333333333337
  0
CIRCLE
  5
80840
102
{ACAD_REACTORS
330
808D0
330
84EAD
102
}
330
18
100
AcDbEntity
  8
\U+FF77\U+FF6C\U+FF6F\U+FF8C\U+FF9F\U+FF8E\U+FF9E\U+FF99\U+FF84
100
AcDbCircle
 10
5959.168445085339
 20
-3545.278568740016
 30
0.0
 40
3.5
  0
ARC
  5
80841
102
{ACAD_REACTORS
330
808D0
330
84EAD
102
}
330
18
100
AcDbEntity
  8
\U+FF77\U+FF6C\U+FF6F\U+FF8C\U+FF9F\U+FF8E\U+FF9E\U+FF99\U+FF84
100
AcDbCircle
 10
5959.168445166287
 20
-3545.278568566424
 30
0.0
 40
0.83000019153839
100
AcDbArc
 50
62.7957839552099
 51
67.20423896321991
  0
ARC
  5
80842
102
{ACAD_REACTORS
330
808D0
330
84EAD
102
}
330
18
100
AcDbEntity
  8
\U+FF77\U+FF6C\U+FF6F\U+FF8C\U+FF9F\U+FF8E\U+FF9E\U+FF99\U+FF84
100
AcDbCircle
 10
5959.168445166287
 20
-3545.278568566424
 30
0.0
 40
0.83000019153839
100
AcDbArc
 50
2.795783955148322
 51
7.204238963171841
  0
ARC
  5
80843
102
{ACAD_REACTORS
330
808D0
330
84EAD
102
}
330
18
100
AcDbEntity
  8
\U+FF77\U+FF6C\U+FF6F\U+FF8C\U+FF9F\U+FF8E\U+FF9E\U+FF99\U+FF84
100
AcDbCircle
 10
5959.952940849107
 20
-3544.729258541794
 30
0.0
 40
0.446923180059133
100
AcDbArc
 50
155.0000114592237
 51
275.0000114591537
  0
ARC
  5
80844
102
{ACAD_REACTORS
330
808D0
330
84EAD
102
}
330
18
100
AcDbEntity
  8
\U+FF77\U+FF6C\U+FF6F\U+FF8C\U+FF9F\U+FF8E\U+FF9E\U+FF99\U+FF84
100
AcDbCircle
 10
5959.168445166287
 20
-3545.278568566424
 30
0.0
 40
0.83000019153839
100
AcDbArc
 50
122.795783955177
 51
127.2042389630178
  0
ARC
  5
80845
102
{ACAD_REACTORS
330
808D0
330
84EAD
102
}
330
18
100
AcDbEntity
  8
\U+FF77\U+FF6C\U+FF6F\U+FF8C\U+FF9F\U+FF8E\U+FF9E\U+FF99\U+FF84
100
AcDbCircle
 10
5958.300480888993
 20
-3544.873830388257
 30
0.0
 40
0.446923180059133
100
AcDbArc
 50
275.0000114591537
 51
35.00001145915887
  0
ARC
  5
80846
102
{ACAD_REACTORS
330
808D0
330
84EAD
102
}
330
18
100
AcDbEntity
  8
\U+FF77\U+FF6C\U+FF6F\U+FF8C\U+FF9F\U+FF8E\U+FF9E\U+FF99\U+FF84
100
AcDbCircle
 10
5959.168445166287
 20
-3545.278568566424
 30
0.0
 40
0.83000019153839
100
AcDbArc
 50
182.7957839551483
 51
187.2042389630619
  0
ARC
  5
80847
102
{ACAD_REACTORS
330
808D0
330
84EAD
102
}
330
18
100
AcDbEntity
  8
\U+FF77\U+FF6C\U+FF6F\U+FF8C\U+FF9F\U+FF8E\U+FF9E\U+FF99\U+FF84
100
AcDbCircle
 10
5959.168445166287
 20
-3545.278568566424
 30
0.0
 40
0.83000019153839
100
AcDbArc
 50
302.7957839551771
 51
307.2042389630177
  0
ARC
  5
80848
102
{ACAD_REACTORS
330
808D0
330
84EAD
102
}
330
18
100
AcDbEntity
  8
\U+FF77\U+FF6C\U+FF6F\U+FF8C\U+FF9F\U+FF8E\U+FF9E\U+FF99\U+FF84
100
AcDbCircle
 10
5959.168445166287
 20
-3545.278568566424
 30
0.0
 40
0.83000019153839
100
AcDbArc
 50
242.7957839551053
 51
247.20423896322
  0
ARC
  5
80849
102
{ACAD_REACTORS
330
808D0
330
84EAD
102
}
330
18
100
AcDbEntity
  8
\U+FF77\U+FF6C\U+FF6F\U+FF8C\U+FF9F\U+FF8E\U+FF9E\U+FF99\U+FF84
100
AcDbCircle
 10
5959.251913760759
 20
-3546.232616769219
 30
0.0
 40
0.446923180059133
100
AcDbArc
 50
35.00001145915887
 51
155.0000114592237
  0
ARC
  5
8084A
102
{ACAD_REACTORS
330
808D0
330
84EAD
102
}
330
18
100
AcDbEntity
  8
\U+FF77\U+FF6C\U+FF6F\U+FF8C\U+FF9F\U+FF8E\U+FF9E\U+FF99\U+FF84
100
AcDbCircle
 10
5958.383949483465
 20
-3545.827878591053
 30
0.0
 40
0.446923180059133
100
AcDbArc
 50
335.0000114592237
 51
95.00001145915376
  0
ARC
  5
8084B
102
{ACAD_REACTORS
330
808D0
330
84EAD
102
}
330
18
100
AcDbEntity
  8
\U+FF77\U+FF6C\U+FF6F\U+FF8C\U+FF9F\U+FF8E\U+FF9E\U+FF99\U+FF84
100
AcDbCircle
 10
5846.114828770883
 20
-3659.369701759038
 30
0.0
 40
0.446923180059133
100
AcDbArc
 50
35.00001145915887
 51
155.0000114592237
  0
ARC
  5
8084C
102
{ACAD_REACTORS
330
808D0
330
84EAD
102
}
330
18
100
AcDbEntity
  8
\U+FF77\U+FF6C\U+FF6F\U+FF8C\U+FF9F\U+FF8E\U+FF9E\U+FF99\U+FF84
100
AcDbCircle
 10
5845.163395899119
 20
-3658.010915378074
 30
0.0
 40
0.446923180059133
100
AcDbArc
 50
275.0000114591537
 51
35.00001145915887
  0
CIRCLE
  5
8084D
102
{ACAD_REACTORS
330
808D0
330
84EAD
102
}
330
18
100
AcDbEntity
  8
\U+FF77\U+FF6C\U+FF6F\U+FF8C\U+FF9F\U+FF8E\U+FF9E\U+FF99\U+FF84
100
AcDbCircle
 10
5846.031360257359
 20
-3658.41565338265
 30
0.0
 40
2.858333333333337
  0
CIRCLE
  5
8084E
102
{ACAD_REACTORS
330
808D0
330
84EAD
102
}
330
18
100
AcDbEntity
  8
\U+FF77\U+FF6C\U+FF6F\U+FF8C\U+FF9F\U+FF8E\U+FF9E\U+FF99\U+FF84
100
AcDbCircle
 10
5846.031360257359
 20
-3658.41565338265
 30
0.0
 40
3.5
  0
ARC
  5
8084F
102
{ACAD_REACTORS
330
808D0
330
84EAD
102
}
330
18
100
AcDbEntity
  8
\U+FF77\U+FF6C\U+FF6F\U+FF8C\U+FF9F\U+FF8E\U+FF9E\U+FF99\U+FF84
100
AcDbCircle
 10
5846.03136017641
 20
-3658.415653556242
 30
0.0
 40
0.83000019153839
100
AcDbArc
 50
242.7957839552099
 51
247.20423896322
  0
ARC
  5
80850
102
{ACAD_REACTORS
330
808D0
330
84EAD
102
}
330
18
100
AcDbEntity
  8
\U+FF77\U+FF6C\U+FF6F\U+FF8C\U+FF9F\U+FF8E\U+FF9E\U+FF99\U+FF84
100
AcDbCircle
 10
5846.03136017641
 20
-3658.415653556242
 30
0.0
 40
0.83000019153839
100
AcDbArc
 50
182.7957839551483
 51
187.2042389631719
  0
ARC
  5
80851
102
{ACAD_REACTORS
330
808D0
330
84EAD
102
}
330
18
100
AcDbEntity
  8
\U+FF77\U+FF6C\U+FF6F\U+FF8C\U+FF9F\U+FF8E\U+FF9E\U+FF99\U+FF84
100
AcDbCircle
 10
5845.246864493595
 20
-3658.964963580871
 30
0.0
 40
0.446923180059133
100
AcDbArc
 50
335.0000114592237
 51
95.00001145915376
  0
ARC
  5
80852
102
{ACAD_REACTORS
330
808D0
330
84EAD
102
}
330
18
100
AcDbEntity
  8
\U+FF77\U+FF6C\U+FF6F\U+FF8C\U+FF9F\U+FF8E\U+FF9E\U+FF99\U+FF84
100
AcDbCircle
 10
5846.03136017641
 20
-3658.415653556242
 30
0.0
 40
0.83000019153839
100
AcDbArc
 50
302.7957839551771
 51
307.2042389630177
  0
ARC
  5
80853
102
{ACAD_REACTORS
330
808D0
330
84EAD
102
}
330
18
100
AcDbEntity
  8
\U+FF77\U+FF6C\U+FF6F\U+FF8C\U+FF9F\U+FF8E\U+FF9E\U+FF99\U+FF84
100
AcDbCircle
 10
5846.899324453705
 20
-3658.820391734409
 30
0.0
 40
0.446923180059133
100
AcDbArc
 50
95.00001145915376
 51
215.0000114591589
  0
ARC
  5
80854
102
{ACAD_REACTORS
330
808D0
330
84EAD
102
}
330
18
100
AcDbEntity
  8
\U+FF77\U+FF6C\U+FF6F\U+FF8C\U+FF9F\U+FF8E\U+FF9E\U+FF99\U+FF84
100
AcDbCircle
 10
5846.03136017641
 20
-3658.415653556242
 30
0.0
 40
0.83000019153839
100
AcDbArc
 50
2.795783955148322
 51
7.204238963061931
  0
ARC
  5
80855
102
{ACAD_REACTORS
330
808D0
330
84EAD
102
}
330
18
100
AcDbEntity
  8
\U+FF77\U+FF6C\U+FF6F\U+FF8C\U+FF9F\U+FF8E\U+FF9E\U+FF99\U+FF84
100
AcDbCircle
 10
5846.03136017641
 20
-3658.415653556242
 30
0.0
 40
0.83000019153839
100
AcDbArc
 50
122.795783955177
 51
127.2042389630178
  0
ARC
  5
80856
102
{ACAD_REACTORS
330
808D0
330
84EAD
102
}
330
18
100
AcDbEntity
  8
\U+FF77\U+FF6C\U+FF6F\U+FF8C\U+FF9F\U+FF8E\U+FF9E\U+FF99\U+FF84
100
AcDbCircle
 10
5846.03136017641
 20
-3658.415653556242
 30
0.0
 40
0.83000019153839
100
AcDbArc
 50
62.79578395510533
 51
67.20423896321991
  0
ARC
  5
80857
102
{ACAD_REACTORS
330
808D0
330
84EAD
102
}
330
18
100
AcDbEntity
  8
\U+FF77\U+FF6C\U+FF6F\U+FF8C\U+FF9F\U+FF8E\U+FF9E\U+FF99\U+FF84
100
AcDbCircle
 10
5845.947891581938
 20
-3657.461605353446
 30
0.0
 40
0.446923180059133
100
AcDbArc
 50
215.0000114591589
 51
335.0000114592237
  0
ARC
  5
80858
102
{ACAD_REACTORS
330
808D0
330
84EAD
102
}
330
18
100
AcDbEntity
  8
\U+FF77\U+FF6C\U+FF6F\U+FF8C\U+FF9F\U+FF8E\U+FF9E\U+FF99\U+FF84
100
AcDbCircle
 10
5846.815855859233
 20
-3657.866343531612
 30
0.0
 40
0.446923180059133
100
AcDbArc
 50
155.0000114592237
 51
275.0000114591537
  0
ARC
  5
80859
102
{ACAD_REACTORS
330
808D0
330
84EAD
102
}
330
18
100
AcDbEntity
  8
\U+FF77\U+FF6C\U+FF6F\U+FF8C\U+FF9F\U+FF8E\U+FF9E\U+FF99\U+FF84
100
AcDbCircle
 10
5958.619135141628
 20
-3657.631157873453
 30
0.0
 40
0.446923180059133
100
AcDbArc
 50
245.0000114592238
 51
5.000011459153768
  0
ARC
  5
8085A
102
{ACAD_REACTORS
330
808D0
330
84EAD
102
}
330
18
100
AcDbEntity
  8
\U+FF77\U+FF6C\U+FF6F\U+FF8C\U+FF9F\U+FF8E\U+FF9E\U+FF99\U+FF84
100
AcDbCircle
 10
5958.214396963464
 20
-3658.499122150748
 30
0.0
 40
0.446923180059133
100
AcDbArc
 50
305.0000114591653
 51
65.00001145922372
  0
ARC
  5
8085B
102
{ACAD_REACTORS
330
808D0
330
84EAD
102
}
330
18
100
AcDbEntity
  8
\U+FF77\U+FF6C\U+FF6F\U+FF8C\U+FF9F\U+FF8E\U+FF9E\U+FF99\U+FF84
100
AcDbCircle
 10
5959.168445166259
 20
-3658.415653556276
 30
0.0
 40
0.83000019153839
100
AcDbArc
 50
152.7957839551053
 51
157.2042389631959
  0
ARC
  5
8085C
102
{ACAD_REACTORS
330
808D0
330
84EAD
102
}
330
18
100
AcDbEntity
  8
\U+FF77\U+FF6C\U+FF6F\U+FF8C\U+FF9F\U+FF8E\U+FF9E\U+FF99\U+FF84
100
AcDbCircle
 10
5959.168445166259
 20
-3658.415653556276
 30
0.0
 40
0.83000019153839
100
AcDbArc
 50
212.795783955177
 51
217.2042389630334
  0
ARC
  5
8085D
102
{ACAD_REACTORS
330
808D0
330
84EAD
102
}
330
18
100
AcDbEntity
  8
\U+FF77\U+FF6C\U+FF6F\U+FF8C\U+FF9F\U+FF8E\U+FF9E\U+FF99\U+FF84
100
AcDbCircle
 10
5959.168445166259
 20
-3658.415653556276
 30
0.0
 40
0.83000019153839
100
AcDbArc
 50
92.79578395514951
 51
97.2042389630652
  0
ARC
  5
8085E
102
{ACAD_REACTORS
330
808D0
330
84EAD
102
}
330
18
100
AcDbEntity
  8
\U+FF77\U+FF6C\U+FF6F\U+FF8C\U+FF9F\U+FF8E\U+FF9E\U+FF99\U+FF84
100
AcDbCircle
 10
5959.573183344426
 20
-3657.547689278981
 30
0.0
 40
0.446923180059133
100
AcDbArc
 50
185.0000114591538
 51
305.0000114591653
  0
ARC
  5
8085F
102
{ACAD_REACTORS
330
808D0
330
84EAD
102
}
330
18
100
AcDbEntity
  8
\U+FF77\U+FF6C\U+FF6F\U+FF8C\U+FF9F\U+FF8E\U+FF9E\U+FF99\U+FF84
100
AcDbCircle
 10
5959.168445166259
 20
-3658.415653556276
 30
0.0
 40
0.83000019153839
100
AcDbArc
 50
32.79578395517707
 51
37.20423896303345
  0
ARC
  5
80860
102
{ACAD_REACTORS
330
808D0
330
84EAD
102
}
330
18
100
AcDbEntity
  8
\U+FF77\U+FF6C\U+FF6F\U+FF8C\U+FF9F\U+FF8E\U+FF9E\U+FF99\U+FF84
100
AcDbCircle
 10
5959.717755190887
 20
-3659.200149239094
 30
0.0
 40
0.446923180059133
100
AcDbArc
 50
65.00001145922372
 51
185.0000114591538
  0
ARC
  5
80861
102
{ACAD_REACTORS
330
808D0
330
84EAD
102
}
330
18
100
AcDbEntity
  8
\U+FF77\U+FF6C\U+FF6F\U+FF8C\U+FF9F\U+FF8E\U+FF9E\U+FF99\U+FF84
100
AcDbCircle
 10
5959.168445166259
 20
-3658.415653556276
 30
0.0
 40
0.83000019153839
100
AcDbArc
 50
272.7957839551496
 51
277.2042389631686
  0
ARC
  5
80862
102
{ACAD_REACTORS
330
808D0
330
84EAD
102
}
330
18
100
AcDbEntity
  8
\U+FF77\U+FF6C\U+FF6F\U+FF8C\U+FF9F\U+FF8E\U+FF9E\U+FF99\U+FF84
100
AcDbCircle
 10
5959.168445166259
 20
-3658.415653556276
 30
0.0
 40
0.83000019153839
100
AcDbArc
 50
332.7957839551987
 51
337.2042389631959
  0
CIRCLE
  5
80863
102
{ACAD_REACTORS
330
808D0
330
84EAD
102
}
330
18
100
AcDbEntity
  8
\U+FF77\U+FF6C\U+FF6F\U+FF8C\U+FF9F\U+FF8E\U+FF9E\U+FF99\U+FF84
100
AcDbCircle
 10
5959.168444992665
 20
-3658.415653475327
 30
0.0
 40
3.5
  0
CIRCLE
  5
80864
102
{ACAD_REACTORS
330
808D0
330
84EAD
102
}
330
18
100
AcDbEntity
  8
\U+FF77\U+FF6C\U+FF6F\U+FF8C\U+FF9F\U+FF8E\U+FF9E\U+FF99\U+FF84
100
AcDbCircle
 10
5959.168444992665
 20
-3658.415653475327
 30
0.0
 40
2.858333333333337
  0
ARC
  5
80865
102
{ACAD_REACTORS
330
808D0
330
84EAD
102
}
330
18
100
AcDbEntity
  8
\U+FF77\U+FF6C\U+FF6F\U+FF8C\U+FF9F\U+FF8E\U+FF9E\U+FF99\U+FF84
100
AcDbCircle
 10
5958.763706988091
 20
-3659.283617833568
 30
0.0
 40
0.446923180059133
100
AcDbArc
 50
5.000011459153768
 51
125.0000114591653
  0
ARC
  5
80866
102
{ACAD_REACTORS
330
808D0
330
84EAD
102
}
330
18
100
AcDbEntity
  8
\U+FF77\U+FF6C\U+FF6F\U+FF8C\U+FF9F\U+FF8E\U+FF9E\U+FF99\U+FF84
100
AcDbCircle
 10
5960.122493369054
 20
-3658.332184961805
 30
0.0
 40
0.446923180059133
100
AcDbArc
 50
125.0000114591653
 51
245.0000114592238
  0
ARC
  5
8086B
102
{ACAD_REACTORS
330
808D0
330
84EAD
102
}
330
18
100
AcDbEntity
  8
実線
100
AcDbCircle
 10
5902.599902671412
 20
-3601.847111061252
 30
0.0
 40
127.0
100
AcDbArc
 50
259.8182516116652
 51
280.1817483883348
  0
ARC
  5
8086C
102
{ACAD_REACTORS
330
808D0
330
84EAD
102
}
330
18
100
AcDbEntity
  8
実線
100
AcDbCircle
 10
5902.599902671412
 20
-3601.847111061252
 30
0.0
 40
127.0
100
AcDbArc
 50
169.8182516116698
 51
190.1817483883301
  0
LINE
  5
80893
102
{ACAD_REACTORS
330
808D0
330
84EAD
102
}
330
18
100
AcDbEntity
  8
\U+FF7A\U+FF88\U+FF78\U+FF80
100
AcDbLine
 10
6042.599902671412
 20
-3610.500911061252
 30
0.0
 11
6042.599902671412
 21
-3593.193311061253
 31
0.0
  0
LINE
  5
80894
102
{ACAD_REACTORS
330
808D0
330
84EAD
102
}
330
18
100
AcDbEntity
  8
中心線
 48
3.0
100
AcDbLine
 10
6078.035164783848
 20
-3601.847111061252
 30
0.0
 11
6035.058569511468
 21
-3601.847111061252
 31
0.0
  0
LINE
  5
80895
102
{ACAD_REACTORS
330
808D0
330
84EAD
102
}
330
18
100
AcDbEntity
  8
\U+FF7A\U+FF88\U+FF78\U+FF80
100
AcDbLine
 10
6047.599902671413
 20
-3607.84710979962
 30
0.0
 11
6052.599902671413
 21
-3607.847108537984
 31
0.0
  0
LINE
  5
80896
102
{ACAD_REACTORS
330
808D0
330
84EAD
102
}
330
18
100
AcDbEntity
  8
\U+FF7A\U+FF88\U+FF78\U+FF80
100
AcDbLine
 10
6047.599902671413
 20
-3595.847109799615
 30
0.0
 11
6052.599902671413
 21
-3595.847108537981
 31
0.0
  0
LINE
  5
80897
102
{ACAD_REACTORS
330
808D0
330
84EAD
102
}
330
18
100
AcDbEntity
  8
\U+FF7A\U+FF88\U+FF78\U+FF80
100
AcDbLine
 10
6052.599902671413
 20
-3605.41401106125
 30
0.0
 11
6059.76071438448
 21
-3605.41401106125
 31
0.0
  0
LINE
  5
80898
102
{ACAD_REACTORS
330
808D0
330
84EAD
102
}
330
18
100
AcDbEntity
  8
\U+FF7A\U+FF88\U+FF78\U+FF80
100
AcDbLine
 10
6052.599902671413
 20
-3606.93401106125
 30
0.0
 11
6059.76071438448
 21
-3606.93401106125
 31
0.0
  0
LINE
  5
80899
102
{ACAD_REACTORS
330
808D0
330
84EAD
102
}
330
18
100
AcDbEntity
  8
\U+FF7A\U+FF88\U+FF78\U+FF80
100
AcDbLine
 10
6052.599902671413
 20
-3596.76021106125
 30
0.0
 11
6059.76071438448
 21
-3596.76021106125
 31
0.0
  0
LINE
  5
8089A
102
{ACAD_REACTORS
330
808D0
330
84EAD
102
}
330
18
100
AcDbEntity
  8
\U+FF7A\U+FF88\U+FF78\U+FF80
100
AcDbLine
 10
6052.599902671413
 20
-3598.280211061251
 30
0.0
 11
6059.76071438448
 21
-3598.280211061251
 31
0.0
  0
LINE
  5
8089B
102
{ACAD_REACTORS
330
808D0
330
84EAD
102
}
330
18
100
AcDbEntity
  8
\U+FF7A\U+FF88\U+FF78\U+FF80
100
AcDbLine
 10
6052.599902671413
 20
-3593.193311061253
 30
0.0
 11
6060.599902671413
 21
-3593.193311061253
 31
0.0
  0
LINE
  5
8089C
102
{ACAD_REACTORS
330
808D0
330
84EAD
102
}
330
18
100
AcDbEntity
  8
\U+FF7A\U+FF88\U+FF78\U+FF80
100
AcDbLine
 10
6052.599902671413
 20
-3610.500911061252
 30
0.0
 11
6060.599902671413
 21
-3610.500911061252
 31
0.0
  0
LINE
  5
8089D
102
{ACAD_REACTORS
330
808D0
330
84EAD
102
}
330
18
100
AcDbEntity
  8
\U+FF7A\U+FF88\U+FF78\U+FF80
100
AcDbLine
 10
6060.599902671413
 20
-3610.500911061252
 30
0.0
 11
6064.599902671413
 21
-3607.144512536543
 31
0.0
  0
LINE
  5
8089E
102
{ACAD_REACTORS
330
808D0
330
84EAD
102
}
330
18
100
AcDbEntity
  8
\U+FF7A\U+FF88\U+FF78\U+FF80
100
AcDbLine
 10
6060.599902671413
 20
-3593.193311061253
 30
0.0
 11
6064.599902671413
 21
-3596.549709585961
 31
0.0
  0
LINE
  5
8089F
102
{ACAD_REACTORS
330
808D0
330
84EAD
102
}
330
18
100
AcDbEntity
  8
\U+FF7A\U+FF88\U+FF78\U+FF80
100
AcDbLine
 10
6064.599902671413
 20
-3596.549709585961
 30
0.0
 11
6064.599902671413
 21
-3607.144512536543
 31
0.0
  0
ARC
  5
808A0
102
{ACAD_REACTORS
330
808D0
330
84EAD
102
}
330
18
100
AcDbEntity
  8
\U+FF7A\U+FF88\U+FF78\U+FF80
100
AcDbCircle
 10
6052.599902671413
 20
-3610.500911061252
 30
0.0
 40
8.0
100
AcDbArc
 50
0.0
 51
26.47853447905733
  0
ARC
  5
808A1
102
{ACAD_REACTORS
330
808D0
330
84EAD
102
}
330
18
100
AcDbEntity
  8
\U+FF7A\U+FF88\U+FF78\U+FF80
100
AcDbCircle
 10
6052.599902671413
 20
-3593.193311061253
 30
0.0
 40
8.0
100
AcDbArc
 50
333.5214655209426
 51
0.0
  0
LINE
  5
808A2
102
{ACAD_REACTORS
330
808D0
330
84EAD
102
}
330
18
100
AcDbEntity
  8
\U+FF7A\U+FF88\U+FF78\U+FF80
100
AcDbLine
 10
6060.599902671413
 20
-3593.193311061253
 30
0.0
 11
6060.599902671413
 21
-3610.500911061252
 31
0.0
  0
LINE
  5
808A3
102
{ACAD_REACTORS
330
808D0
330
84EAD
102
}
330
18
100
AcDbEntity
  8
\U+FF7A\U+FF88\U+FF78\U+FF80
100
AcDbLine
 10
6059.76071438448
 20
-3606.93401106125
 30
0.0
 11
6059.76071438448
 21
-3605.41401106125
 31
0.0
  0
LINE
  5
808A4
102
{ACAD_REACTORS
330
808D0
330
84EAD
102
}
330
18
100
AcDbEntity
  8
\U+FF7A\U+FF88\U+FF78\U+FF80
100
AcDbLine
 10
6059.76071438448
 20
-3598.280211061251
 30
0.0
 11
6059.76071438448
 21
-3596.76021106125
 31
0.0
  0
ARC
  5
808A5
102
{ACAD_REACTORS
330
808D0
330
84EAD
102
}
330
18
100
AcDbEntity
  8
\U+FF7A\U+FF88\U+FF78\U+FF80
100
AcDbCircle
 10
6052.599902671413
 20
-3601.847111061252
 30
0.0
 40
8.0
100
AcDbArc
 50
333.5214655209426
 51
26.47853447905733
  0
LINE
  5
808A6
102
{ACAD_REACTORS
330
808D0
330
84EAD
102
}
330
18
100
AcDbEntity
  8
\U+FF7A\U+FF88\U+FF78\U+FF80
100
AcDbLine
 10
6052.599902671413
 20
-3593.193311061253
 30
0.0
 11
6052.599902671413
 21
-3610.500911061252
 31
0.0
  0
LINE
  5
808A7
102
{ACAD_REACTORS
330
808D0
330
84EAD
102
}
330
18
100
AcDbEntity
  8
\U+FF7A\U+FF88\U+FF78\U+FF80
100
AcDbLine
 10
6047.599902671413
 20
-3593.193311061253
 30
0.0
 11
6047.599902671413
 21
-3610.500911061252
 31
0.0
  0
LINE
  5
808A8
102
{ACAD_REACTORS
330
808D0
330
84EAD
102
}
330
18
100
AcDbEntity
  8
\U+FF7A\U+FF88\U+FF78\U+FF80
100
AcDbLine
 10
6042.599902671412
 20
-3606.93401106125
 30
0.0
 11
6047.599902671413
 21
-3606.93401106125
 31
0.0
  0
LINE
  5
808A9
102
{ACAD_REACTORS
330
808D0
330
84EAD
102
}
330
18
100
AcDbEntity
  8
\U+FF7A\U+FF88\U+FF78\U+FF80
100
AcDbLine
 10
6042.599902671412
 20
-3605.41401106125
 30
0.0
 11
6047.599902671413
 21
-3605.41401106125
 31
0.0
  0
LINE
  5
808AA
102
{ACAD_REACTORS
330
808D0
330
84EAD
102
}
330
18
100
AcDbEntity
  8
\U+FF7A\U+FF88\U+FF78\U+FF80
100
AcDbLine
 10
6042.599902671412
 20
-3596.76021106125
 30
0.0
 11
6047.599902671413
 21
-3596.76021106125
 31
0.0
  0
LINE
  5
808AB
102
{ACAD_REACTORS
330
808D0
330
84EAD
102
}
330
18
100
AcDbEntity
  8
\U+FF7A\U+FF88\U+FF78\U+FF80
100
AcDbLine
 10
6042.599902671412
 20
-3598.280211061251
 30
0.0
 11
6047.599902671413
 21
-3598.280211061251
 31
0.0
  0
LINE
  5
808AC
102
{ACAD_REACTORS
330
808D0
330
84EAD
102
}
330
18
100
AcDbEntity
  8
\U+FF7A\U+FF88\U+FF78\U+FF80
100
AcDbLine
 10
6042.599902671412
 20
-3593.193311061253
 30
0.0
 11
6047.599902671413
 21
-3593.193311061253
 31
0.0
  0
LINE
  5
808AD
102
{ACAD_REACTORS
330
808D0
330
84EAD
102
}
330
18
100
AcDbEntity
  8
\U+FF7A\U+FF88\U+FF78\U+FF80
100
AcDbLine
 10
6042.599902671412
 20
-3610.500911061252
 30
0.0
 11
6047.599902671413
 21
-3610.500911061252
 31
0.0
  0
LINE
  5
808AE
102
{ACAD_REACTORS
330
808D0
330
84EAD
102
}
330
18
100
AcDbEntity
  8
中心線
100
AcDbLine
 10
6014.667643895638
 20
-3713.914852285481
 30
0.0
 11
5991.350487304163
 21
-3690.597695694003
 31
0.0
  0
ARC
  5
808AF
102
{ACAD_REACTORS
330
808D0
330
84EAD
102
}
330
18
100
AcDbEntity
  8
中心線
100
AcDbCircle
 10
5902.599902671412
 20
-3601.847111061252
 30
0.0
 40
142.0
100
AcDbArc
 50
38.29999999999871
 51
51.656395847022
  0
ARC
  5
808B0
102
{ACAD_REACTORS
330
808D0
330
84EAD
102
}
330
18
100
AcDbEntity
  8
中心線
100
AcDbCircle
 10
5902.599902671412
 20
-3601.847111061252
 30
0.0
 40
142.0
100
AcDbArc
 50
218.2999999999988
 51
231.6563958470221
  0
ARC
  5
808B2
102
{ACAD_REACTORS
330
808D0
330
84EAD
102
}
330
18
100
AcDbEntity
  8
実線
100
AcDbCircle
 10
6032.599902671413
 20
-3537.620948167925
 30
0.0
 40
5.0
100
AcDbArc
 50
180.0
 51
206.2915552747689
  0
LINE
  5
808B3
102
{ACAD_REACTORS
330
808D0
330
84EAD
102
}
330
18
100
AcDbEntity
  8
中心線
100
AcDbLine
 10
5757.339727743958
 20
-3601.847111061252
 30
0.0
 11
6047.860077598867
 21
-3601.847111061252
 31
0.0
  0
ARC
  5
808B4
102
{ACAD_REACTORS
330
808D0
330
84EAD
102
}
330
18
100
AcDbEntity
  8
実線
100
AcDbCircle
 10
5902.599902671412
 20
-3601.847111061252
 30
0.0
 40
140.0
100
AcDbArc
 50
333.7084447252311
 51
26.29155527476886
  0
LINE
  5
808B5
102
{ACAD_REACTORS
330
808D0
330
84EAD
102
}
330
18
100
AcDbEntity
  8
中心線
100
AcDbLine
 10
5991.350487304163
 20
-3513.096526428501
 30
0.0
 11
6014.667643895641
 21
-3489.779369837024
 31
0.0
  0
ARC
  5
808B6
102
{ACAD_REACTORS
330
808D0
330
84EAD
102
}
330
18
100
AcDbEntity
  8
中心線
100
AcDbCircle
 10
5902.599902671412
 20
-3601.847111061252
 30
0.0
 40
142.0
100
AcDbArc
 50
308.3436041529781
 51
321.6563958469854
  0
ARC
  5
808B7
102
{ACAD_REACTORS
330
808D0
330
84EAD
102
}
330
18
100
AcDbEntity
  8
中心線
100
AcDbCircle
 10
5902.599902671412
 20
-3601.847111061252
 30
0.0
 40
142.0
100
AcDbArc
 50
128.343604152978
 51
141.6563958469855
  0
CIRCLE
  5
808B8
102
{ACAD_REACTORS
330
808D0
330
84EAD
102
}
330
18
100
AcDbEntity
  8
実線
100
AcDbCircle
 10
6003.009065599901
 20
-3702.256273989744
 30
0.0
 40
6.5
  0
CIRCLE
  5
808B9
102
{ACAD_REACTORS
330
808D0
330
84EAD
102
}
330
18
100
AcDbEntity
  8
実線
100
AcDbCircle
 10
6003.009065599901
 20
-3501.437948132763
 30
0.0
 40
6.5
  0
CIRCLE
  5
808BB
102
{ACAD_REACTORS
330
808D0
330
84EAD
102
}
330
18
100
AcDbEntity
  8
実線
100
AcDbCircle
 10
5802.190739742924
 20
-3702.256273989744
 30
0.0
 40
6.5
  0
CIRCLE
  5
808BC
102
{ACAD_REACTORS
330
808D0
330
84EAD
102
}
330
18
100
AcDbEntity
  8
実線
100
AcDbCircle
 10
5802.190739742924
 20
-3501.437948132763
 30
0.0
 40
6.5
  0
LINE
  5
808BD
102
{ACAD_REACTORS
330
808D0
330
84EAD
102
}
330
18
100
AcDbEntity
  8
中心線
100
AcDbLine
 10
5790.532161447183
 20
-3713.914852285481
 30
0.0
 11
5813.849318038661
 21
-3690.597695694003
 31
0.0
  0
LINE
  5
808BF
102
{ACAD_REACTORS
330
808D0
330
84EAD
102
}
330
18
100
AcDbEntity
  8
実線
100
AcDbLine
 10
5777.599902671431
 20
-3501.972189284038
 30
0.0
 11
5777.599902671412
 21
-3701.722032838443
 31
0.0
  0
LINE
  5
808C0
102
{ACAD_REACTORS
330
808D0
330
84EAD
102
}
330
18
100
AcDbEntity
  8
実線
100
AcDbLine
 10
5802.7249808942
 20
-3476.84711106127
 30
0.0
 11
6002.474824448603
 21
-3476.847111061252
 31
0.0
  0
ARC
  5
808C2
102
{ACAD_REACTORS
330
808D0
330
84EAD
102
}
330
18
100
AcDbEntity
  8
実線
100
AcDbCircle
 10
5902.599902671412
 20
-3601.847111061252
 30
0.0
 40
160.0
100
AcDbArc
 50
38.62483287306319
 51
51.37516712693681
  0
ARC
  5
808C4
102
{ACAD_REACTORS
330
808D0
330
84EAD
102
}
330
18
100
AcDbEntity
  8
実線
100
AcDbCircle
 10
5902.599902671412
 20
-3601.847111061252
 30
0.0
 40
160.0
100
AcDbArc
 50
218.6248328730632
 51
231.3751671269367
  0
ARC
  5
808C5
102
{ACAD_REACTORS
330
808D0
330
84EAD
102
}
330
18
100
AcDbEntity
  8
実線
100
AcDbCircle
 10
5902.599902671412
 20
-3601.847111061252
 30
0.0
 40
160.0
100
AcDbArc
 50
128.6248328730632
 51
141.3751671269368
  0
LINE
  5
808C6
102
{ACAD_REACTORS
330
808D0
330
84EAD
102
}
330
18
100
AcDbEntity
  8
実線
100
AcDbLine
 10
6027.599902671412
 20
-3501.972189284062
 30
0.0
 11
6027.599902671412
 21
-3537.620948167925
 31
0.0
  0
LINE
  5
808C7
102
{ACAD_REACTORS
330
808D0
330
84EAD
102
}
330
18
100
AcDbEntity
  8
実線
100
AcDbLine
 10
5802.724980894222
 20
-3726.847111061252
 30
0.0
 11
6002.474824448626
 21
-3726.847111061234
 31
0.0
  0
ARC
  5
808CA
102
{ACAD_REACTORS
330
808D0
330
84EAD
102
}
330
18
100
AcDbEntity
  8
実線
100
AcDbCircle
 10
5902.599902671412
 20
-3601.847111061252
 30
0.0
 40
127.0
100
AcDbArc
 50
79.81825161166523
 51
100.1817483883348
  0
LINE
  5
808CB
102
{ACAD_REACTORS
330
808D0
330
84EAD
102
}
330
18
100
AcDbEntity
  8
中心線
100
AcDbLine
 10
5902.599902671412
 20
-3464.347111061261
 30
0.0
 11
5902.656699076445
 21
-3741.771074864475
 31
0.0
  0
LINE
  5
808D5
102
{ACAD_REACTORS
330
808D6
102
}
330
18
100
AcDbEntity
  8
中心線
100
AcDbLine
 10
5503.267048596701
 20
-3713.914852285483
 30
0.0
 11
5479.949892005223
 21
-3690.597695694004
 31
0.0
  0
LINE
  5
80910
102
{ACAD_REACTORS
330
80949
102
}
330
18
100
AcDbEntity
  8
\U+FF7A\U+FF88\U+FF78\U+FF80
100
AcDbLine
 10
5207.452785900244
 20
-3855.902632290007
 30
0.0
 11
5229.199307372471
 21
-3855.902632289999
 31
0.0
  0
LINE
  5
80911
102
{ACAD_REACTORS
330
80949
102
}
330
18
100
AcDbEntity
  8
\U+FF7A\U+FF88\U+FF78\U+FF80
100
AcDbLine
 10
5207.452785900244
 20
-3862.402632289998
 30
0.0
 11
5229.199307372471
 21
-3862.402632289999
 31
0.0
  0
LINE
  5
80B95
102
{ACAD_REACTORS
330
80B9B
102
}
330
18
100
AcDbEntity
  8
外形線
100
AcDbLine
 10
5695.749888053045
 20
-3476.847111061252
 30
0.0
 11
5715.749888053045
 21
-3476.847111061252
 31
0.0
  0
LINE
  5
80B97
102
{ACAD_REACTORS
330
80B9B
102
}
330
18
100
AcDbEntity
  8
外形線
100
AcDbLine
 10
5695.749888053043
 20
-3726.847112102825
 30
0.0
 11
5715.749888053046
 21
-3726.847112102823
 31
0.0
  0
LINE
  5
80B99
102
{ACAD_REACTORS
330
80B9A
102
}
330
18
100
AcDbEntity
  8
外形線
100
AcDbLine
 10
5516.199307372452
 20
-3879.15263178627
 30
0.0
 11
5516.199307372454
 21
-3899.152631786272
 31
0.0
  0
SPLINE
  5
82148
102
{ACAD_REACTORS
330
8214C
102
}
330
18
100
AcDbEntity
  8
細線
100
AcDbSpline
210
0.0
220
0.0
230
1.0
 70
  1064
 71
     3
 72
    11
 73
     7
 74
     5
 42
0.000000001
 43
0.0000000001
 44
0.0000000001
 40
0.0
 40
0.0
 40
0.0
 40
0.0
 40
1.962294862387989
 40
3.412610777824868
 40
4.859995365035451
 40
6.826861343342176
 40
6.826861343342176
 40
6.826861343342176
 40
6.826861343342176
 10
5215.043676165773
 20
-3598.596255918977
 30
0.0
 10
5214.756265402414
 20
-3599.232885789878
 30
0.0
 10
5214.256431719157
 20
-3600.340043536944
 30
0.0
 10
5215.039502639562
 20
-3601.846033769707
 30
0.0
 10
5215.834016027287
 20
-3603.348841932517
 30
0.0
 10
5215.332555355111
 20
-3604.457554063703
 30
0.0
 10
5215.043676165773
 20
-3605.096255918976
 30
0.0
 11
5215.043676165773
 21
-3598.596255918977
 31
0.0
 11
5214.528514241972
 21
-3600.489720816781
 31
0.0
 11
5215.041572495079
 21
-3601.846255918977
 31
0.0
 11
5215.558838089577
 21
-3603.19805414654
 31
0.0
 11
5215.043676165773
 21
-3605.096255918976
 31
0.0
  0
LINE
  5
82149
102
{ACAD_REACTORS
330
8214C
102
}
330
18
100
AcDbEntity
  8
\U+FF7A\U+FF88\U+FF78\U+FF80
100
AcDbLine
 10
5229.199307372473
 20
-3598.596255918977
 30
0.0
 11
5215.043676165775
 21
-3598.596255918977
 31
0.0
  0
SPLINE
  5
8214A
102
{ACAD_REACTORS
330
8214C
102
}
330
18
100
AcDbEntity
  8
細線
100
AcDbSpline
210
0.0
220
0.0
230
1.0
 70
  1064
 71
     3
 72
     9
 73
     5
 74
     3
 42
0.000000001
 43
0.0000000001
 44
0.0000000001
 40
0.0
 40
0.0
 40
0.0
 40
0.0
 40
1.44288578232715
 40
3.409751760633399
 40
3.409751760633399
 40
3.409751760633399
 40
3.409751760633399
 10
5215.043676165773
 20
-3601.850267971693
 30
0.0
 10
5214.8089687032
 20
-3602.296375494474
 30
0.0
 10
5214.254320377224
 20
-3603.350593319517
 30
0.0
 10
5214.754915253122
 20
-3604.457660329112
 30
0.0
 10
5215.043676165773
 20
-3605.096255918976
 30
0.0
 11
5215.043676165773
 21
-3601.850267971693
 31
0.0
 11
5214.528514241972
 21
-3603.19805414654
 31
0.0
 11
5215.043676165773
 21
-3605.096255918976
 31
0.0
  0
LINE
  5
8214B
102
{ACAD_REACTORS
330
8214C
102
}
330
18
100
AcDbEntity
  8
\U+FF7A\U+FF88\U+FF78\U+FF80
100
AcDbLine
 10
5229.199307372473
 20
-3605.096255918977
 30
0.0
 11
5215.043676165775
 21
-3605.096255918977
 31
0.0
  0
ARC
  5
82481
102
{ACAD_REACTORS
330
824B0
330
824B4
102
}
330
18
100
AcDbEntity
  8
\U+FF7A\U+FF88\U+FF78\U+FF80
100
AcDbCircle
 10
5192.217623465147
 20
-3820.902632290001
 30
0.0
 40
35.0
100
AcDbArc
 50
180.0
 51
270.0
  0
ARC
  5
82485
102
{ACAD_REACTORS
330
824B0
330
824B4
102
}
330
18
100
AcDbEntity
  8
\U+FF7A\U+FF88\U+FF78\U+FF80
100
AcDbCircle
 10
5192.217623465147
 20
-3820.902632290001
 30
0.0
 40
35.0
100
AcDbArc
 50
268.9189667353835
 51
270.0
  0
LINE
  5
82486
102
{ACAD_REACTORS
330
824B0
330
824B4
102
}
330
18
100
AcDbEntity
  8
\U+FF7A\U+FF88\U+FF78\U+FF80
 48
0.5
100
AcDbLine
 10
5150.192623465146
 20
-3764.594915126661
 30
0.0
 11
5150.192623465146
 21
-3774.09491512666
 31
0.0
  0
LINE
  5
82487
102
{ACAD_REACTORS
330
824B0
330
824B4
102
}
330
18
100
AcDbEntity
  8
\U+FF7A\U+FF88\U+FF78\U+FF80
 48
0.5
100
AcDbLine
 10
5157.742623465146
 20
-3764.594915126661
 30
0.0
 11
5157.742623465146
 21
-3774.09491512666
 31
0.0
  0
LINE
  5
82488
102
{ACAD_REACTORS
330
824B0
330
824B4
102
}
330
18
100
AcDbEntity
  8
\U+FF7A\U+FF88\U+FF78\U+FF80
 48
0.5
100
AcDbLine
 10
5154.292623465146
 20
-3764.594915126661
 30
0.0
 11
5154.292623465146
 21
-3774.09491512666
 31
0.0
  0
LINE
  5
82489
102
{ACAD_REACTORS
330
824B0
330
824B4
102
}
330
18
100
AcDbEntity
  8
\U+FF7A\U+FF88\U+FF78\U+FF80
 48
0.5
100
AcDbLine
 10
5153.642623465146
 20
-3764.594915126661
 30
0.0
 11
5153.642623465146
 21
-3774.09491512666
 31
0.0
  0
ARC
  5
8248A
102
{ACAD_REACTORS
330
824B0
330
824B4
102
}
330
18
100
AcDbEntity
  8
\U+FF7A\U+FF88\U+FF78\U+FF80
100
AcDbCircle
 10
5192.217623465146
 20
-3820.902632290001
 30
0.0
 40
41.5
100
AcDbArc
 50
180.0
 51
270.0
  0
LINE
  5
8248B
102
{ACAD_REACTORS
330
824B0
330
824B4
102
}
330
18
100
AcDbEntity
  8
\U+FF7A\U+FF88\U+FF78\U+FF80
 48
0.5
100
AcDbLine
 10
5157.017623465145
 20
-3788.294960228137
 30
0.0
 11
5155.967623465146
 21
-3798.294960228136
 31
0.0
  0
LINE
  5
8248C
102
{ACAD_REACTORS
330
824B0
330
824B4
102
}
330
18
100
AcDbEntity
  8
\U+FF7A\U+FF88\U+FF78\U+FF80
 48
0.5
100
AcDbLine
 10
5155.017623465145
 20
-3788.294960228137
 30
0.0
 11
5153.967623465145
 21
-3798.294960228136
 31
0.0
  0
LINE
  5
8248D
102
{ACAD_REACTORS
330
824B0
330
824B4
102
}
330
18
100
AcDbEntity
  8
\U+FF7A\U+FF88\U+FF78\U+FF80
 48
0.5
100
AcDbLine
 10
5150.917623465147
 20
-3788.294960228137
 30
0.0
 11
5151.967623465147
 21
-3798.294960228136
 31
0.0
  0
LINE
  5
8248E
102
{ACAD_REACTORS
330
824B0
330
824B4
102
}
330
18
100
AcDbEntity
  8
\U+FF7A\U+FF88\U+FF78\U+FF80
 48
0.5
100
AcDbLine
 10
5152.917623465146
 20
-3788.294960228137
 30
0.0
 11
5153.967623465145
 21
-3798.294960228136
 31
0.0
  0
LINE
  5
8248F
102
{ACAD_REACTORS
330
824B0
330
824B4
102
}
330
18
100
AcDbEntity
  8
\U+FF7A\U+FF88\U+FF78\U+FF80
100
AcDbLine
 10
5150.717623465146
 20
-3798.294960228136
 30
0.0
 11
5157.217623465147
 21
-3798.294960228136
 31
0.0
  0
LINE
  5
82490
102
{ACAD_REACTORS
330
824B0
330
824B4
102
}
330
18
100
AcDbEntity
  8
\U+FF7A\U+FF88\U+FF78\U+FF80
100
AcDbLine
 10
5150.717623465146
 20
-3820.902632290001
 30
0.0
 11
5150.717623465146
 21
-3798.294960228136
 31
0.0
  0
LINE
  5
82491
102
{ACAD_REACTORS
330
824B0
330
824B4
102
}
330
18
100
AcDbEntity
  8
\U+FF7A\U+FF88\U+FF78\U+FF80
100
AcDbLine
 10
5157.217623465147
 20
-3820.902632290001
 30
0.0
 11
5157.217623465147
 21
-3798.294960228136
 31
0.0
  0
LINE
  5
82492
102
{ACAD_REACTORS
330
824B0
330
824B4
102
}
330
18
100
AcDbEntity
  8
\U+FF7A\U+FF88\U+FF78\U+FF80
 48
0.5
100
AcDbLine
 10
5155.967623465146
 20
-3798.294960228136
 30
0.0
 11
5151.967623465147
 21
-3798.294960228136
 31
0.0
  0
LINE
  5
82493
102
{ACAD_REACTORS
330
824B0
330
824B4
102
}
330
18
100
AcDbEntity
  8
\U+FF7A\U+FF88\U+FF78\U+FF80
 48
0.5
100
AcDbLine
 10
5159.217623465146
 20
-3774.09491512666
 30
0.0
 11
5149.217623465146
 21
-3774.09491512666
 31
0.0
  0
LINE
  5
82494
102
{ACAD_REACTORS
330
824B0
330
824B4
102
}
330
18
100
AcDbEntity
  8
\U+FF7A\U+FF88\U+FF78\U+FF80
 48
0.5
100
AcDbLine
 10
5149.217623465146
 20
-3774.09491512666
 30
0.0
 11
5145.399909179432
 21
-3774.09491512666
 31
0.0
  0
LINE
  5
82495
102
{ACAD_REACTORS
330
824B0
330
824B4
102
}
330
18
100
AcDbEntity
  8
\U+FF7A\U+FF88\U+FF78\U+FF80
 48
0.5
100
AcDbLine
 10
5145.817623465147
 20
-3769.334915126661
 30
0.0
 11
5146.789052036575
 21
-3768.363486555233
 31
0.0
  0
LINE
  5
82496
102
{ACAD_REACTORS
330
824B0
330
824B4
102
}
330
18
100
AcDbEntity
  8
\U+FF7A\U+FF88\U+FF78\U+FF80
 48
0.5
100
AcDbLine
 10
5146.789052036575
 20
-3770.792057983805
 30
0.0
 11
5145.817623465147
 21
-3770.792057983805
 31
0.0
  0
LINE
  5
82497
102
{ACAD_REACTORS
330
824B0
330
824B4
102
}
330
18
100
AcDbEntity
  8
\U+FF7A\U+FF88\U+FF78\U+FF80
 48
0.5
100
AcDbLine
 10
5145.817623465147
 20
-3770.792057983805
 30
0.0
 11
5145.399909179432
 21
-3771.209772269518
 31
0.0
  0
LINE
  5
82498
102
{ACAD_REACTORS
330
824B0
330
824B4
102
}
330
18
100
AcDbEntity
  8
\U+FF7A\U+FF88\U+FF78\U+FF80
 48
0.5
100
AcDbLine
 10
5146.789052036575
 20
-3770.792057983805
 30
0.0
 11
5146.789052036575
 21
-3774.09491512666
 31
0.0
  0
LINE
  5
82499
102
{ACAD_REACTORS
330
824B0
330
824B4
102
}
330
18
100
AcDbEntity
  8
\U+FF7A\U+FF88\U+FF78\U+FF80
 48
0.5
100
AcDbLine
 10
5147.954766322289
 20
-3770.694915126661
 30
0.0
 11
5147.954766322289
 21
-3774.09491512666
 31
0.0
  0
ARC
  5
8249A
102
{ACAD_REACTORS
330
824B0
330
824B4
102
}
330
18
100
AcDbEntity
  8
\U+FF7A\U+FF88\U+FF78\U+FF80
 48
0.5
100
AcDbCircle
 10
5148.231200679097
 20
-3776.193200840948
 30
0.0
 40
0.4857142857142857
100
AcDbArc
 50
90.0
 51
170.0000000000151
  0
LINE
  5
8249B
102
{ACAD_REACTORS
330
824B0
330
824B4
102
}
330
18
100
AcDbEntity
  8
\U+FF7A\U+FF88\U+FF78\U+FF80
 48
0.5
100
AcDbLine
 10
5148.731909179431
 20
-3775.707486555233
 30
0.0
 11
5148.231200679099
 21
-3775.707486555233
 31
0.0
  0
ARC
  5
8249C
102
{ACAD_REACTORS
330
824B0
330
824B4
102
}
330
18
100
AcDbEntity
  8
\U+FF7A\U+FF88\U+FF78\U+FF80
 48
0.5
100
AcDbCircle
 10
5148.731909179431
 20
-3776.193200840948
 30
0.0
 40
0.4857142857142857
100
AcDbArc
 50
0.0
 51
90.0
  0
LINE
  5
8249D
102
{ACAD_REACTORS
330
824B0
330
824B4
102
}
330
18
100
AcDbEntity
  8
\U+FF7A\U+FF88\U+FF78\U+FF80
 48
0.5
100
AcDbLine
 10
5149.02333775086
 20
-3769.334915126661
 30
0.0
 11
5149.02333775086
 21
-3770.792057983805
 31
0.0
  0
LINE
  5
8249E
102
{ACAD_REACTORS
330
824B0
330
824B4
102
}
330
18
100
AcDbEntity
  8
\U+FF7A\U+FF88\U+FF78\U+FF80
 48
0.5
100
AcDbLine
 10
5148.051909179432
 20
-3768.363486555233
 30
0.0
 11
5149.02333775086
 21
-3769.334915126661
 31
0.0
  0
LINE
  5
8249F
102
{ACAD_REACTORS
330
824B0
330
824B4
102
}
330
18
100
AcDbEntity
  8
\U+FF7A\U+FF88\U+FF78\U+FF80
 48
0.5
100
AcDbLine
 10
5149.02333775086
 20
-3770.792057983805
 30
0.0
 11
5147.954766322289
 21
-3770.694915126661
 31
0.0
  0
LINE
  5
824A0
102
{ACAD_REACTORS
330
824B0
330
824B4
102
}
330
18
100
AcDbEntity
  8
\U+FF7A\U+FF88\U+FF78\U+FF80
 48
0.5
100
AcDbLine
 10
5148.051909179432
 20
-3768.363486555233
 30
0.0
 11
5146.789052036575
 21
-3768.363486555233
 31
0.0
  0
LINE
  5
824A1
102
{ACAD_REACTORS
330
824B0
330
824B4
102
}
330
18
100
AcDbEntity
  8
\U+FF7A\U+FF88\U+FF78\U+FF80
 48
0.5
100
AcDbLine
 10
5160.117617412104
 20
-3788.294960228137
 30
0.0
 11
5148.317617412103
 21
-3788.294960228137
 31
0.0
  0
LINE
  5
824A2
102
{ACAD_REACTORS
330
824B0
330
824B4
102
}
330
18
100
AcDbEntity
  8
\U+FF7A\U+FF88\U+FF78\U+FF80
 48
0.5
100
AcDbLine
 10
5146.789052036575
 20
-3781.574915126662
 30
0.0
 11
5145.399909179432
 21
-3781.574915126661
 31
0.0
  0
LINE
  5
824A3
102
{ACAD_REACTORS
330
824B0
330
824B4
102
}
330
18
100
AcDbEntity
  8
\U+FF7A\U+FF88\U+FF78\U+FF80
 48
0.5
100
AcDbLine
 10
5145.817623465147
 20
-3780.603486555233
 30
0.0
 11
5145.399909179432
 21
-3780.603486555233
 31
0.0
  0
LINE
  5
824A4
102
{ACAD_REACTORS
330
824B0
330
824B4
102
}
330
18
100
AcDbEntity
  8
\U+FF7A\U+FF88\U+FF78\U+FF80
 48
0.5
100
AcDbLine
 10
5148.317617412103
 20
-3788.294960228137
 30
0.0
 11
5148.317617412103
 21
-3787.194960228137
 31
0.0
  0
LINE
  5
824A5
102
{ACAD_REACTORS
330
824B0
330
824B4
102
}
330
18
100
AcDbEntity
  8
\U+FF7A\U+FF88\U+FF78\U+FF80
 48
0.5
100
AcDbLine
 10
5149.217623465146
 20
-3787.194960228137
 30
0.0
 11
5148.317617412103
 21
-3787.194960228138
 31
0.0
  0
LINE
  5
824A6
102
{ACAD_REACTORS
330
824B0
330
824B4
102
}
330
18
100
AcDbEntity
  8
\U+FF7A\U+FF88\U+FF78\U+FF80
 48
0.5
100
AcDbLine
 10
5160.117617412104
 20
-3788.294960228137
 30
0.0
 11
5160.117617412104
 21
-3787.194960228137
 31
0.0
  0
LINE
  5
824A7
102
{ACAD_REACTORS
330
824B0
330
824B4
102
}
330
18
100
AcDbEntity
  8
\U+FF7A\U+FF88\U+FF78\U+FF80
 48
0.5
100
AcDbLine
 10
5160.117617412104
 20
-3787.194960228136
 30
0.0
 11
5159.217623465146
 21
-3787.194960228136
 31
0.0
  0
LINE
  5
824A8
102
{ACAD_REACTORS
330
824B0
330
824B4
102
}
330
18
100
AcDbEntity
  8
\U+FF7A\U+FF88\U+FF78\U+FF80
 48
0.5
100
AcDbLine
 10
5145.817623465147
 20
-3769.334915126661
 30
0.0
 11
5145.817623465147
 21
-3780.603486555233
 31
0.0
  0
LINE
  5
824A9
102
{ACAD_REACTORS
330
824B0
330
824B4
102
}
330
18
100
AcDbEntity
  8
\U+FF7A\U+FF88\U+FF78\U+FF80
 48
0.5
100
AcDbLine
 10
5145.399909179432
 20
-3771.209772269518
 30
0.0
 11
5145.399909179432
 21
-3781.57491512666
 31
0.0
  0
LINE
  5
824AA
102
{ACAD_REACTORS
330
824B0
330
824B4
102
}
330
18
100
AcDbEntity
  8
\U+FF7A\U+FF88\U+FF78\U+FF80
 48
0.5
100
AcDbLine
 10
5147.752865484777
 20
-3776.108857440365
 30
0.0
 11
5146.789052036575
 21
-3781.574915126662
 31
0.0
  0
LINE
  5
824AB
102
{ACAD_REACTORS
330
824B0
330
824B4
102
}
330
18
100
AcDbEntity
  8
\U+FF7A\U+FF88\U+FF78\U+FF80
 48
0.5
100
AcDbLine
 10
5149.217623465146
 20
-3787.194960228137
 30
0.0
 11
5149.217623465146
 21
-3774.09491512666
 31
0.0
  0
LINE
  5
824AC
102
{ACAD_REACTORS
330
824B0
330
824B4
102
}
330
18
100
AcDbEntity
  8
\U+FF7A\U+FF88\U+FF78\U+FF80
 48
0.5
100
AcDbLine
 10
5159.217623465146
 20
-3787.194960228137
 30
0.0
 11
5159.217623465146
 21
-3774.09491512666
 31
0.0
  0
LINE
  5
824AE
102
{ACAD_REACTORS
330
824B0
330
824B4
102
}
330
18
100
AcDbEntity
  8
\U+FF7A\U+FF88\U+FF78\U+FF80
 48
0.5
100
AcDbLine
 10
5153.642623465146
 20
-3764.594915126661
 30
0.0
 11
5150.192623465146
 21
-3764.594915126661
 31
0.0
  0
LINE
  5
824AF
102
{ACAD_REACTORS
330
824B0
330
824B4
102
}
330
18
100
AcDbEntity
  8
\U+FF7A\U+FF88\U+FF78\U+FF80
 48
0.5
100
AcDbLine
 10
5157.742623465146
 20
-3764.594915126661
 30
0.0
 11
5154.292623465146
 21
-3764.594915126661
 31
0.0
  0
LINE
  5
824B2
102
{ACAD_REACTORS
330
824B4
102
}
330
18
100
AcDbEntity
  8
\U+FF7A\U+FF88\U+FF78\U+FF80
100
AcDbLine
 10
5192.217623465147
 20
-3855.902632290001
 30
0.0
 11
5202.957405744248
 21
-3855.902632290002
 31
0.0
  0
LINE
  5
824B3
102
{ACAD_REACTORS
330
824B4
102
}
330
18
100
AcDbEntity
  8
\U+FF7A\U+FF88\U+FF78\U+FF80
100
AcDbLine
 10
5192.217623465146
 20
-3862.402632290001
 30
0.0
 11
5202.957405744246
 21
-3862.402632290002
 31
0.0
  0
ARC
  5
84A65
102
{ACAD_REACTORS
330
84A79
330
84EAD
102
}
330
18
100
AcDbEntity
  8
実線
100
AcDbCircle
 10
5902.599902671405
 20
-3601.847111061251
 30
0.0
 40
110.0000000000001
100
AcDbArc
 50
213.0557311508901
 51
236.9442688490879
  0
LINE
  5
84A66
102
{ACAD_REACTORS
330
84A79
330
84EAD
102
}
330
18
100
AcDbEntity
  8
実線
100
AcDbLine
 10
5962.599902671406
 20
-3726.847111061251
 30
0.0
 11
5962.599902671406
 21
-3694.042555634151
 31
0.0
  0
ARC
  5
84A67
102
{ACAD_REACTORS
330
84A79
330
84EAD
102
}
330
18
100
AcDbEntity
  8
実線
100
AcDbCircle
 10
5902.599902671405
 20
-3601.847111061251
 30
0.0
 40
110.0
100
AcDbArc
 50
303.0557311509119
 51
326.94426884911
  0
LINE
  5
84A68
102
{ACAD_REACTORS
330
84A79
330
84EAD
102
}
330
18
100
AcDbEntity
  8
実線
100
AcDbLine
 10
5994.795347244306
 20
-3661.847111061251
 30
0.0
 11
6029.091009078205
 21
-3661.847111061252
 31
0.0
  0
CIRCLE
  5
84A69
102
{ACAD_REACTORS
330
84A79
330
84EAD
102
}
330
18
100
AcDbEntity
  8
実線
100
AcDbCircle
 10
5973.149804342606
 20
-3702.602812508752
 30
0.0
 40
3.000000000000056
  0
LINE
  5
84A6A
102
{ACAD_REACTORS
330
84A79
330
84EAD
102
}
330
18
100
AcDbEntity
  8
実線
100
AcDbLine
 10
6029.091009078205
 20
-3541.847111061252
 30
0.0
 11
5994.795347244306
 21
-3541.847111061251
 31
0.0
  0
ARC
  5
84A6B
102
{ACAD_REACTORS
330
84A79
330
84EAD
102
}
330
18
100
AcDbEntity
  8
実線
100
AcDbCircle
 10
5902.599902671405
 20
-3601.847111061251
 30
0.0
 40
110.0
100
AcDbArc
 50
33.05573115089006
 51
56.94426884908802
  0
LINE
  5
84A6C
102
{ACAD_REACTORS
330
84A79
330
84EAD
102
}
330
18
100
AcDbEntity
  8
実線
100
AcDbLine
 10
5962.599902671406
 20
-3509.651666488351
 30
0.0
 11
5962.599902671406
 21
-3476.847111061251
 31
0.0
  0
ARC
  5
84A6D
102
{ACAD_REACTORS
330
84A79
330
84EAD
102
}
330
18
100
AcDbEntity
  8
実線
100
AcDbCircle
 10
5902.599902671405
 20
-3601.847111061251
 30
0.0
 40
110.0000000000001
100
AcDbArc
 50
123.0557311509119
 51
146.9442688491099
  0
LINE
  5
84A6F
102
{ACAD_REACTORS
330
84A79
330
84EAD
102
}
330
18
100
AcDbEntity
  8
実線
100
AcDbLine
 10
5842.599902671405
 20
-3476.847111061251
 30
0.0
 11
5842.599902671405
 21
-3509.651666488351
 31
0.0
  0
ARC
  5
84A70
102
{ACAD_REACTORS
330
84A79
330
84EAD
102
}
330
18
100
AcDbEntity
  8
実線
100
AcDbCircle
 10
5831.476424563906
 20
-3500.272257569451
 30
0.0
 40
3.000000000000135
100
AcDbArc
 50
34.9999999999941
 51
214.9999999999942
  0
ARC
  5
84A71
102
{ACAD_REACTORS
330
84A79
330
84EAD
102
}
330
18
100
AcDbEntity
  8
実線
100
AcDbCircle
 10
5832.623577436605
 20
-3501.910561657951
 30
0.0
 40
2.999999999999979
100
AcDbArc
 50
214.9999999999942
 51
34.9999999999941
  0
POINT
  5
84A72
102
{ACAD_REACTORS
330
84A79
330
84EAD
102
}
330
18
100
AcDbEntity
  8
実線
100
AcDbPoint
 10
5834.344306745606
 20
-3504.368017790851
 30
0.0
  0
LINE
  5
84A73
102
{ACAD_REACTORS
330
84A79
330
84EAD
102
}
330
18
100
AcDbEntity
  8
実線
100
AcDbLine
 10
5829.018968431006
 20
-3501.992986878451
 30
0.0
 11
5830.166121303705
 21
-3503.631290967052
 31
0.0
  0
POINT
  5
84A74
102
{ACAD_REACTORS
330
84A79
330
84EAD
102
}
330
18
100
AcDbEntity
  8
実線
100
AcDbPoint
 10
5829.755695254805
 20
-3497.814801436551
 30
0.0
  0
LINE
  5
84A75
102
{ACAD_REACTORS
330
84A79
330
84EAD
102
}
330
18
100
AcDbEntity
  8
実線
100
AcDbLine
 10
5835.081033569505
 20
-3500.18983234895
 30
0.0
 11
5833.933880696805
 21
-3498.551528260351
 31
0.0
  0
LINE
  5
84A76
102
{ACAD_REACTORS
330
84A79
330
84EAD
102
}
330
18
100
AcDbEntity
  8
実線
100
AcDbLine
 10
5810.404458098506
 20
-3541.847111061251
 30
0.0
 11
5777.599902671405
 21
-3541.847111061251
 31
0.0
  0
LINE
  5
84A77
102
{ACAD_REACTORS
330
84A79
330
84EAD
102
}
330
18
100
AcDbEntity
  8
実線
100
AcDbLine
 10
5777.599902671405
 20
-3661.847111061251
 30
0.0
 11
5810.404458098506
 21
-3661.847111061251
 31
0.0
  0
LINE
  5
84A78
102
{ACAD_REACTORS
330
84A79
330
84EAD
102
}
330
18
100
AcDbEntity
  8
実線
100
AcDbLine
 10
5842.599902671405
 20
-3694.042555634151
 30
0.0
 11
5842.599902671405
 21
-3726.847111061251
 31
0.0
  0
LINE
  5
84A7B
330
18
100
AcDbEntity
  8
中心線
100
AcDbLine
 10
5828.341829339215
 20
-3495.795591647378
 30
0.0
 11
5976.857976003593
 21
-3707.898630475127
 31
0.0
  0
HATCH
  5
84AFA
102
{ACAD_REACTORS
330
84AFC
330
84AFD
102
}
330
18
100
AcDbEntity
  8
本体
100
AcDbHatch
 10
0.0
 20
0.0
 30
0.0
210
0.0
220
0.0
230
1.0
  2
SOLID
 70
     1
 71
     0
 91
        2
 92
        7
 72
     1
 73
     1
 93
        3
 10
5975.607260475468
 20
-3700.882083199731
 42
0.4142135623731056
 10
5971.429075033545
 20
-3700.14535637592
 42
0.0
 10
5973.149804342598
 20
-3702.602812508786
 42
0.0
 97
        0
 92
        7
 72
     1
 73
     1
 93
        3
 10
5974.870533651651
 20
-3705.060268641653
 42
0.0
 10
5973.149804342598
 20
-3702.602812508786
 42
0.0
 10
5970.69234820973
 20
-3704.323541817839
 42
0.4142135623731056
 97
        0
 75
     0
 76
     1
 47
0.0110124163047153
 98
        2
 10
5973.45911683079
 20
-3701.224630993494
 10
5973.047415352425
 20
-3704.698879617812
  0
CIRCLE
  5
84AFB
102
{ACAD_REACTORS
330
84AFC
330
84AFD
102
}
330
18
100
AcDbEntity
  8
本体
100
AcDbCircle
 10
5973.149804342598
 20
-3702.602812508787
 30
0.0
 40
3.0
  0
LINE
  5
84D3C
330
18
100
AcDbEntity
  8
外形線
100
AcDbLine
 10
5715.749888053045
 20
-3541.847111061251
 30
0.0
 11
5715.449888053044
 21
-3541.847111061251
 31
0.0
  0
LINE
  5
84D3D
330
18
100
AcDbEntity
  8
外形線
100
AcDbLine
 10
5715.749888053046
 20
-3661.847111061251
 30
0.0
 11
5715.449888053044
 21
-3661.847111061251
 31
0.0
  0
LINE
  5
84D3F
330
18
100
AcDbEntity
  8
外形線
100
AcDbLine
 10
5715.449888053044
 20
-3541.847111061251
 30
0.0
 11
5715.449888053044
 21
-3661.847111061251
 31
0.0
  0
LINE
  5
84D41
330
18
100
AcDbEntity
  8
外形線
100
AcDbLine
 10
5715.749888053045
 20
-3476.847111061252
 30
0.0
 11
5715.749888053045
 21
-3541.847111061251
 31
0.0
  0
CIRCLE
  5
84F4D
330
18
100
AcDbEntity
  8
中心線
100
AcDbCircle
 10
5902.599902671412
 20
-3601.847111061252
 30
0.0
 40
123.0000000000047
  0
SPLINE
  5
879CA
102
{ACAD_REACTORS
330
879CE
102
}
330
18
100
AcDbEntity
  8
細線
100
AcDbSpline
210
0.0
220
0.0
230
1.0
 70
  1064
 71
     3
 72
     9
 73
     5
 74
     3
 42
0.000000001
 43
0.0000000001
 44
0.0000000001
 40
0.0
 40
0.0
 40
0.0
 40
0.0
 40
1.4428857823263
 40
2.932973029499303
 40
2.932973029499303
 40
2.932973029499303
 40
2.932973029499303
 10
6073.305273026357
 20
-3601.850267971693
 30
0.0
 10
6073.560134192546
 20
-3602.299027845093
 30
0.0
 10
6074.078193858706
 20
-3603.211227980074
 30
0.0
 10
6073.565662757292
 20
-3604.129653083013
 30
0.0
 10
6073.305273026356
 20
-3604.596255918977
 30
0.0
 11
6073.305273026357
 21
-3601.850267971693
 31
0.0
 11
6073.820434950159
 21
-3603.198054146538
 31
0.0
 11
6073.305273026356
 21
-3604.596255918977
 31
0.0
  0
SPLINE
  5
879CB
102
{ACAD_REACTORS
330
879CE
102
}
330
18
100
AcDbEntity
  8
細線
100
AcDbSpline
210
0.0
220
0.0
230
1.0
 70
  1064
 71
     3
 72
    11
 73
     7
 74
     5
 42
0.000000001
 43
0.0000000001
 44
0.0000000001
 40
0.0
 40
0.0
 40
0.0
 40
0.0
 40
1.485643372128038
 40
2.935959287565768
 40
4.383343874775501
 40
5.873431121948503
 40
5.873431121948503
 40
5.873431121948503
 40
5.873431121948503
 10
6073.305273026356
 20
-3599.096255918976
 30
0.0
 10
6073.564626956579
 20
-3599.561007255252
 30
0.0
 10
6074.077167580047
 20
-3600.479458498496
 30
0.0
 10
6073.309472667714
 20
-3601.84609151578
 30
0.0
 10
6072.531433254105
 20
-3603.209579409743
 30
0.0
 10
6073.044838607583
 20
-3604.129572370705
 30
0.0
 10
6073.305273026356
 20
-3604.596255918977
 30
0.0
 11
6073.305273026356
 21
-3599.096255918976
 31
0.0
 11
6073.820434950159
 21
-3600.48972081678
 31
0.0
 11
6073.307376697052
 21
-3601.846255918977
 31
0.0
 11
6072.790111102553
 21
-3603.198054146538
 31
0.0
 11
6073.305273026356
 21
-3604.596255918977
 31
0.0
  0
SPLINE
  5
87B72
330
18
100
AcDbEntity
  8
細線
100
AcDbSpline
210
0.0
220
0.0
230
1.0
 70
  1064
 71
     3
 72
     9
 73
     5
 74
     3
 42
0.000000001
 43
0.0000000001
 44
0.0000000001
 40
0.0
 40
0.0
 40
0.0
 40
0.0
 40
1.442885782325876
 40
3.409751760632125
 40
3.409751760632125
 40
3.409751760632125
 40
3.409751760632125
 10
5207.452785900244
 20
-3859.156644342719
 30
0.0
 10
5207.218078437671
 20
-3859.602751865498
 30
0.0
 10
5206.663430111696
 20
-3860.656969690543
 30
0.0
 10
5207.164024987593
 20
-3861.764036700136
 30
0.0
 10
5207.452785900244
 20
-3862.402632290001
 30
0.0
 11
5207.452785900244
 21
-3859.156644342719
 31
0.0
 11
5206.937623976442
 21
-3860.504430517564
 31
0.0
 11
5207.452785900244
 21
-3862.402632290001
 31
0.0
  0
SPLINE
  5
87B73
330
18
100
AcDbEntity
  8
細線
100
AcDbSpline
210
0.0
220
0.0
230
1.0
 70
  1064
 71
     3
 72
    11
 73
     7
 74
     5
 42
0.000000001
 43
0.0000000001
 44
0.0000000001
 40
0.0
 40
0.0
 40
0.0
 40
0.0
 40
1.962294862388428
 40
3.412610777824882
 40
4.859995365035464
 40
6.82686134334219
 40
6.82686134334219
 40
6.82686134334219
 40
6.82686134334219
 10
5207.452785900244
 20
-3855.902632290001
 30
0.0
 10
5207.165375136884
 20
-3856.539262160902
 30
0.0
 10
5206.665541453626
 20
-3857.646419907968
 30
0.0
 10
5207.448612374033
 20
-3859.152410140733
 30
0.0
 10
5208.243125761757
 20
-3860.655218303542
 30
0.0
 10
5207.741665089582
 20
-3861.763930434727
 30
0.0
 10
5207.452785900244
 20
-3862.402632290001
 30
0.0
 11
5207.452785900244
 21
-3855.902632290001
 31
0.0
 11
5206.937623976442
 21
-3857.796097187807
 31
0.0
 11
5207.450682229549
 21
-3859.152632290001
 31
0.0
 11
5207.967947824048
 21
-3860.504430517564
 31
0.0
 11
5207.452785900244
 21
-3862.402632290001
 31
0.0
  0
LINE
  5
87B7A
330
18
100
AcDbEntity
  8
中心線
100
AcDbLine
 10
5491.608470300962
 20
-3875.941713973416
 30
0.0
 11
5491.608470300961
 21
-3901.260089850708
 31
0.0
  0
LINE
  5
87B7D
330
18
100
AcDbEntity
  8
中心線
100
AcDbLine
 10
5692.53897024019
 20
-3501.437949174351
 30
0.0
 11
5717.857346117483
 21
-3501.437949174352
 31
0.0
  0
LINE
  5
87B87
330
18
100
AcDbEntity
  8
中心線
100
AcDbLine
 10
5692.53897024019
 20
-3702.256272948152
 30
0.0
 11
5717.857346117483
 21
-3702.256272948151
 31
0.0
  0
LINE
  5
87C42
330
18
100
AcDbEntity
  8
外形線
100
AcDbLine
 10
5451.199308414061
 20
-3898.852631786272
 30
0.0
 11
5451.199308414061
 21
-3899.152631786272
 31
0.0
  0
LINE
  5
87C43
330
18
100
AcDbEntity
  8
外形線
100
AcDbLine
 10
5331.199308414062
 20
-3898.852631786272
 30
0.0
 11
5331.199308414062
 21
-3899.152631786273
 31
0.0
  0
LINE
  5
87C44
330
18
100
AcDbEntity
  8
外形線
100
AcDbLine
 10
5451.199308414061
 20
-3898.852631786273
 30
0.0
 11
5331.199308414062
 21
-3898.852631786272
 31
0.0
  0
LINE
  5
87C45
330
18
100
AcDbEntity
  8
外形線
100
AcDbLine
 10
5331.199308414062
 20
-3899.152631786273
 30
0.0
 11
5251.199307372473
 21
-3899.152631786273
 31
0.0
  0
SPLINE
  5
87C4B
330
18
100
AcDbEntity
  8
細線
100
AcDbSpline
210
0.0
220
0.0
230
1.0
 70
  1064
 71
     3
 72
     9
 73
     5
 74
     3
 42
0.000000001
 43
0.0000000001
 44
0.0000000001
 40
0.0
 40
0.0
 40
0.0
 40
0.0
 40
1.44288578232715
 40
3.409751760633399
 40
3.409751760633399
 40
3.409751760633399
 40
3.409751760633399
 10
5202.957405744248
 20
-3859.148621244717
 30
0.0
 10
5203.192113206822
 20
-3858.702513721937
 30
0.0
 10
5203.7467615328
 20
-3857.648295896894
 30
0.0
 10
5203.246166656899
 20
-3856.5412288873
 30
0.0
 10
5202.957405744248
 20
-3855.902633297434
 30
0.0
 11
5202.957405744248
 21
-3859.148621244717
 31
0.0
 11
5203.47256766805
 21
-3857.800835069871
 31
0.0
 11
5202.957405744248
 21
-3855.902633297434
 31
0.0
  0
SPLINE
  5
87C4C
330
18
100
AcDbEntity
  8
細線
100
AcDbSpline
210
0.0
220
0.0
230
1.0
 70
  1064
 71
     3
 72
    11
 73
     7
 74
     5
 42
0.000000001
 43
0.0000000001
 44
0.0000000001
 40
0.0
 40
0.0
 40
0.0
 40
0.0
 40
1.962294862388428
 40
3.412610777824882
 40
4.859995365035464
 40
6.82686134334219
 40
6.82686134334219
 40
6.82686134334219
 40
6.82686134334219
 10
5202.957405744248
 20
-3862.402633297434
 30
0.0
 10
5203.244816507607
 20
-3861.766003426532
 30
0.0
 10
5203.744650190866
 20
-3860.658845679465
 30
0.0
 10
5202.961579270461
 20
-3859.152855446703
 30
0.0
 10
5202.167065882736
 20
-3857.650047283894
 30
0.0
 10
5202.668526554911
 20
-3856.541335152709
 30
0.0
 10
5202.957405744248
 20
-3855.902633297434
 30
0.0
 11
5202.957405744248
 21
-3862.402633297434
 31
0.0
 11
5203.47256766805
 21
-3860.509168399629
 31
0.0
 11
5202.959509414943
 21
-3859.152633297434
 31
0.0
 11
5202.442243820444
 21
-3857.800835069871
 31
0.0
 11
5202.957405744248
 21
-3855.902633297434
 31
0.0
  0
ARC
  5
88125
330
18
100
AcDbEntity
  8
実線
100
AcDbCircle
 10
6032.599902671413
 20
-3666.073273954578
 30
0.0
 40
5.0
100
AcDbArc
 50
153.7084447252311
 51
180.0
  0
LINE
  5
88126
330
18
100
AcDbEntity
  8
実線
100
AcDbLine
 10
6027.599902671412
 20
-3701.722032838443
 30
0.0
 11
6027.599902671412
 21
-3666.073273954578
 31
0.0
  0
ARC
  5
88127
330
18
100
AcDbEntity
  8
実線
100
AcDbCircle
 10
5902.599902671412
 20
-3601.847111061252
 30
0.0
 40
160.0
100
AcDbArc
 50
308.6248328730632
 51
321.3751671269368
  0
LINE
  5
881BA
330
18
100
AcDbEntity
  8
外形線
100
AcDbLine
 10
5695.749888053045
 20
-3474.847112102831
 30
0.0
 11
5695.749888053047
 21
-3728.847111061251
 31
0.0
  0
ARC
  5
886AF
102
{ACAD_REACTORS
330
88765
102
}
330
18
100
AcDbEntity
  8
\U+FF7A\U+FF88\U+FF78\U+FF80
100
AcDbCircle
 10
5191.967617412099
 20
-3925.899060492913
 30
0.0
 40
40.49999999999999
100
AcDbArc
 50
90.0
 51
180.0
  0
LINE
  5
886B0
102
{ACAD_REACTORS
330
88765
102
}
330
18
100
AcDbEntity
  8
\U+FF7A\U+FF88\U+FF78\U+FF80
 48
0.5
100
AcDbLine
 10
5162.217617412099
 20
-3964.649058406847
 30
0.0
 11
5146.217617412098
 21
-3964.649058406846
 31
0.0
  0
LINE
  5
886B1
102
{ACAD_REACTORS
330
88765
102
}
330
18
100
AcDbEntity
  8
\U+FF7A\U+FF88\U+FF78\U+FF80
 48
0.5
100
AcDbLine
 10
5161.017623465141
 20
-3978.849103508321
 30
0.0
 11
5147.41762346514
 21
-3978.849103508321
 31
0.0
  0
LINE
  5
886B5
102
{ACAD_REACTORS
330
88765
102
}
330
18
100
AcDbEntity
  8
\U+FF7A\U+FF88\U+FF78\U+FF80
 48
0.5
100
AcDbLine
 10
5144.017623465141
 20
-3983.609103508321
 30
0.0
 11
5144.017623465141
 21
-3972.340532079751
 31
0.0
  0
LINE
  5
886B6
102
{ACAD_REACTORS
330
88765
102
}
330
18
100
AcDbEntity
  8
\U+FF7A\U+FF88\U+FF78\U+FF80
 48
0.5
100
AcDbLine
 10
5143.599909179427
 20
-3981.734246365465
 30
0.0
 11
5143.599909179427
 21
-3971.369103508322
 31
0.0
  0
LINE
  5
886B7
102
{ACAD_REACTORS
330
88765
102
}
330
18
100
AcDbEntity
  8
\U+FF7A\U+FF88\U+FF78\U+FF80
 48
0.5
100
AcDbLine
 10
5145.952865484773
 20
-3976.835161194617
 30
0.0
 11
5144.98905203657
 21
-3971.369103508322
 31
0.0
  0
LINE
  5
886B8
102
{ACAD_REACTORS
330
88765
102
}
330
18
100
AcDbEntity
  8
\U+FF7A\U+FF88\U+FF78\U+FF80
 48
0.5
100
AcDbLine
 10
5147.41762346514
 20
-3965.749058406846
 30
0.0
 11
5147.41762346514
 21
-3978.849103508321
 31
0.0
  0
LINE
  5
886B9
102
{ACAD_REACTORS
330
88765
102
}
330
18
100
AcDbEntity
  8
\U+FF7A\U+FF88\U+FF78\U+FF80
 48
0.5
100
AcDbLine
 10
5146.251909179426
 20
-3984.58053207975
 30
0.0
 11
5147.223337750855
 21
-3983.609103508321
 31
0.0
  0
LINE
  5
886BA
102
{ACAD_REACTORS
330
88765
102
}
330
18
100
AcDbEntity
  8
\U+FF7A\U+FF88\U+FF78\U+FF80
 48
0.5
100
AcDbLine
 10
5147.223337750855
 20
-3982.151960651179
 30
0.0
 11
5146.154766322284
 21
-3982.249103508323
 31
0.0
  0
LINE
  5
886BB
102
{ACAD_REACTORS
330
88765
102
}
330
18
100
AcDbEntity
  8
\U+FF7A\U+FF88\U+FF78\U+FF80
 48
0.5
100
AcDbLine
 10
5147.41762346514
 20
-3978.849103508321
 30
0.0
 11
5143.599909179427
 21
-3978.849103508321
 31
0.0
  0
LINE
  5
886BC
102
{ACAD_REACTORS
330
88765
102
}
330
18
100
AcDbEntity
  8
\U+FF7A\U+FF88\U+FF78\U+FF80
 48
0.5
100
AcDbLine
 10
5146.931909179428
 20
-3977.236532079749
 30
0.0
 11
5146.431200679093
 21
-3977.23653207975
 31
0.0
  0
LINE
  5
886BD
102
{ACAD_REACTORS
330
88765
102
}
330
18
100
AcDbEntity
  8
\U+FF7A\U+FF88\U+FF78\U+FF80
 48
0.5
100
AcDbLine
 10
5144.98905203657
 20
-3982.151960651179
 30
0.0
 11
5144.98905203657
 21
-3978.849103508321
 31
0.0
  0
LINE
  5
886BE
102
{ACAD_REACTORS
330
88765
102
}
330
18
100
AcDbEntity
  8
\U+FF7A\U+FF88\U+FF78\U+FF80
 48
0.5
100
AcDbLine
 10
5144.017623465141
 20
-3982.151960651179
 30
0.0
 11
5143.599909179427
 21
-3981.734246365465
 31
0.0
  0
LINE
  5
886BF
102
{ACAD_REACTORS
330
88765
102
}
330
18
100
AcDbEntity
  8
\U+FF7A\U+FF88\U+FF78\U+FF80
 48
0.5
100
AcDbLine
 10
5146.154766322284
 20
-3982.249103508323
 30
0.0
 11
5146.154766322284
 21
-3978.849103508321
 31
0.0
  0
LINE
  5
886C0
102
{ACAD_REACTORS
330
88765
102
}
330
18
100
AcDbEntity
  8
\U+FF7A\U+FF88\U+FF78\U+FF80
 48
0.5
100
AcDbLine
 10
5146.251909179426
 20
-3984.58053207975
 30
0.0
 11
5144.98905203657
 21
-3984.58053207975
 31
0.0
  0
LINE
  5
886C1
102
{ACAD_REACTORS
330
88765
102
}
330
18
100
AcDbEntity
  8
\U+FF7A\U+FF88\U+FF78\U+FF80
 48
0.5
100
AcDbLine
 10
5144.017623465141
 20
-3983.609103508321
 30
0.0
 11
5144.98905203657
 21
-3984.58053207975
 31
0.0
  0
LINE
  5
886C2
102
{ACAD_REACTORS
330
88765
102
}
330
18
100
AcDbEntity
  8
\U+FF7A\U+FF88\U+FF78\U+FF80
 48
0.5
100
AcDbLine
 10
5144.98905203657
 20
-3982.151960651179
 30
0.0
 11
5144.017623465141
 21
-3982.151960651179
 31
0.0
  0
ARC
  5
886C3
102
{ACAD_REACTORS
330
88765
102
}
330
18
100
AcDbEntity
  8
\U+FF7A\U+FF88\U+FF78\U+FF80
 48
0.5
100
AcDbCircle
 10
5146.43120067909
 20
-3976.750817794036
 30
0.0
 40
0.4857142857142857
100
AcDbArc
 50
189.9999999999849
 51
270.0
  0
LINE
  5
886C4
102
{ACAD_REACTORS
330
88765
102
}
330
18
100
AcDbEntity
  8
\U+FF7A\U+FF88\U+FF78\U+FF80
 48
0.5
100
AcDbLine
 10
5147.223337750855
 20
-3983.609103508321
 30
0.0
 11
5147.223337750855
 21
-3982.15196065118
 31
0.0
  0
ARC
  5
886C5
102
{ACAD_REACTORS
330
88765
102
}
330
18
100
AcDbEntity
  8
\U+FF7A\U+FF88\U+FF78\U+FF80
 48
0.5
100
AcDbCircle
 10
5146.931909179426
 20
-3976.750817794035
 30
0.0
 40
0.4857142857142857
100
AcDbArc
 50
270.0
 51
0.0
  0
LINE
  5
886C6
102
{ACAD_REACTORS
330
88765
102
}
330
18
100
AcDbEntity
  8
\U+FF7A\U+FF88\U+FF78\U+FF80
 48
0.5
100
AcDbLine
 10
5147.41762346514
 20
-3965.749058406846
 30
0.0
 11
5146.217617412098
 21
-3965.749058406846
 31
0.0
  0
LINE
  5
886C7
102
{ACAD_REACTORS
330
88765
102
}
330
18
100
AcDbEntity
  8
\U+FF7A\U+FF88\U+FF78\U+FF80
 48
0.5
100
AcDbLine
 10
5146.217617412098
 20
-3964.649058406846
 30
0.0
 11
5146.217617412098
 21
-3965.749058406846
 31
0.0
  0
LINE
  5
886C8
102
{ACAD_REACTORS
330
88765
102
}
330
18
100
AcDbEntity
  8
\U+FF7A\U+FF88\U+FF78\U+FF80
 48
0.5
100
AcDbLine
 10
5144.98905203657
 20
-3971.369103508322
 30
0.0
 11
5143.599909179427
 21
-3971.369103508322
 31
0.0
  0
LINE
  5
886C9
102
{ACAD_REACTORS
330
88765
102
}
330
18
100
AcDbEntity
  8
\U+FF7A\U+FF88\U+FF78\U+FF80
 48
0.5
100
AcDbLine
 10
5144.017623465141
 20
-3972.340532079751
 30
0.0
 11
5143.599909179427
 21
-3972.340532079751
 31
0.0
  0
LINE
  5
886CB
102
{ACAD_REACTORS
330
88765
102
}
330
18
100
AcDbEntity
  8
\U+FF7A\U+FF88\U+FF78\U+FF80
 48
0.5
100
AcDbLine
 10
5161.017623465141
 20
-3965.749058406847
 30
0.0
 11
5161.017623465141
 21
-3978.849103508321
 31
0.0
  0
LINE
  5
886CC
102
{ACAD_REACTORS
330
88765
102
}
330
18
100
AcDbEntity
  8
\U+FF7A\U+FF88\U+FF78\U+FF80
 48
0.5
100
AcDbLine
 10
5160.042623465141
 20
-3988.349103508323
 30
0.0
 11
5160.042623465141
 21
-3978.849103508321
 31
0.0
  0
LINE
  5
886CD
102
{ACAD_REACTORS
330
88765
102
}
330
18
100
AcDbEntity
  8
\U+FF7A\U+FF88\U+FF78\U+FF80
 48
0.5
100
AcDbLine
 10
5155.942623465142
 20
-3988.349103508323
 30
0.0
 11
5155.94262346514
 21
-3978.849103508321
 31
0.0
  0
LINE
  5
886CE
102
{ACAD_REACTORS
330
88765
102
}
330
18
100
AcDbEntity
  8
\U+FF7A\U+FF88\U+FF78\U+FF80
 48
0.5
100
AcDbLine
 10
5156.592623465143
 20
-3988.349103508323
 30
0.0
 11
5156.592623465143
 21
-3978.849103508321
 31
0.0
  0
LINE
  5
886CF
102
{ACAD_REACTORS
330
88765
102
}
330
18
100
AcDbEntity
  8
\U+FF7A\U+FF88\U+FF78\U+FF80
 48
0.5
100
AcDbLine
 10
5151.842623465142
 20
-3988.349103508323
 30
0.0
 11
5151.842623465142
 21
-3978.849103508321
 31
0.0
  0
LINE
  5
886D0
102
{ACAD_REACTORS
330
88765
102
}
330
18
100
AcDbEntity
  8
\U+FF7A\U+FF88\U+FF78\U+FF80
 48
0.5
100
AcDbLine
 10
5152.492623465141
 20
-3988.349103508323
 30
0.0
 11
5152.492623465141
 21
-3978.849103508321
 31
0.0
  0
LINE
  5
886D1
102
{ACAD_REACTORS
330
88765
102
}
330
18
100
AcDbEntity
  8
\U+FF7A\U+FF88\U+FF78\U+FF80
 48
0.5
100
AcDbLine
 10
5148.392623465141
 20
-3988.349103508323
 30
0.0
 11
5148.392623465141
 21
-3978.849103508321
 31
0.0
  0
LINE
  5
886D2
102
{ACAD_REACTORS
330
88765
102
}
330
18
100
AcDbEntity
  8
\U+FF7A\U+FF88\U+FF78\U+FF80
 48
0.5
100
AcDbLine
 10
5151.842623465142
 20
-3988.349103508323
 30
0.0
 11
5148.392623465141
 21
-3988.349103508323
 31
0.0
  0
LINE
  5
886D3
102
{ACAD_REACTORS
330
88765
102
}
330
18
100
AcDbEntity
  8
\U+FF7A\U+FF88\U+FF78\U+FF80
 48
0.5
100
AcDbLine
 10
5155.942623465142
 20
-3988.349103508323
 30
0.0
 11
5152.492623465141
 21
-3988.349103508323
 31
0.0
  0
LINE
  5
886D4
102
{ACAD_REACTORS
330
88765
102
}
330
18
100
AcDbEntity
  8
\U+FF7A\U+FF88\U+FF78\U+FF80
 48
0.5
100
AcDbLine
 10
5160.042623465141
 20
-3988.349103508321
 30
0.0
 11
5156.59262346514
 21
-3988.349103508323
 31
0.0
  0
LINE
  5
886D7
102
{ACAD_REACTORS
330
88765
102
}
330
18
100
AcDbEntity
  8
\U+FF7A\U+FF88\U+FF78\U+FF80
100
AcDbLine
 10
5207.682940162902
 20
-3890.899060492913
 30
0.0
 11
5229.199308414064
 21
-3890.899060492913
 31
0.0
  0
LINE
  5
886D8
102
{ACAD_REACTORS
330
88765
102
}
330
18
100
AcDbEntity
  8
\U+FF7A\U+FF88\U+FF78\U+FF80
100
AcDbLine
 10
5207.67325708752
 20
-3885.399060492913
 30
0.0
 11
5229.199308414064
 21
-3885.399060492911
 31
0.0
  0
LINE
  5
886DB
102
{ACAD_REACTORS
330
88765
102
}
330
18
100
AcDbEntity
  8
\U+FF7A\U+FF88\U+FF78\U+FF80
100
AcDbLine
 10
5191.967617412099
 20
-3890.899060492913
 30
0.0
 11
5202.875202948488
 21
-3890.899060492913
 31
0.0
  0
LINE
  5
886DC
102
{ACAD_REACTORS
330
88765
102
}
330
18
100
AcDbEntity
  8
\U+FF7A\U+FF88\U+FF78\U+FF80
100
AcDbLine
 10
5191.9676174121
 20
-3885.399060492913
 30
0.0
 11
5202.865519873107
 21
-3885.399060492913
 31
0.0
  0
SPLINE
  5
886DD
102
{ACAD_REACTORS
330
88765
102
}
330
18
100
AcDbEntity
  8
細線
 48
0.5
100
AcDbSpline
210
0.0
220
0.0
230
1.0
 70
  1064
 71
     3
 72
    11
 73
     7
 74
     5
 42
0.000000001
 43
0.0000000001
 44
0.0000000001
 40
0.0
 40
0.0
 40
0.0
 40
0.0
 40
1.183040972398813
 40
2.941570763507938
 40
4.943334930535536
 40
5.927430102349122
 40
5.927430102349122
 40
5.927430102349122
 40
5.927430102349122
 10
5202.865519873107
 20
-3885.399060492913
 30
0.0
 10
5203.097535023235
 20
-3885.748731187343
 30
0.0
 10
5203.674428806488
 20
-3886.618169453295
 30
0.0
 10
5202.846935877529
 20
-3888.205014496887
 30
0.0
 10
5201.980925179237
 20
-3889.815440891908
 30
0.0
 10
5202.653524228337
 20
-3890.630446629813
 30
0.0
 10
5202.875202948488
 20
-3890.899060492911
 30
0.0
 11
5202.865519873107
 21
-3885.399060492913
 31
0.0
 11
5203.388607364967
 21
-3886.460175669617
 31
0.0
 11
5202.875202948488
 21
-3888.142092115627
 31
0.0
 11
5202.342432381243
 21
-3890.071655616285
 31
0.0
 11
5202.875202948488
 21
-3890.899060492911
 31
0.0
  0
SPLINE
  5
886DE
102
{ACAD_REACTORS
330
88765
102
}
330
18
100
AcDbEntity
  8
細線
 48
0.5
100
AcDbSpline
210
0.0
220
0.0
230
1.0
 70
  1064
 71
     3
 72
     9
 73
     5
 74
     3
 42
0.000000001
 43
0.0000000001
 44
0.0000000001
 40
0.0
 40
0.0
 40
0.0
 40
0.0
 40
1.696039966382889
 40
2.946770208443382
 40
2.946770208443382
 40
2.946770208443382
 40
2.946770208443382
 10
5202.875202948488
 20
-3888.142092115627
 30
0.0
 10
5203.162370556258
 20
-3888.687620210072
 30
0.0
 10
5203.661307472943
 20
-3889.635443356013
 30
0.0
 10
5203.109438707066
 20
-3890.522540183707
 30
0.0
 10
5202.875202948488
 20
-3890.899060492911
 30
0.0
 11
5202.875202948488
 21
-3888.142092115627
 31
0.0
 11
5203.388607364967
 21
-3889.758559706613
 31
0.0
 11
5202.875202948488
 21
-3890.899060492911
 31
0.0
  0
SPLINE
  5
886DF
102
{ACAD_REACTORS
330
88765
102
}
330
18
100
AcDbEntity
  8
細線
 48
0.5
100
AcDbSpline
210
0.0
220
0.0
230
1.0
 70
  1064
 71
     3
 72
    11
 73
     7
 74
     5
 42
0.000000001
 43
0.0000000001
 44
0.0000000001
 40
0.0
 40
0.0
 40
0.0
 40
0.0
 40
1.183040972399221
 40
2.94157076350721
 40
4.943334930535927
 40
5.927430102350005
 40
5.927430102350005
 40
5.927430102350005
 40
5.927430102350005
 10
5207.682940162902
 20
-3890.899060492913
 30
0.0
 10
5207.450925012773
 20
-3890.549389798481
 30
0.0
 10
5206.874031229522
 20
-3889.679951532531
 30
0.0
 10
5207.701524158477
 20
-3888.093106488938
 30
0.0
 10
5208.567534856771
 20
-3886.482680093916
 30
0.0
 10
5207.894935807672
 20
-3885.667674356011
 30
0.0
 10
5207.673257087519
 20
-3885.399060492913
 30
0.0
 11
5207.682940162902
 21
-3890.899060492913
 31
0.0
 11
5207.159852671042
 21
-3889.837945316207
 31
0.0
 11
5207.673257087519
 21
-3888.156028870199
 31
0.0
 11
5208.206027654766
 21
-3886.226465369539
 31
0.0
 11
5207.673257087519
 21
-3885.399060492913
 31
0.0
  0
SPLINE
  5
886E0
102
{ACAD_REACTORS
330
88765
102
}
330
18
100
AcDbEntity
  8
細線
 48
0.5
100
AcDbSpline
210
0.0
220
0.0
230
1.0
 70
  1064
 71
     3
 72
     9
 73
     5
 74
     3
 42
0.000000001
 43
0.0000000001
 44
0.0000000001
 40
0.0
 40
0.0
 40
0.0
 40
0.0
 40
1.69603996638218
 40
2.946770208443544
 40
2.946770208443544
 40
2.946770208443544
 40
2.946770208443544
 10
5207.673257087519
 20
-3888.156028870199
 30
0.0
 10
5207.386089479752
 20
-3887.610500775753
 30
0.0
 10
5206.887152563067
 20
-3886.662677629811
 30
0.0
 10
5207.439021328941
 20
-3885.775580802116
 30
0.0
 10
5207.673257087519
 20
-3885.399060492913
 30
0.0
 11
5207.673257087519
 21
-3888.156028870199
 31
0.0
 11
5207.159852671042
 21
-3886.539561279212
 31
0.0
 11
5207.673257087519
 21
-3885.399060492913
 31
0.0
  0
LINE
  5
886E4
102
{ACAD_REACTORS
330
88765
102
}
330
18
100
AcDbEntity
  8
\U+FF7A\U+FF88\U+FF78\U+FF80
 48
0.5
100
AcDbLine
 10
5153.717623465142
 20
-3964.649058406847
 30
0.0
 11
5153.717623465142
 21
-3954.649058406846
 31
0.0
  0
LINE
  5
886E5
102
{ACAD_REACTORS
330
88765
102
}
330
18
100
AcDbEntity
  8
\U+FF7A\U+FF88\U+FF78\U+FF80
 48
0.5
100
AcDbLine
 10
5162.217617412099
 20
-3964.649058406846
 30
0.0
 11
5162.217617412099
 21
-3965.749058406846
 31
0.0
  0
LINE
  5
886E6
102
{ACAD_REACTORS
330
88765
102
}
330
18
100
AcDbEntity
  8
\U+FF7A\U+FF88\U+FF78\U+FF80
 48
0.5
100
AcDbLine
 10
5162.217617412099
 20
-3965.749058406846
 30
0.0
 11
5161.017623465141
 21
-3965.749058406847
 31
0.0
  0
LINE
  5
886E7
102
{ACAD_REACTORS
330
88765
102
}
330
18
100
AcDbEntity
  8
\U+FF7A\U+FF88\U+FF78\U+FF80
100
AcDbLine
 10
5151.4676174121
 20
-3954.649058406846
 30
0.0
 11
5156.967617412099
 21
-3954.649058406846
 31
0.0
  0
LINE
  5
886E8
102
{ACAD_REACTORS
330
88765
102
}
330
18
100
AcDbEntity
  8
\U+FF7A\U+FF88\U+FF78\U+FF80
 48
0.5
100
AcDbLine
 10
5152.717623465143
 20
-3954.649058406846
 30
0.0
 11
5155.717611359055
 21
-3954.649058406846
 31
0.0
  0
LINE
  5
886E9
102
{ACAD_REACTORS
330
88765
102
}
330
18
100
AcDbEntity
  8
\U+FF7A\U+FF88\U+FF78\U+FF80
 48
0.5
100
AcDbLine
 10
5149.617623465141
 20
-3964.649058406846
 30
0.0
 11
5152.717623465143
 21
-3954.649058406846
 31
0.0
  0
LINE
  5
886EA
102
{ACAD_REACTORS
330
88765
102
}
330
18
100
AcDbEntity
  8
\U+FF7A\U+FF88\U+FF78\U+FF80
 48
0.5
100
AcDbLine
 10
5150.617623465141
 20
-3964.649058406846
 30
0.0
 11
5153.717623465142
 21
-3954.649058406846
 31
0.0
  0
LINE
  5
886EB
102
{ACAD_REACTORS
330
88765
102
}
330
18
100
AcDbEntity
  8
\U+FF7A\U+FF88\U+FF78\U+FF80
 48
0.5
100
AcDbLine
 10
5154.717623465142
 20
-3964.649058406847
 30
0.0
 11
5154.717623465142
 21
-3954.649058406846
 31
0.0
  0
LINE
  5
886EC
102
{ACAD_REACTORS
330
88765
102
}
330
18
100
AcDbEntity
  8
\U+FF7A\U+FF88\U+FF78\U+FF80
 48
0.5
100
AcDbLine
 10
5157.817611359053
 20
-3964.649058406846
 30
0.0
 11
5154.717611359056
 21
-3954.649058406846
 31
0.0
  0
LINE
  5
886ED
102
{ACAD_REACTORS
330
88765
102
}
330
18
100
AcDbEntity
  8
\U+FF7A\U+FF88\U+FF78\U+FF80
 48
0.5
100
AcDbLine
 10
5158.817611359054
 20
-3964.649058406846
 30
0.0
 11
5155.717611359055
 21
-3954.649058406846
 31
0.0
  0
LINE
  5
886EE
102
{ACAD_REACTORS
330
88765
102
}
330
18
100
AcDbEntity
  8
\U+FF7A\U+FF88\U+FF78\U+FF80
100
AcDbLine
 10
5151.4676174121
 20
-3925.899060492913
 30
0.0
 11
5151.4676174121
 21
-3954.649058406846
 31
0.0
  0
LINE
  5
886EF
102
{ACAD_REACTORS
330
88765
102
}
330
18
100
AcDbEntity
  8
\U+FF7A\U+FF88\U+FF78\U+FF80
100
AcDbLine
 10
5156.967617412098
 20
-3925.899060492914
 30
0.0
 11
5156.967617412099
 21
-3954.649058406846
 31
0.0
  0
ARC
  5
886F0
102
{ACAD_REACTORS
330
88765
102
}
330
18
100
AcDbEntity
  8
\U+FF7A\U+FF88\U+FF78\U+FF80
100
AcDbCircle
 10
5191.967617412099
 20
-3925.899060492913
 30
0.0
 40
35.0
100
AcDbArc
 50
90.0
 51
180.0
  0
LINE
  5
89027
102
{ACAD_REACTORS
330
8906B
102
}
330
18
100
AcDbEntity
  8
文字
100
AcDbLine
 10
5699.749888053046
 20
-3613.22203388003
 30
0.0
 11
5699.749888053046
 21
-3647.22203388003
 31
0.0
  0
TEXT
  5
89028
102
{ACAD_REACTORS
330
8906B
102
}
330
18
100
AcDbEntity
  8
文字
370
     9
100
AcDbText
 10
5710.848630496464
 20
-3639.553888154568
 30
0.0
 40
1.439999999999999
  1
DENSO
 50
90.0
 41
1.3
  7
TIMESNR
100
AcDbText
  0
LINE
  5
89029
102
{ACAD_REACTORS
330
8906B
102
}
330
18
100
AcDbEntity
  8
文字
100
AcDbLine
 10
5700.249888053047
 20
-3647.72203388003
 30
0.0
 11
5711.249888053046
 21
-3647.72203388003
 31
0.0
  0
ARC
  5
8902A
102
{ACAD_REACTORS
330
8906B
102
}
330
18
100
AcDbEntity
  8
文字
370
     9
100
AcDbCircle
 10
5709.69486463505
 20
-3642.772987378953
 30
0.0
 40
0.8009999999999999
100
AcDbArc
 50
0.0
 51
180.0
  0
LINE
  5
8902B
102
{ACAD_REACTORS
330
8906B
102
}
330
18
100
AcDbEntity
  8
文字
370
     9
100
AcDbLine
 10
5710.896364635046
 20
-3645.175987378953
 30
0.0
 11
5707.692364635044
 21
-3644.775487378954
 31
0.0
  0
ARC
  5
8902C
102
{ACAD_REACTORS
330
8906B
102
}
330
18
100
AcDbEntity
  8
文字
370
     9
100
AcDbCircle
 10
5709.492751844351
 20
-3642.772055983603
 30
0.0
 40
1.003113223100251
100
AcDbArc
 50
203.589777272609
 51
359.9468005913759
  0
CIRCLE
  5
8902D
102
{ACAD_REACTORS
330
8906B
102
}
330
18
100
AcDbEntity
  8
文字
370
     9
100
AcDbCircle
 10
5709.494614635048
 20
-3642.772987378953
 30
0.0
 40
0.6007500000000002
  0
LINE
  5
8902E
102
{ACAD_REACTORS
330
8906B
102
}
330
18
100
AcDbEntity
  8
文字
100
AcDbLine
 10
5711.249888053046
 20
-3612.72203388003
 30
0.0
 11
5700.249888053047
 21
-3612.72203388003
 31
0.0
  0
LINE
  5
8902F
102
{ACAD_REACTORS
330
8906B
102
}
330
18
100
AcDbEntity
  8
文字
370
     9
100
AcDbLine
 10
5710.896364635046
 20
-3640.770487378953
 30
0.0
 11
5708.893864635047
 21
-3640.530187378951
 31
0.0
  0
TEXT
  5
89030
102
{ACAD_REACTORS
330
8906B
102
}
330
18
100
AcDbEntity
  8
文字
370
     9
100
AcDbText
 10
5709.15186808748
 20
-3639.432475044427
 30
0.0
 40
1.439999999999999
  1
NIKKI
 50
90.0
 41
1.25
  7
TIMESNR
100
AcDbText
  0
TEXT
  5
89031
102
{ACAD_REACTORS
330
8906B
102
}
330
18
100
AcDbEntity
  8
文字
370
     9
100
AcDbText
 10
5703.367155933925
 20
-3645.898063849165
 30
0.0
 40
2.6
  1
ENCODER
 50
90.0
 41
1.199999999999999
  7
MS\U+FF7A\U+FF9E\U+FF7C\U+FF6F\U+FF78N
 11
5703.842102808925
 21
-3645.898063849165
 31
0.0
100
AcDbText
 73
     1
  0
TEXT
  5
89032
102
{ACAD_REACTORS
330
8906B
102
}
330
18
100
AcDbEntity
  8
文字
370
     9
100
AcDbText
 10
5706.191147737307
 20
-3645.925190421976
 30
0.0
 40
2.0
  1
******PPR
 50
90.0
 41
1.199999999999999
  7
MS\U+FF7A\U+FF9E\U+FF7C\U+FF6F\U+FF78N
 11
5706.556491487306
 21
-3645.925190421976
 31
0.0
100
AcDbText
 73
     1
  0
LINE
  5
89033
102
{ACAD_REACTORS
330
8906B
102
}
330
18
100
AcDbEntity
  8
文字
100
AcDbLine
 10
5706.749888053046
 20
-3647.72203388003
 30
0.0
 11
5706.749888053046
 21
-3612.72203388003
 31
0.0
  0
ARC
  5
89034
102
{ACAD_REACTORS
330
8906B
102
}
330
18
100
AcDbEntity
  8
文字
100
AcDbCircle
 10
5700.24988805305
 20
-3647.222033880031
 30
0.0
 40
0.5
100
AcDbArc
 50
180.0
 51
270.0
  0
LINE
  5
89035
102
{ACAD_REACTORS
330
8906B
102
}
330
18
100
AcDbEntity
  8
文字
370
     9
100
AcDbLine
 10
5708.893864635047
 20
-3642.772987378951
 30
0.0
 11
5708.893864635047
 21
-3640.530187378951
 31
0.0
  0
LINE
  5
89036
102
{ACAD_REACTORS
330
8906B
102
}
330
18
100
AcDbEntity
  8
文字
370
     9
100
AcDbLine
 10
5707.692364635044
 20
-3644.775487378954
 30
0.0
 11
5707.692364635044
 21
-3640.369987378953
 31
0.0
  0
LINE
  5
89037
102
{ACAD_REACTORS
330
8906B
102
}
330
18
100
AcDbEntity
  8
文字
370
     9
100
AcDbLine
 10
5707.692364635044
 20
-3640.369987378953
 30
0.0
 11
5708.573464635043
 21
-3643.173487378951
 31
0.0
  0
ARC
  5
89038
102
{ACAD_REACTORS
330
8906B
102
}
330
18
100
AcDbEntity
  8
文字
100
AcDbCircle
 10
5700.24988805305
 20
-3613.222033880032
 30
0.0
 40
0.5
100
AcDbArc
 50
90.0
 51
180.0
  0
LINE
  5
89039
102
{ACAD_REACTORS
330
8906B
102
}
330
18
100
AcDbEntity
  8
文字
100
AcDbLine
 10
5711.749888053047
 20
-3647.22203388003
 30
0.0
 11
5711.749888053047
 21
-3613.22203388003
 31
0.0
  0
ARC
  5
8903A
102
{ACAD_REACTORS
330
8906B
102
}
330
18
100
AcDbEntity
  8
文字
100
AcDbCircle
 10
5711.249888053051
 20
-3647.222033880031
 30
0.0
 40
0.5
100
AcDbArc
 50
270.0
 51
0.0
  0
LINE
  5
8903B
102
{ACAD_REACTORS
330
8906B
102
}
330
18
100
AcDbEntity
  8
文字
370
     9
100
AcDbLine
 10
5710.896364635046
 20
-3645.175987378953
 30
0.0
 11
5710.896364635046
 21
-3640.770487378953
 31
0.0
  0
ARC
  5
8903C
102
{ACAD_REACTORS
330
8906B
102
}
330
18
100
AcDbEntity
  8
文字
100
AcDbCircle
 10
5711.249888053051
 20
-3613.222033880032
 30
0.0
 40
0.5
100
AcDbArc
 50
0.0
 51
90.0
  0
TEXT
  5
8903D
102
{ACAD_REACTORS
330
8906B
102
}
330
18
100
AcDbEntity
  8
文字
370
     9
100
AcDbText
 10
5711.115182689627
 20
-3628.10037348548
 30
137.5
 40
1.5
  1
MADE IN JAPAN
 50
90.0
  7
MS\U+FF7A\U+FF9E\U+FF7C\U+FF6F\U+FF78N
 11
5711.389190502126
 21
-3628.10037348548
 31
137.5
100
AcDbText
 73
     1
  0
TEXT
  5
8903E
102
{ACAD_REACTORS
330
8906B
102
}
330
18
100
AcDbEntity
  8
文字
370
     9
100
AcDbText
 10
5709.245396639241
 20
-3628.10037348548
 30
137.5
 40
1.5
  1
SN-16140
 50
90.0
  7
MS\U+FF7A\U+FF9E\U+FF7C\U+FF6F\U+FF78N
 11
5709.519404451741
 21
-3628.10037348548
 31
137.5
100
AcDbText
 73
     1
  0
LINE
  5
8903F
102
{ACAD_REACTORS
330
8906C
102
}
330
18
100
AcDbEntity
  8
文字
100
AcDbLine
 10
5706.749888053046
 20
-3683.72203388003
 30
0.0
 11
5706.749888053046
 21
-3648.72203388003
 31
0.0
  0
TEXT
  5
89040
102
{ACAD_REACTORS
330
8906C
102
}
330
18
100
AcDbEntity
  8
文字
370
     9
100
AcDbText
 10
5706.191147737307
 20
-3681.925190421976
 30
0.0
 40
2.0
  1
SER No.******
 50
90.0
 41
1.199999999999999
  7
MS\U+FF7A\U+FF9E\U+FF7C\U+FF6F\U+FF78N
 11
5706.556491487306
 21
-3681.925190421976
 31
0.0
100
AcDbText
 73
     1
  0
LINE
  5
89041
102
{ACAD_REACTORS
330
8906C
102
}
330
18
100
AcDbEntity
  8
文字
100
AcDbLine
 10
5699.749888053046
 20
-3649.22203388003
 30
0.0
 11
5699.749888053046
 21
-3683.22203388003
 31
0.0
  0
LINE
  5
89042
102
{ACAD_REACTORS
330
8906C
102
}
330
18
100
AcDbEntity
  8
文字
100
AcDbLine
 10
5711.749888053047
 20
-3683.22203388003
 30
0.0
 11
5711.749888053047
 21
-3649.22203388003
 31
0.0
  0
ARC
  5
89043
102
{ACAD_REACTORS
330
8906C
102
}
330
18
100
AcDbEntity
  8
文字
370
     9
100
AcDbCircle
 10
5709.69486463505
 20
-3678.772987378952
 30
0.0
 40
0.8009999999999999
100
AcDbArc
 50
0.0
 51
180.0
  0
CIRCLE
  5
89044
102
{ACAD_REACTORS
330
8906C
102
}
330
18
100
AcDbEntity
  8
文字
370
     9
100
AcDbCircle
 10
5709.494614635048
 20
-3678.772987378952
 30
0.0
 40
0.6007500000000002
  0
ARC
  5
89045
102
{ACAD_REACTORS
330
8906C
102
}
330
18
100
AcDbEntity
  8
文字
370
     9
100
AcDbCircle
 10
5709.492751844351
 20
-3678.772055983603
 30
0.0
 40
1.003113223100251
100
AcDbArc
 50
203.589777272609
 51
359.9468005913759
  0
LINE
  5
89046
102
{ACAD_REACTORS
330
8906C
102
}
330
18
100
AcDbEntity
  8
文字
100
AcDbLine
 10
5700.249888053047
 20
-3683.72203388003
 30
0.0
 11
5711.249888053046
 21
-3683.72203388003
 31
0.0
  0
LINE
  5
89047
102
{ACAD_REACTORS
330
8906C
102
}
330
18
100
AcDbEntity
  8
文字
370
     9
100
AcDbLine
 10
5710.896364635046
 20
-3681.175987378953
 30
0.0
 11
5707.692364635044
 21
-3680.775487378954
 31
0.0
  0
LINE
  5
89048
102
{ACAD_REACTORS
330
8906C
102
}
330
18
100
AcDbEntity
  8
文字
370
     9
100
AcDbLine
 10
5710.896364635046
 20
-3676.770487378953
 30
0.0
 11
5708.893864635047
 21
-3676.530187378951
 31
0.0
  0
TEXT
  5
89049
102
{ACAD_REACTORS
330
8906C
102
}
330
18
100
AcDbEntity
  8
文字
370
     9
100
AcDbText
 10
5710.848630496464
 20
-3675.553888154567
 30
0.0
 40
1.439999999999999
  1
DENSO
 50
90.0
 41
1.3
  7
TIMESNR
100
AcDbText
  0
LINE
  5
8904A
102
{ACAD_REACTORS
330
8906C
102
}
330
18
100
AcDbEntity
  8
文字
370
     9
100
AcDbLine
 10
5708.893864635047
 20
-3678.772987378951
 30
0.0
 11
5708.893864635047
 21
-3676.530187378951
 31
0.0
  0
TEXT
  5
8904B
102
{ACAD_REACTORS
330
8906C
102
}
330
18
100
AcDbEntity
  8
文字
370
     9
100
AcDbText
 10
5703.367155933925
 20
-3681.898063849165
 30
0.0
 40
2.6
  1
MODEL:
 50
90.0
 41
1.199999999999999
  7
MS\U+FF7A\U+FF9E\U+FF7C\U+FF6F\U+FF78N
 11
5703.842102808925
 21
-3681.898063849165
 31
0.0
100
AcDbText
 73
     1
  0
LINE
  5
8904C
102
{ACAD_REACTORS
330
8906C
102
}
330
18
100
AcDbEntity
  8
文字
370
     9
100
AcDbLine
 10
5707.692364635044
 20
-3680.775487378954
 30
0.0
 11
5707.692364635044
 21
-3676.369987378953
 31
0.0
  0
LINE
  5
8904D
102
{ACAD_REACTORS
330
8906C
102
}
330
18
100
AcDbEntity
  8
文字
370
     9
100
AcDbLine
 10
5707.692364635044
 20
-3676.369987378953
 30
0.0
 11
5708.573464635043
 21
-3679.173487378951
 31
0.0
  0
ARC
  5
8904E
102
{ACAD_REACTORS
330
8906C
102
}
330
18
100
AcDbEntity
  8
文字
100
AcDbCircle
 10
5700.24988805305
 20
-3683.222033880031
 30
0.0
 40
0.5
100
AcDbArc
 50
180.0
 51
270.0
  0
TEXT
  5
8904F
102
{ACAD_REACTORS
330
8906C
102
}
330
18
100
AcDbEntity
  8
文字
370
     9
100
AcDbText
 10
5709.15186808748
 20
-3675.432475044427
 30
0.0
 40
1.439999999999999
  1
NIKKI
 50
90.0
 41
1.25
  7
TIMESNR
100
AcDbText
  0
LINE
  5
89050
102
{ACAD_REACTORS
330
8906C
102
}
330
18
100
AcDbEntity
  8
文字
370
     9
100
AcDbLine
 10
5710.896364635046
 20
-3681.175987378953
 30
0.0
 11
5710.896364635046
 21
-3676.770487378953
 31
0.0
  0
ARC
  5
89051
102
{ACAD_REACTORS
330
8906C
102
}
330
18
100
AcDbEntity
  8
文字
100
AcDbCircle
 10
5711.249888053051
 20
-3683.222033880031
 30
0.0
 40
0.5
100
AcDbArc
 50
270.0
 51
0.0
  0
LINE
  5
89052
102
{ACAD_REACTORS
330
8906C
102
}
330
18
100
AcDbEntity
  8
文字
100
AcDbLine
 10
5711.249888053046
 20
-3648.72203388003
 30
0.0
 11
5700.249888053047
 21
-3648.72203388003
 31
0.0
  0
ARC
  5
89053
102
{ACAD_REACTORS
330
8906C
102
}
330
18
100
AcDbEntity
  8
文字
100
AcDbCircle
 10
5700.24988805305
 20
-3649.222033880032
 30
0.0
 40
0.5
100
AcDbArc
 50
90.0
 51
180.0
  0
ARC
  5
89054
102
{ACAD_REACTORS
330
8906C
102
}
330
18
100
AcDbEntity
  8
文字
100
AcDbCircle
 10
5711.249888053051
 20
-3649.222033880032
 30
0.0
 40
0.5
100
AcDbArc
 50
0.0
 51
90.0
  0
TEXT
  5
89055
102
{ACAD_REACTORS
330
8906C
102
}
330
18
100
AcDbEntity
  8
文字
370
     9
100
AcDbText
 10
5709.245396639241
 20
-3664.10037348548
 30
137.5
 40
1.5
  1
SN-16140
 50
90.0
  7
MS\U+FF7A\U+FF9E\U+FF7C\U+FF6F\U+FF78N
 11
5709.519404451741
 21
-3664.10037348548
 31
137.5
100
AcDbText
 73
     1
  0
TEXT
  5
89056
102
{ACAD_REACTORS
330
8906C
102
}
330
18
100
AcDbEntity
  8
文字
370
     9
100
AcDbText
 10
5711.115182689627
 20
-3664.10037348548
 30
137.5
 40
1.5
  1
MADE IN JAPAN
 50
90.0
  7
MS\U+FF7A\U+FF9E\U+FF7C\U+FF6F\U+FF78N
 11
5711.389190502126
 21
-3664.10037348548
 31
137.5
100
AcDbText
 73
     1
  0
TEXT
  5
89057
102
{ACAD_REACTORS
330
8906D
102
}
330
18
100
AcDbEntity
  8
文字
370
     9
100
AcDbText
 10
5708.706897424873
 20
-3692.721448143885
 30
0.0
 40
1.439999999999999
  1
NIKKI
 50
90.0
  7
TIMESNR
100
AcDbText
  0
TEXT
  5
89058
102
{ACAD_REACTORS
330
8906D
102
}
330
18
100
AcDbEntity
  8
文字
370
     9
100
AcDbText
 10
5710.403659833858
 20
-3692.842861254026
 30
0.0
 40
1.439999999999999
  1
DENSO
 50
90.0
  7
TIMESNR
100
AcDbText
  0
LINE
  5
89059
102
{ACAD_REACTORS
330
8906D
102
}
330
18
100
AcDbEntity
  8
文字
370
     9
100
AcDbLine
 10
5710.451393972435
 20
-3694.059460478411
 30
0.0
 11
5708.448893972438
 21
-3693.819160478413
 31
0.0
  0
LINE
  5
8905A
102
{ACAD_REACTORS
330
8906D
102
}
330
18
100
AcDbEntity
  8
文字
370
     9
100
AcDbLine
 10
5710.451393972435
 20
-3698.464960478413
 30
0.0
 11
5707.247393972437
 21
-3698.064460478412
 31
0.0
  0
ARC
  5
8905B
102
{ACAD_REACTORS
330
8906D
102
}
330
18
100
AcDbEntity
  8
文字
370
     9
100
AcDbCircle
 10
5709.047781181745
 20
-3696.061029083065
 30
0.0
 40
1.003113223100251
100
AcDbArc
 50
203.589777272609
 51
359.9468005913759
  0
LWPOLYLINE
  5
8905C
102
{ACAD_REACTORS
330
8906D
102
}
330
18
100
AcDbEntity
  8
文字
100
AcDbPolyline
 90
        8
 70
     1
 43
0.0
 10
5711.749888053049
 20
-3699.222033880032
 10
5711.749888053052
 20
-3685.222033880032
 42
0.4142135623730951
 10
5711.249888053052
 20
-3684.722033880031
 10
5702.249888053052
 20
-3684.722033880031
 42
0.4142135623730951
 10
5701.749888053052
 20
-3685.222033880032
 10
5701.749888053052
 20
-3699.222033880032
 42
0.4142135623730996
 10
5702.249888053052
 20
-3699.722033880031
 10
5711.249888053049
 20
-3699.722033880031
 42
0.4142135623730904
  0
ARC
  5
8905D
102
{ACAD_REACTORS
330
8906D
102
}
330
18
100
AcDbEntity
  8
文字
370
     9
100
AcDbCircle
 10
5709.249893972444
 20
-3696.061960478414
 30
0.0
 40
0.8009999999999999
100
AcDbArc
 50
0.0
 51
180.0
  0
TEXT
  5
8905E
102
{ACAD_REACTORS
330
8906D
102
}
330
18
100
AcDbEntity
  8
文字
370
     9
100
AcDbText
 10
5704.790761067326
 20
-3698.507315400823
 30
0.0
 40
2.0
  1
Certificate
 50
90.0
  7
TIMESNR
 11
5705.430117354831
 21
-3698.507315400823
 31
0.0
100
AcDbText
 73
     1
  0
LINE
  5
8905F
102
{ACAD_REACTORS
330
8906D
102
}
330
18
100
AcDbEntity
  8
文字
370
     9
100
AcDbLine
 10
5707.247393972437
 20
-3698.064460478412
 30
0.0
 11
5707.247393972437
 21
-3693.658960478411
 31
0.0
  0
CIRCLE
  5
89060
102
{ACAD_REACTORS
330
8906D
102
}
330
18
100
AcDbEntity
  8
文字
370
     9
100
AcDbCircle
 10
5709.049643972441
 20
-3696.061960478414
 30
0.0
 40
0.6007500000000002
  0
LINE
  5
89061
102
{ACAD_REACTORS
330
8906D
102
}
330
18
100
AcDbEntity
  8
文字
370
     9
100
AcDbLine
 10
5707.247393972437
 20
-3693.658960478411
 30
0.0
 11
5708.128493972436
 21
-3696.462460478413
 31
0.0
  0
LINE
  5
89062
102
{ACAD_REACTORS
330
8906D
102
}
330
18
100
AcDbEntity
  8
文字
370
     9
100
AcDbLine
 10
5708.448893972438
 20
-3696.061960478413
 30
0.0
 11
5708.448893972438
 21
-3693.819160478413
 31
0.0
  0
LINE
  5
89063
102
{ACAD_REACTORS
330
8906D
102
}
330
18
100
AcDbEntity
  8
文字
100
AcDbLine
 10
5705.749888053048
 20
-3699.722033880031
 30
0.0
 11
5705.749888053048
 21
-3684.722033880031
 31
0.0
  0
LINE
  5
89064
102
{ACAD_REACTORS
330
8906D
102
}
330
18
100
AcDbEntity
  8
文字
370
     9
100
AcDbLine
 10
5710.451393972435
 20
-3698.464960478413
 30
0.0
 11
5710.451393972435
 21
-3694.059460478411
 31
0.0
  0
LINE
  5
89C10
330
18
100
AcDbEntity
  8
\U+FF7A\U+FF88\U+FF78\U+FF80
100
AcDbLine
 10
6064.599902671413
 20
-3599.096255918976
 30
0.0
 11
6073.305273026356
 21
-3599.096255918976
 31
0.0
  0
LINE
  5
89C11
330
18
100
AcDbEntity
  8
\U+FF7A\U+FF88\U+FF78\U+FF80
100
AcDbLine
 10
6064.599902671413
 20
-3604.596255918977
 30
0.0
 11
6073.305273026356
 21
-3604.596255918977
 31
0.0
  0
LINE
  5
89C3F
330
18
100
AcDbEntity
  8
中心線
100
AcDbLine
 10
5391.199307372474
 20
-3745.697111061253
 30
0.0
 11
5391.199307372474
 21
-3457.997111061252
 31
0.0
  0
POINT
  5
89C65
330
18
100
AcDbEntity
  8
DEFPOINTS
100
AcDbPoint
 10
6016.993999619014
 20
-3740.032955305564
 30
0.0
  0
POINT
  5
89D00
330
18
100
AcDbEntity
  8
DEFPOINTS
100
AcDbPoint
 10
5657.749888053045
 20
-3601.847111061252
 30
0.0
  0
LINE
  5
89F7F
330
18
100
AcDbEntity
  8
中心線
100
AcDbLine
 10
5391.199307372485
 20
-3601.847111061255
 30
0.0
 11
5308.88959954411
 21
-3623.901930803111
 31
0.0
  0
CIRCLE
  5
89FDA
330
18
100
AcDbEntity
  8
本体
100
AcDbCircle
 10
5318.754870400795
 20
-3621.258539443947
 30
0.0
 40
3.0
  0
HATCH
  5
89FDB
330
18
100
AcDbEntity
  8
本体
100
AcDbHatch
 10
0.0
 20
0.0
 30
0.0
210
0.0
220
0.0
230
1.0
  2
SOLID
 70
     1
 71
     0
 91
        2
 92
        7
 72
     1
 73
     1
 93
        3
 10
5318.026304014519
 20
-3618.348351989367
 42
0.4142135623731056
 10
5315.844682946194
 20
-3621.987105830211
 42
0.0
 10
5318.754870400775
 20
-3621.258539443952
 42
0.0
 97
        0
 92
        7
 72
     1
 73
     1
 93
        3
 10
5321.665057855359
 20
-3620.529973057698
 42
0.0
 10
5318.754870400775
 20
-3621.258539443952
 42
0.0
 10
5319.483436787033
 20
-3624.168726898539
 42
0.4142135623731056
 97
        0
 75
     0
 76
     1
 47
0.0110124163047153
 98
        2
 10
5317.578322212652
 20
-3620.477007061091
 10
5320.675838601669
 20
-3622.103442989933
  0
CIRCLE
  5
89FDC
330
18
100
AcDbEntity
  8
実線
100
AcDbCircle
 10
5318.754870400802
 20
-3621.258539443911
 30
0.0
 40
3.000000000000056
  0
TEXT
  5
8A94B
330
18
100
AcDbEntity
  8
文字
100
AcDbText
 10
5922.088250404279
 20
-3890.605315015639
 30
0.0
 40
3.5
  1
τDISCモータ ND250-55-FS（B）（INC） NMR-SEMIA2A-791A（B）
 41
0.4200000000000001
  7
まこ
100
AcDbText
  0
LINE
  5
8A94C
330
18
100
AcDbEntity
  8
文字
100
AcDbLine
 10
5951.532593499251
 20
-3889.265570145267
 30
0.0
 11
5955.563862140638
 21
-3889.265570145267
 31
0.0
  0
LINE
  5
8A94D
330
18
100
AcDbEntity
  8
文字
100
AcDbLine
 10
5951.532593499251
 20
-3888.374447603487
 30
0.0
 11
5955.563862140638
 21
-3888.374447603487
 31
0.0
  0
LINE
  5
8A94E
330
18
100
AcDbEntity
  8
文字
100
AcDbLine
 10
5987.686708051468
 20
-3889.265570145267
 30
0.0
 11
5991.845279913107
 21
-3889.265570145267
 31
0.0
  0
LINE
  5
8A94F
330
18
100
AcDbEntity
  8
文字
100
AcDbLine
 10
5987.686708051468
 20
-3888.374447603487
 30
0.0
 11
5991.845279913107
 21
-3888.374447603487
 31
0.0
  0
TEXT
  5
8A950
330
18
100
AcDbEntity
  8
文字
100
AcDbText
 10
5923.896989422378
 20
-3901.830483890216
 30
0.0
 40
6.0
  1
外形図（INC）_PIN
 41
0.6
  7
まこ
100
AcDbText
  0
TEXT
  5
8A951
330
18
100
AcDbEntity
  8
文字
100
AcDbText
 10
5922.048540240389
 20
-3913.188390658064
 30
0.0
 40
7.0
  1
ＳＥ－８１０２０Ｂ
 41
0.9529999999999999
  7
まこ
100
AcDbText
  0
CIRCLE
  5
8A965
330
18
100
AcDbEntity
  8
実線
100
AcDbCircle
 10
5391.199307372474
 20
-3601.847111061249
 30
0.0
 40
32.49999999999984
  0
CIRCLE
  5
8A966
330
18
100
AcDbEntity
  8
実線
100
AcDbCircle
 10
5902.599902671406
 20
-3601.847111061252
 30
0.0
 40
84.0
  0
CIRCLE
  5
8A967
330
18
100
AcDbEntity
  8
実線
100
AcDbCircle
 10
5902.599902671412
 20
-3601.847111061252
 30
0.0
 40
85.0
  0
CIRCLE
  5
8A968
330
18
100
AcDbEntity
  8
実線
100
AcDbCircle
 10
5902.599902671412
 20
-3601.847111061252
 30
0.0
 40
34.5
  0
CIRCLE
  5
8A969
330
18
100
AcDbEntity
  8
実線
100
AcDbCircle
 10
5902.599902671412
 20
-3601.847111061252
 30
0.0
 40
34.0
  0
CIRCLE
  5
8A96A
330
18
100
AcDbEntity
  8
実線
100
AcDbCircle
 10
5902.599902671412
 20
-3601.847111061252
 30
0.0
 40
32.5
  0
VIEWPORT
  5
8A956
102
{ACAD_XDICTIONARY
360
8AB15
102
}
330
8A952
100
AcDbEntity
 67
     1
  8
0
100
AcDbViewport
 10
5.250000025611374
 20
3.621373426235721
 30
0.0
 40
10.53083104524876
 41
5.65048565623443
 68
     1
 69
     1
 12
5.250000025611374
 22
3.621373426235721
 13
0.0
 23
0.0
 14
0.5
 24
0.5
 15
0.0
 25
0.0
 16
0.0
 26
0.0
 36
1.0
 17
0.0
 27
0.0
 37
0.0
 42
50.0
 43
0.0
 44
0.0
 45
5.65048565623443
 50
0.0
 51
0.0
 72
   100
 90
   557168
  1

281
     0
 71
     1
 74
     0
110
0.0
120
0.0
130
0.0
111
1.0
121
0.0
131
0.0
112
0.0
122
1.0
132
0.0
 79
     0
146
0.0
  0
VIEWPORT
  5
8A957
102
{ACAD_XDICTIONARY
360
8A958
102
}
330
8A952
100
AcDbEntity
 67
     1
  8
0
100
AcDbViewport
 10
5.25
 20
3.5
 30
0.0
 40
8.4
 41
5.600000000000001
 68
     2
 69
     2
 12
5610.817536981638
 22
-3723.173107284787
 13
0.0
 23
0.0
 14
0.5
 24
0.5
 15
0.0
 25
0.0
 16
0.0
 26
0.0
 36
1.0
 17
0.0
 27
0.0
 37
0.0
 42
50.0
 43
0.0
 44
0.0
 45
635.415973811006
 50
0.0
 51
0.0
 72
   100
341
E
 90
   557152
  1

281
     0
 71
     1
 74
     0
110
0.0
120
0.0
130
0.0
111
1.0
121
0.0
131
0.0
112
0.0
122
1.0
132
0.0
 79
     0
146
0.0
  0
ENDSEC
  0
SECTION
  2
OBJECTS
  0
DICTIONARY
  5
C
330
0
100
AcDbDictionary
281
     1
  3
ACAD_2007HEADERVARS_RT
350
8AB0F
  3
ACAD_CIP_PREVIOUS_PRODUCT_INFO
350
890C1
  3
ACAD_COLOR
350
8AA9E
  3
ACAD_DETAILVIEWSTYLE
350
8971C
  3
ACAD_GROUP
350
D
  3
ACAD_IMAGE_VARS
350
89719
  3
ACAD_LAYOUT
350
73F
  3
ACAD_MATERIAL
350
8AA90
  3
ACAD_MLEADERSTYLE
350
8AA96
  3
ACAD_MLINESTYLE
350
1B
  3
ACAD_PLOTSETTINGS
350
740
  3
ACAD_PLOTSTYLENAME
350
73D
  3
ACAD_SCALELIST
350
890A5
  3
ACAD_SECTIONVIEWSTYLE
350
8971D
  3
ACAD_TABLESTYLE
350
8AA94
  3
ACAD_VISUALSTYLE
350
8AA77
  3
AcadDim
350
881A3
  3
ACDB_RECOMPOSE_DATA
350
8AB0D
  3
AcDbVariableDictionary
350
11AC
  3
APPDATA
350
89717
  3
CLOUDSETTINGS
350
8A808
  3
DimOffsetDictionary
350
897FB
  3
DWGPROPS
350
8AB0E
  3
FX_DICT_DIMENSION_PALETTE
350
89E6B
  3
FX_DICT_DIMENSION_PALETTE_RECENTLIST
350
89EA1
  0
DICTIONARY
  5
8AAB8
330
8
100
AcDbDictionary
280
     1
281
     1
  0
DICTIONARY
  5
1E591
330
2
100
AcDbDictionary
280
     1
281
     1
  3
ACAD_LAYERSTATES
360
1E615
  3
ACLYDICTIONARY
360
8A95F
  0
DICTIONARY
  5
890E1
330
E
100
AcDbDictionary
280
     1
281
     1
  3
ADSK_XREC_LAYER_RECONCILED
360
890E2
  0
DICTIONARY
  5
890E9
330
8C6
100
AcDbDictionary
280
     1
281
     1
  3
ADSK_XREC_LAYER_RECONCILED
360
890EA
  0
DICTIONARY
  5
890EF
330
96A
100
AcDbDictionary
280
     1
281
     1
  3
ADSK_XREC_LAYER_RECONCILED
360
890F0
  0
DICTIONARY
  5
890F1
330
1521
100
AcDbDictionary
280
     1
281
     1
  3
ADSK_XREC_LAYER_RECONCILED
360
890F2
  0
DICTIONARY
  5
890F5
330
1523
100
AcDbDictionary
280
     1
281
     1
  3
ADSK_XREC_LAYER_RECONCILED
360
890F6
  0
DICTIONARY
  5
890F7
330
1526
100
AcDbDictionary
280
     1
281
     1
  3
ADSK_XREC_LAYER_RECONCILED
360
890F8
  0
DICTIONARY
  5
890F9
330
44F0
100
AcDbDictionary
280
     1
281
     1
  3
ADSK_XREC_LAYER_RECONCILED
360
890FA
  0
DICTIONARY
  5
89101
330
7920D
100
AcDbDictionary
280
     1
281
     1
  3
ADSK_XREC_LAYER_RECONCILED
360
89102
  0
DICTIONARY
  5
89103
330
7CE53
100
AcDbDictionary
280
     1
281
     1
  3
ADSK_XREC_LAYER_RECONCILED
360
89104
  0
DICTIONARY
  5
89105
330
80436
100
AcDbDictionary
280
     1
281
     1
  3
ADSK_XREC_LAYER_RECONCILED
360
89106
  0
DICTIONARY
  5
8AB15
330
8A956
100
AcDbDictionary
280
     1
281
     1
  3
ACAD_XREC_ROUNDTRIP
360
8AB16
  0
DICTIONARY
  5
8A958
330
8A957
100
AcDbDictionary
280
     1
281
     1
  3
ACAD_XREC_ROUNDTRIP
360
8AB17
  3
ASDK_XREC_ANNOTATION_SCALE_INFO
360
8A959
  0
DICTIONARY
  5
8AB0F
102
{ACAD_REACTORS
330
C
102
}
330
C
100
AcDbDictionary
281
     1
  3
INTERFERECOLOR
350
8AB10
  0
XRECORD
  5
890C1
102
{ACAD_REACTORS
330
C
102
}
330
C
100
AcDbXrecord
280
     1
300
ACDLT
300
2019
300
87085ACDLT_2019_0F
  0
DICTIONARY
  5
8AA9E
102
{ACAD_REACTORS
330
C
102
}
330
C
100
AcDbDictionary
281
     1
  0
DICTIONARY
  5
8971C
102
{ACAD_REACTORS
330
C
102
}
330
C
100
AcDbDictionary
281
     1
  3
Imperial24
350
8AAA0
  0
DICTIONARY
  5
D
102
{ACAD_REACTORS
330
C
102
}
330
C
100
AcDbDictionary
281
     1
  3
*A1
350
84EAD
  3
*A10
350
824B4
  3
*A11
350
8906B
  3
*A12
350
8906D
  3
*A13
350
8214C
  3
*A14
350
80B9B
  3
*A15
350
879CE
  3
*A16
350
8906C
  3
*A17
350
88765
  3
*A18
350
824B0
  3
*A19
350
84A79
  3
*A2
350
808D0
  3
*A20
350
84AFC
  3
*A3
350
80949
  3
*A4
350
808D6
  3
*A5
350
808CD
  3
*A6
350
808CF
  3
*A7
350
84AFD
  3
*A8
350
808CE
  3
*A9
350
80B9A
  0
RASTERVARIABLES
  5
89719
102
{ACAD_REACTORS
330
C
102
}
330
C
100
AcDbRasterVariables
 90
        0
 70
     1
 71
     1
 72
     0
  0
DICTIONARY
  5
73F
102
{ACAD_REACTORS
330
C
102
}
330
C
100
AcDbDictionary
281
     1
  3
Model
350
741
  3
Sheet1
350
8A953
  0
DICTIONARY
  5
8AA90
102
{ACAD_REACTORS
330
C
102
}
330
C
100
AcDbDictionary
281
     1
  3
ByBlock
350
8AA92
  3
ByLayer
350
8AA91
  3
Global
350
8AA93
  0
DICTIONARY
  5
8AA96
102
{ACAD_REACTORS
330
C
102
}
330
C
100
AcDbDictionary
281
     1
  3
Standard
350
8AA97
  0
DICTIONARY
  5
1B
102
{ACAD_REACTORS
330
C
102
}
330
C
100
AcDbDictionary
281
     1
  3
STANDARD
350
1C
  0
DICTIONARY
  5
740
102
{ACAD_REACTORS
330
C
102
}
330
C
100
AcDbDictionary
281
     1
  0
ACDBDICTIONARYWDFLT
  5
73D
102
{ACAD_REACTORS
330
C
102
}
330
C
100
AcDbDictionary
281
     1
  3
Normal
350
73E
100
AcDbDictionaryWithDefault
340
73E
  0
DICTIONARY
  5
890A5
102
{ACAD_REACTORS
330
C
102
}
330
C
100
AcDbDictionary
281
     1
  3
A0
350
890A6
  3
A1
350
890A7
  3
A2
350
890A8
  3
A3
350
890A9
  3
A4
350
890AA
  3
A5
350
890AB
  3
A6
350
890AC
  3
A7
350
890AD
  3
A8
350
890AE
  3
A9
350
890AF
  3
B0
350
890B0
  3
B1
350
890B1
  3
B2
350
890B2
  3
B3
350
890B3
  3
B4
350
890B4
  3
B5
350
890B5
  3
B6
350
890B6
  0
DICTIONARY
  5
8971D
102
{ACAD_REACTORS
330
C
102
}
330
C
100
AcDbDictionary
281
     1
  3
Imperial24
350
8AA9F
  0
DICTIONARY
  5
8AA94
102
{ACAD_REACTORS
330
C
102
}
330
C
100
AcDbDictionary
281
     1
  3
Standard
350
8AA95
  0
DICTIONARY
  5
8AA77
102
{ACAD_REACTORS
330
C
102
}
330
C
100
AcDbDictionary
281
     1
  3
2dWireframe
350
8AA7C
  3
Basic
350
8AA7F
  3
Brighten
350
8AA83
  3
ColorChange
350
8AA87
  3
Conceptual
350
8AA81
  3
Dim
350
8AA82
  3
EdgeColorOff
350
8AA8A
  3
Facepattern
350
8AA86
  3
Flat
350
8AA78
  3
FlatWithEdges
350
8AA79
  3
Gouraud
350
8AA7A
  3
GouraudWithEdges
350
8AA7B
  3
Hidden
350
8AA7E
  3
JitterOff
350
8AA88
  3
Linepattern
350
8AA85
  3
OverhangOff
350
8AA89
  3
Realistic
350
8AA80
  3
Shaded
350
8AA8F
  3
Shaded with edges
350
8AA8E
  3
Shades of Gray
350
8AA8B
  3
Sketchy
350
8AA8C
  3
Thicken
350
8AA84
  3
Wireframe
350
8AA7D
  3
X-Ray
350
8AA8D
  0
XRECORD
  5
881A3
102
{ACAD_REACTORS
330
C
102
}
330
C
100
AcDbXrecord
280
     1
 90
   990106
  3

 60
     4
 61
     0
 62
     4
 63
     4
 64
     1
 65
     0
 66
     0
 67
     3
 68
     1
 69
     0
 70
     0
 71
     0
 72
     0
 40
0.0
170
     0
340
0
  0
XRECORD
  5
8AB0D
102
{ACAD_REACTORS
330
C
102
}
330
C
100
AcDbXrecord
280
     1
 90
        1
330
8AA95
  0
DICTIONARY
  5
11AC
102
{ACAD_REACTORS
330
C
102
}
330
C
100
AcDbDictionary
281
     1
  3
CANNOSCALE
350
8AA99
  3
CMLEADERSTYLE
350
8AA9B
  3
CTABLESTYLE
350
8AA9A
  3
CVIEWDETAILSTYLE
350
8AAFC
  3
CVIEWSECTIONSTYLE
350
8AAFD
  3
DGNFRAME
350
8AB02
  3
DIMASSOC
350
11AD
  3
HIDETEXT
350
8AB01
  3
INDEXCTL
350
891C8
  3
LAYEREVAL
350
8AAFF
  3
LAYERNOTIFY
350
8AB00
  3
LIGHTINGUNITS
350
8AAFE
  3
MSLTSCALE
350
8AA9C
  3
SORTENTS
350
AD08
  3
XCLIPFRAME
350
8AB0B
  0
DICTIONARY
  5
89717
102
{ACAD_REACTORS
330
C
102
}
330
C
100
AcDbDictionary
281
     1
  0
XRECORD
  5
8A808
102
{ACAD_REACTORS
330
C
102
}
330
C
100
AcDbXrecord
280
     1
 40
1.0
  0
DICTIONARY
  5
897FB
102
{ACAD_REACTORS
330
C
102
}
330
C
100
AcDbDictionary
281
     1
  3
DIMRAILANGLE
350
897FE
  3
DIMRAILFIRSTOFFSET
350
897FC
  3
DIMRAILOFFSET
350
897FD
  3
DIMRAILSENABLED
350
897FF
  0
XRECORD
  5
8AB0E
102
{ACAD_REACTORS
330
C
102
}
330
C
100
AcDbXrecord
280
     1
  1
DWGPROPS COOKIE
  2

  3

  4

  6

  7

  8
NI0949
  9

300
=
301
=
302
=
303
=
304
=
305
=
306
=
307
=
308
=
309
=
 40
0.0098986342592593
 41
2452479.723113426
 42
2458544.673877315
  1

 90
        0
  0
DICTIONARY
  5
89E6B
102
{ACAD_REACTORS
330
C
102
}
330
C
100
AcDbDictionary
281
     1
  0
DICTIONARY
  5
89EA1
102
{ACAD_REACTORS
330
C
102
}
330
C
100
AcDbDictionary
281
     1
  3
0
350
89EA2
  3
1
350
8A03A
  3
2
350
8A03E
  3
3
350
8A2F3
  0
DICTIONARY
  5
1E615
102
{ACAD_REACTORS
330
1E591
102
}
330
1E591
100
AcDbDictionary
281
     1
  0
DICTIONARY
  5
8A95F
102
{ACAD_REACTORS
330
1E591
102
}
330
1E591
100
AcDbDictionary
281
     1
1001
ACAD
1000
<All
  0
XRECORD
  5
890E2
102
{ACAD_REACTORS
330
890E1
102
}
330
890E1
100
AcDbXrecord
280
     1
290
     1
  0
XRECORD
  5
890EA
102
{ACAD_REACTORS
330
890E9
102
}
330
890E9
100
AcDbXrecord
280
     1
290
     1
  0
XRECORD
  5
890F0
102
{ACAD_REACTORS
330
890EF
102
}
330
890EF
100
AcDbXrecord
280
     1
290
     1
  0
XRECORD
  5
890F2
102
{ACAD_REACTORS
330
890F1
102
}
330
890F1
100
AcDbXrecord
280
     1
290
     1
  0
XRECORD
  5
890F6
102
{ACAD_REACTORS
330
890F5
102
}
330
890F5
100
AcDbXrecord
280
     1
290
     1
  0
XRECORD
  5
890F8
102
{ACAD_REACTORS
330
890F7
102
}
330
890F7
100
AcDbXrecord
280
     1
290
     1
  0
XRECORD
  5
890FA
102
{ACAD_REACTORS
330
890F9
102
}
330
890F9
100
AcDbXrecord
280
     1
290
     1
  0
XRECORD
  5
89102
102
{ACAD_REACTORS
330
89101
102
}
330
89101
100
AcDbXrecord
280
     1
290
     1
  0
XRECORD
  5
89104
102
{ACAD_REACTORS
330
89103
102
}
330
89103
100
AcDbXrecord
280
     1
290
     1
  0
XRECORD
  5
89106
102
{ACAD_REACTORS
330
89105
102
}
330
89105
100
AcDbXrecord
280
     1
290
     1
  0
XRECORD
  5
8AB16
102
{ACAD_REACTORS
330
8AB15
102
}
330
8AB15
100
AcDbXrecord
280
     1
102
SHADEPLOT
 70
     0
  0
XRECORD
  5
8AB17
102
{ACAD_REACTORS
330
8A958
102
}
330
8A958
100
AcDbXrecord
280
     1
102
SHADEPLOT
 70
     0
  0
XRECORD
  5
8A959
102
{ACAD_REACTORS
330
8A958
102
}
330
8A958
100
AcDbXrecord
280
     1
 90
        1
340
890A6
  0
XRECORD
  5
8AB10
102
{ACAD_REACTORS
330
8AB0F
102
}
330
8AB0F
100
AcDbXrecord
280
     1
1004
1800000001000000000000C0000000000000000000000000
  0
ACDBDETAILVIEWSTYLE
  5
8AAA0
102
{ACAD_XDICTIONARY
360
8AB51
102
}
102
{ACAD_REACTORS
330
8971C
102
}
330
8971C
100
AcDbModelDocViewStyle
 70
     0
  3
Imperial24
290
     0
100
AcDbDetailViewStyle
 70
     0
 71
     0
 90
        3
 71
     1
340
F
 40
0.24
340
0
 40
0.24
300

 40
0.36
280
     3
 71
     2
340
14
 90
       25
 71
     3
340
F
 40
0.24
 90
        1
 40
0.75
 90
        1
300
%<\AcVar ViewType \f "%tc1">% %<\AcVar ViewDetailId>%\PSCALE %<\AcVar ViewScale \f "%sn">%
 71
     4
340
14
 90
       25
340
14
 90
       25
280
     0
  0
GROUP
  5
84EAD
102
{ACAD_REACTORS
330
D
102
}
330
D
100
AcDbGroup
300

 70
     1
 71
     1
340
808B4
340
808CB
340
808BF
340
808BD
340
808BB
340
808B8
340
808B6
340
808B0
340
808AE
340
808C0
340
808B3
340
808C6
340
808C2
340
808B5
340
808AF
340
808B9
340
80894
340
808B2
340
808AD
340
808AC
340
808AB
340
808AA
340
808A9
340
808A8
340
808A7
340
808A6
340
808A5
340
808A4
340
808A3
340
808A2
340
808A1
340
808A0
340
8089F
340
8089E
340
8089D
340
8089C
340
8089B
340
8089A
340
80899
340
80898
340
80897
340
80896
340
80895
340
80893
340
8084A
340
80849
340
80848
340
80847
340
80846
340
80845
340
80844
340
80843
340
80842
340
80841
340
80840
340
8083F
340
8083E
340
8083D
340
80866
340
80865
340
80864
340
80863
340
80862
340
80861
340
80860
340
8085F
340
8085E
340
8085D
340
8085C
340
8085B
340
8085A
340
80859
340
808CA
340
808C5
340
808BC
340
808B7
340
8082E
340
8083C
340
8083B
340
8083A
340
80839
340
80838
340
80837
340
80836
340
80835
340
80834
340
80833
340
80832
340
80831
340
80830
340
8082F
340
80858
340
80857
340
80856
340
80855
340
80854
340
80853
340
80852
340
80851
340
80850
340
8084F
340
8084E
340
8084D
340
8084C
340
8084B
340
8086C
340
808C7
340
8086B
340
808C4
340
84A6B
340
84A66
340
84A67
340
84A68
340
84A69
340
84A6A
340
84A6C
340
84A6D
340
84A6F
340
84A70
340
84A71
340
84A72
340
84A73
340
84A74
340
84A75
340
84A76
340
84A65
340
84A77
340
84A78
  0
GROUP
  5
824B4
102
{ACAD_REACTORS
330
D
102
}
330
D
100
AcDbGroup
300

 70
     1
 71
     1
340
824A8
340
824A9
340
824AA
340
824AB
340
824AC
340
8248A
340
82481
340
82490
340
82491
340
8248B
340
8248C
340
8248D
340
8248E
340
8248F
340
82492
340
824A1
340
824A2
340
824A3
340
824A4
340
824A5
340
824A6
340
824A7
340
824B3
340
824B2
340
82485
340
82486
340
82487
340
82488
340
82489
340
82493
340
82494
340
82495
340
82496
340
82497
340
82498
340
82499
340
8249A
340
8249B
340
8249C
340
8249D
340
8249E
340
8249F
340
824A0
340
824AE
340
824AF
  0
GROUP
  5
8906B
102
{ACAD_REACTORS
330
D
102
}
330
D
100
AcDbGroup
300

 70
     1
 71
     1
340
8902F
340
8902E
340
8902D
340
8902C
340
8902B
340
8902A
340
89029
340
89028
340
89038
340
89037
340
89036
340
89035
340
89034
340
89033
340
89032
340
89031
340
89030
340
89027
340
8903C
340
8903B
340
8903A
340
89039
340
8903D
340
8903E
  0
GROUP
  5
8906D
102
{ACAD_REACTORS
330
D
102
}
330
D
100
AcDbGroup
300

 70
     1
 71
     1
340
8905D
340
8905C
340
8905B
340
8905A
340
89059
340
89058
340
89063
340
89062
340
89061
340
89060
340
8905F
340
8905E
340
89057
340
89064
  0
GROUP
  5
8214C
102
{ACAD_REACTORS
330
D
102
}
330
D
100
AcDbGroup
300

 70
     1
 71
     1
340
8214B
340
8214A
340
82149
340
82148
  0
GROUP
  5
80B9B
102
{ACAD_REACTORS
330
D
102
}
330
D
100
AcDbGroup
300

 70
     1
 71
     1
340
805E4
340
805E5
340
805E7
340
805ED
340
805F7
340
80B97
340
80604
340
805E3
340
80601
340
80602
340
80618
340
805F6
340
80607
340
80609
340
80612
340
80613
340
80614
340
80617
340
805E6
340
80615
340
80616
340
805F9
340
805FA
340
80B95
340
80605
340
805EF
340
80611
340
805EE
340
80608
340
8060A
340
8060B
340
8060C
340
8060D
340
80610
340
805EC
340
8060E
340
8060F
340
805EB
340
80603
340
805FB
  0
GROUP
  5
879CE
102
{ACAD_REACTORS
330
D
102
}
330
D
100
AcDbGroup
300

 70
     1
 71
     1
340
879CA
340
879CB
  0
GROUP
  5
8906C
102
{ACAD_REACTORS
330
D
102
}
330
D
100
AcDbGroup
300

 70
     1
 71
     1
340
89042
340
89041
340
8903F
340
89049
340
89048
340
89047
340
89046
340
89045
340
89044
340
89043
340
8904F
340
8904E
340
8904D
340
8904C
340
8904B
340
8904A
340
89040
340
89051
340
89050
340
89052
340
89053
340
89054
340
89056
340
89055
  0
GROUP
  5
88765
102
{ACAD_REACTORS
330
D
102
}
330
D
100
AcDbGroup
300

 70
     1
 71
     1
340
886ED
340
886EC
340
886EB
340
886EA
340
886E9
340
886E4
340
886E6
340
886E5
340
886D4
340
886D3
340
886D2
340
886D1
340
886D0
340
886CF
340
886CE
340
886CD
340
886CC
340
886CB
340
886C9
340
886C8
340
886C7
340
886C6
340
886C5
340
886C4
340
886C3
340
886C2
340
886C1
340
886C0
340
886BF
340
886BE
340
886BD
340
886BC
340
886BB
340
886BA
340
886B9
340
886B8
340
886B7
340
886B6
340
886B5
340
886B1
340
886B0
340
886DC
340
886DB
340
886F0
340
886EF
340
886EE
340
886E8
340
886E7
340
886AF
340
886E0
340
886DF
340
886DE
340
886DD
340
886D8
340
886D7
  0
GROUP
  5
824B0
102
{ACAD_REACTORS
330
D
102
}
330
D
100
AcDbGroup
300

 70
     1
 71
     1
340
8248A
340
82481
340
824AF
340
824AE
340
824AC
340
824AB
340
824AA
340
824A9
340
824A8
340
824A7
340
824A6
340
824A5
340
824A4
340
824A3
340
824A2
340
824A1
340
824A0
340
8249F
340
8249E
340
8249D
340
8249C
340
8249B
340
8249A
340
82499
340
82498
340
82497
340
82496
340
82495
340
82494
340
82493
340
82492
340
82491
340
82490
340
8248F
340
8248E
340
8248D
340
8248C
340
8248B
340
82489
340
82488
340
82487
340
82486
340
82485
  0
GROUP
  5
84A79
102
{ACAD_REACTORS
330
D
102
}
330
D
100
AcDbGroup
300

 70
     1
 71
     1
340
84A66
340
84A67
340
84A68
340
84A69
340
84A6A
340
84A6B
340
84A6C
340
84A6D
340
84A6F
340
84A70
340
84A71
340
84A72
340
84A73
340
84A74
340
84A75
340
84A76
340
84A65
340
84A77
340
84A78
  0
GROUP
  5
808D0
102
{ACAD_REACTORS
330
D
102
}
330
D
100
AcDbGroup
300

 70
     1
 71
     1
340
808CB
340
808BF
340
808BD
340
808BB
340
808B8
340
808B6
340
808B0
340
808AE
340
808C0
340
808B3
340
808C6
340
808C2
340
808B5
340
808AF
340
808B9
340
80894
340
808B4
340
808B2
340
808AD
340
808AC
340
808AB
340
808AA
340
808A9
340
808A8
340
808A7
340
808A6
340
808A5
340
808A4
340
808A3
340
808A2
340
808A1
340
808A0
340
8089F
340
8089E
340
8089D
340
8089C
340
8089B
340
8089A
340
80899
340
80898
340
80897
340
80896
340
80895
340
80893
340
8084A
340
80849
340
80848
340
80847
340
80846
340
80845
340
80844
340
80843
340
80842
340
80841
340
80840
340
8083F
340
8083E
340
8083D
340
80866
340
80865
340
80864
340
80863
340
80862
340
80861
340
80860
340
8085F
340
8085E
340
8085D
340
8085C
340
8085B
340
8085A
340
80859
340
808CA
340
808C5
340
808BC
340
808B7
340
8082E
340
8083C
340
8083B
340
8083A
340
80839
340
80838
340
80837
340
80836
340
80835
340
80834
340
80833
340
80832
340
80831
340
80830
340
8082F
340
80858
340
80857
340
80856
340
80855
340
80854
340
80853
340
80852
340
80851
340
80850
340
8084F
340
8084E
340
8084D
340
8084C
340
8084B
340
8086C
340
808C7
340
8086B
340
808C4
  0
GROUP
  5
84AFC
102
{ACAD_REACTORS
330
D
102
}
330
D
100
AcDbGroup
300

 70
     1
 71
     1
340
84AFB
340
84AFA
  0
GROUP
  5
80949
102
{ACAD_REACTORS
330
D
102
}
330
D
100
AcDbGroup
300

 70
     1
 71
     1
340
80910
340
80911
  0
GROUP
  5
808D6
102
{ACAD_REACTORS
330
D
102
}
330
D
100
AcDbGroup
300

 70
     1
 71
     1
340
80707
340
806ED
340
80722
340
8070A
340
8070B
340
80718
340
80719
340
80721
340
80708
340
80720
340
806A6
340
806FE
340
806EF
340
80724
340
80725
340
80762
340
80763
340
80764
340
80765
340
80766
340
80767
340
80768
340
80769
340
8076A
340
8076B
340
8076C
340
8076D
340
8076E
340
80700
340
80704
340
806EA
340
806EB
340
80723
340
80761
340
806F0
340
806F5
340
806F6
340
8070E
340
8070F
340
8071C
340
80778
340
80779
340
8077A
340
8077B
340
8077C
340
8076F
340
80770
340
80771
340
80772
340
80773
340
80774
340
80775
340
80776
340
80777
340
80703
340
80706
340
80710
340
80711
340
8071D
340
808D5
340
806F2
340
806F9
340
806FA
340
8077D
340
8077E
340
8077F
340
80780
340
80781
340
80782
340
80783
340
80784
340
80785
340
80786
340
80787
340
80788
340
80789
340
8078A
340
806A4
340
806D1
340
806D2
340
806D3
340
806D4
340
806D5
340
806D6
340
806DA
340
806DB
340
806DC
340
806DD
340
806DE
340
806DF
340
806D9
340
806D7
340
806D8
340
806CD
340
806CF
340
806D0
340
806E0
340
806E1
340
806E2
340
806E3
340
806E4
340
806E5
340
806E6
340
806E7
340
8070C
340
8070D
340
8071B
340
806F1
340
806FC
340
806E9
340
806EC
340
806EE
340
806FF
340
80726
340
80727
340
80728
340
80753
340
80754
340
80755
340
80756
340
80757
340
80758
340
80759
340
8075A
340
8075B
340
8075C
340
8075D
340
8075E
340
8075F
340
80760
340
80701
340
806E8
340
806F3
340
806F4
340
80716
340
80717
340
8071A
340
80745
340
80746
340
80747
340
80748
340
80749
340
8074A
340
8074B
340
8074C
340
8074D
340
8074E
340
8074F
340
80750
340
80751
340
80752
340
80702
340
80729
340
80712
340
80713
340
8071E
340
80705
340
80714
340
80715
340
8071F
340
806A5
340
806F7
340
806F8
340
806FB
340
80737
340
80738
340
80739
340
8073A
340
8073B
340
8073C
340
8073D
340
8073E
340
8073F
340
80740
340
80741
340
80742
340
80743
340
80744
340
806FD
340
8072A
340
8072B
340
8072C
340
8072D
340
8072E
340
8072F
340
80730
340
80731
340
80732
340
80733
340
80734
340
80735
340
80736
  0
GROUP
  5
808CD
102
{ACAD_REACTORS
330
D
102
}
330
D
100
AcDbGroup
300

 70
     1
 71
     1
340
805E7
340
805E5
340
805E4
340
805F7
340
805ED
340
80616
340
80615
340
805F9
340
805E6
340
80617
340
80614
340
80613
340
80612
340
80609
340
80607
340
805F6
340
80618
340
80604
340
80602
340
80601
340
805E3
340
805FA
340
8060F
340
8060E
340
805FB
340
805EC
340
80610
340
8060D
340
8060C
340
8060B
340
8060A
340
80608
340
805EE
340
80611
340
80605
340
80603
340
805EF
340
805EB
  0
GROUP
  5
808CF
102
{ACAD_REACTORS
330
D
102
}
330
D
100
AcDbGroup
300

 70
     1
 71
     1
340
80660
340
8065F
340
8065D
340
8063C
340
80681
340
80680
340
8067F
340
8067E
340
8067D
340
8067C
340
80662
340
80661
340
8067B
340
8067A
340
80675
340
80674
340
80673
340
80672
340
80671
340
80670
340
8066F
340
8066E
340
8066D
340
8066C
340
8066B
340
80669
340
80668
340
80667
340
80666
340
80665
340
80663
340
806A2
340
806A1
340
806A0
340
8069F
340
8069E
340
8069D
340
8069C
340
8069B
340
80698
340
80697
340
80696
340
80695
340
80694
340
80693
340
80692
340
80691
340
80690
340
8068F
340
8068B
340
8068A
340
80689
340
80688
340
80687
340
80686
340
80685
340
80682
340
8066A
340
80664
340
80643
340
80642
340
80641
340
80655
340
8064A
340
8063F
340
8063E
340
8063D
340
80657
340
8064D
340
8065E
340
8064E
340
8064B
340
8062A
340
80628
340
8061F
340
8061E
340
8061D
340
8061C
340
8061B
340
8061A
340
80619
340
80658
340
80656
340
80649
340
80629
340
80627
340
80659
340
80640
340
80626
340
80625
340
80624
340
80623
340
80622
340
80621
340
80620
  0
GROUP
  5
84AFD
102
{ACAD_REACTORS
330
D
102
}
330
D
100
AcDbGroup
300

 70
     1
 71
     1
340
84AFB
340
84AFA
  0
GROUP
  5
808CE
102
{ACAD_REACTORS
330
D
102
}
330
D
100
AcDbGroup
300

 70
     1
 71
     1
340
80720
340
80708
340
80702
340
80701
340
80722
340
806ED
340
806A4
340
806E7
340
806E6
340
806E5
340
806E4
340
806E3
340
806E2
340
806E1
340
806E0
340
806DF
340
806DE
340
806DD
340
806DC
340
806DB
340
806DA
340
806D9
340
806D8
340
806D7
340
806D6
340
806D5
340
806D4
340
806D3
340
806D2
340
806D1
340
806D0
340
806CF
340
806CD
340
80703
340
80761
340
80723
340
80721
340
8071D
340
8071C
340
80719
340
80718
340
80711
340
80710
340
8070F
340
8070E
340
8070B
340
8070A
340
806EB
340
806EA
340
806FE
340
80704
340
80700
340
806F6
340
806F5
340
806F0
340
806A6
340
80777
340
80776
340
80775
340
80774
340
80773
340
80772
340
80771
340
80770
340
8076F
340
8077C
340
8077B
340
8077A
340
80779
340
80778
340
80706
340
806FA
340
806F9
340
806F2
340
8078A
340
80789
340
80788
340
80787
340
80786
340
80785
340
80784
340
80783
340
80782
340
80781
340
80780
340
8077F
340
8077E
340
8077D
340
8076E
340
8076D
340
8076C
340
8076B
340
8076A
340
80769
340
80768
340
80767
340
80766
340
80765
340
80764
340
80763
340
80762
340
80725
340
80724
340
8071B
340
8070D
340
8070C
340
806EF
340
80760
340
8075F
340
8075E
340
8075D
340
8075C
340
8075B
340
8075A
340
80759
340
80758
340
80757
340
80756
340
80755
340
80754
340
80753
340
80728
340
80727
340
80726
340
806FF
340
806F4
340
806F3
340
806F1
340
806EE
340
806EC
340
806E9
340
806E8
340
80752
340
80751
340
80750
340
8074F
340
8074E
340
8074D
340
8074C
340
8074B
340
8074A
340
80749
340
80748
340
80747
340
80746
340
80745
340
8071A
340
80717
340
80716
340
8071E
340
80713
340
80712
340
8071F
340
80715
340
80714
340
80744
340
80743
340
80742
340
80741
340
80740
340
8073F
340
8073E
340
8073D
340
8073C
340
8073B
340
8073A
340
80739
340
80738
340
80737
340
806FB
340
806F8
340
806F7
340
806A5
340
80707
340
806FD
340
80736
340
80735
340
80734
340
80733
340
80732
340
80731
340
80730
340
8072F
340
8072E
340
8072D
340
8072C
340
8072B
340
8072A
340
80729
340
806FC
340
80705
  0
GROUP
  5
80B9A
102
{ACAD_REACTORS
330
D
102
}
330
D
100
AcDbGroup
300

 70
     1
 71
     1
340
8065D
340
8064D
340
80657
340
8063C
340
8065F
340
80660
340
8063E
340
8063F
340
80661
340
80681
340
80662
340
8065E
340
80619
340
8061A
340
8061B
340
8061C
340
8061D
340
8061E
340
8061F
340
80641
340
80642
340
806A1
340
80628
340
8062A
340
8064B
340
8064E
340
80620
340
80625
340
80626
340
8064A
340
8063D
340
80623
340
80624
340
80627
340
80629
340
80649
340
80656
340
80658
340
80B99
340
80655
340
80621
340
80622
340
80640
340
80659
  0
LAYOUT
  5
741
102
{ACAD_XDICTIONARY
360
8AB11
102
}
102
{ACAD_REACTORS
330
73F
102
}
330
73F
100
AcDbPlotSettings
  1

  2
HP DesignJet 750C (D/A1) Color
  4
ANSI_A_(11.00_x_8.50_Inches)
  6

 40
6.349999999999999
 41
19.05
 42
6.349999999999999
 43
19.05
 44
279.4
 45
215.9
 46
0.0
 47
0.0
 48
0.0
 49
0.0
140
0.0
141
0.0
142
1.0
143
114.9987744037562
 70
 11952
 72
     0
 73
     0
 74
     0
  7
monochrome.ctb
 75
     0
147
0.0086957448475845
148
-129819.9831684799
149
105438.247272282
100
AcDbLayout
  1
Model
 70
     1
 71
     0
 10
0.0
 20
0.0
 11
12.0
 21
9.0
 12
0.0
 22
0.0
 32
0.0
 14
5143.599909179427
 24
-3988.349103508323
 34
0.0
 15
6078.035164783848
 25
-3457.997111061252
 35
137.5
146
0.0
 13
0.0
 23
0.0
 33
0.0
 16
1.0
 26
0.0
 36
0.0
 17
0.0
 27
1.0
 37
0.0
 76
     0
330
18
  0
LAYOUT
  5
8A953
102
{ACAD_XDICTIONARY
360
8AB13
102
}
102
{ACAD_REACTORS
330
73F
102
}
330
73F
100
AcDbPlotSettings
  1

  2
none_device
  4
ANSI_A_(11.00_x_8.50_Inches)
  6

 40
6.349999999999999
 41
19.05
 42
6.349999999999999
 43
19.05
 44
279.4
 45
215.9
 46
0.0
 47
0.0
 48
0.0
 49
0.0
140
0.0
141
0.0
142
1.0
143
1.0
 70
   688
 72
     0
 73
     0
 74
     5
  7

 75
    16
147
1.0
148
0.0
149
0.0
100
AcDbLayout
  1
Sheet1
 70
     1
 71
     1
 10
-0.25
 20
-0.7500000000000001
 11
10.75
 21
7.75
 12
0.0
 22
0.0
 32
0.0
 14
1.049999999999999
 24
0.6999999999999993
 34
0.0
 15
9.449999999999999
 25
6.3
 35
0.0
146
0.0
 13
0.0
 23
0.0
 33
0.0
 16
1.0
 26
0.0
 36
0.0
 17
0.0
 27
1.0
 37
0.0
 76
     0
330
8A952
331
8A956
  0
MATERIAL
  5
8AA92
102
{ACAD_XDICTIONARY
360
8AB4A
102
}
102
{ACAD_REACTORS
330
8AA90
102
}
330
8AA90
100
AcDbMaterial
  1
ByBlock
 73
     1
 78
     1
172
     1
176
     1
270
     1
274
     1
  0
MATERIAL
  5
8AA91
102
{ACAD_XDICTIONARY
360
8AB48
102
}
102
{ACAD_REACTORS
330
8AA90
102
}
330
8AA90
100
AcDbMaterial
  1
ByLayer
 73
     1
 78
     1
172
     1
176
     1
270
     1
274
     1
  0
MATERIAL
  5
8AA93
102
{ACAD_XDICTIONARY
360
8AB4C
102
}
102
{ACAD_REACTORS
330
8AA90
102
}
330
8AA90
100
AcDbMaterial
  1
Global
 73
     1
 78
     1
172
     1
176
     1
270
     1
274
     1
  0
MLEADERSTYLE
  5
8AA97
102
{ACAD_REACTORS
330
8AA96
102
}
330
8AA96
100
AcDbMLeaderStyle
170
     2
171
     1
172
     0
 90
        2
 40
0.0
 41
0.0
173
     1
 91
-1056964608
340
12
 92
       -2
290
     1
 42
0.09
291
     1
 43
0.36
  3
Standard
 44
0.18
300

342
F
174
     1
178
     6
175
     1
176
     0
 93
-1056964608
 45
0.18
292
     0
297
     0
 46
0.18
 94
-1056964608
 47
1.0
 49
1.0
140
1.0
293
     1
141
0.0
294
     1
177
     0
142
1.0
295
     0
296
     0
143
0.125
1001
ACAD_MLEADERVER
1070
     2
  0
MLINESTYLE
  5
1C
102
{ACAD_REACTORS
330
1B
102
}
330
1B
100
AcDbMlineStyle
  2
STANDARD
 70
     0
  3

 62
   256
 51
90.0
 52
90.0
 71
     2
 49
0.5
 62
   256
  6
BYLAYER
 49
-0.5
 62
   256
  6
BYLAYER
  0
ACDBPLACEHOLDER
  5
73E
102
{ACAD_REACTORS
330
73D
102
}
330
73D
  0
SCALE
  5
890A6
102
{ACAD_REACTORS
330
890A5
102
}
330
890A5
100
AcDbScale
 70
     0
300
1:1
140
1.0
141
1.0
290
     1
  0
SCALE
  5
890A7
102
{ACAD_REACTORS
330
890A5
102
}
330
890A5
100
AcDbScale
 70
     0
300
1/128" = 1'-0"
140
0.0078125
141
12.0
290
     0
  0
SCALE
  5
890A8
102
{ACAD_REACTORS
330
890A5
102
}
330
890A5
100
AcDbScale
 70
     0
300
1/64" = 1'-0"
140
0.015625
141
12.0
290
     0
  0
SCALE
  5
890A9
102
{ACAD_REACTORS
330
890A5
102
}
330
890A5
100
AcDbScale
 70
     0
300
1/32" = 1'-0"
140
0.03125
141
12.0
290
     0
  0
SCALE
  5
890AA
102
{ACAD_REACTORS
330
890A5
102
}
330
890A5
100
AcDbScale
 70
     0
300
1/16" = 1'-0"
140
0.0625
141
12.0
290
     0
  0
SCALE
  5
890AB
102
{ACAD_REACTORS
330
890A5
102
}
330
890A5
100
AcDbScale
 70
     0
300
3/32" = 1'-0"
140
0.09375
141
12.0
290
     0
  0
SCALE
  5
890AC
102
{ACAD_REACTORS
330
890A5
102
}
330
890A5
100
AcDbScale
 70
     0
300
1/8" = 1'-0"
140
0.125
141
12.0
290
     0
  0
SCALE
  5
890AD
102
{ACAD_REACTORS
330
890A5
102
}
330
890A5
100
AcDbScale
 70
     0
300
3/16" = 1'-0"
140
0.1875
141
12.0
290
     0
  0
SCALE
  5
890AE
102
{ACAD_REACTORS
330
890A5
102
}
330
890A5
100
AcDbScale
 70
     0
300
1/4" = 1'-0"
140
0.25
141
12.0
290
     0
  0
SCALE
  5
890AF
102
{ACAD_REACTORS
330
890A5
102
}
330
890A5
100
AcDbScale
 70
     0
300
3/8" = 1'-0"
140
0.375
141
12.0
290
     0
  0
SCALE
  5
890B0
102
{ACAD_REACTORS
330
890A5
102
}
330
890A5
100
AcDbScale
 70
     0
300
1/2" = 1'-0"
140
0.5
141
12.0
290
     0
  0
SCALE
  5
890B1
102
{ACAD_REACTORS
330
890A5
102
}
330
890A5
100
AcDbScale
 70
     0
300
3/4" = 1'-0"
140
0.75
141
12.0
290
     0
  0
SCALE
  5
890B2
102
{ACAD_REACTORS
330
890A5
102
}
330
890A5
100
AcDbScale
 70
     0
300
1" = 1'-0"
140
1.0
141
12.0
290
     0
  0
SCALE
  5
890B3
102
{ACAD_REACTORS
330
890A5
102
}
330
890A5
100
AcDbScale
 70
     0
300
1-1/2" = 1'-0"
140
1.5
141
12.0
290
     0
  0
SCALE
  5
890B4
102
{ACAD_REACTORS
330
890A5
102
}
330
890A5
100
AcDbScale
 70
     0
300
3" = 1'-0"
140
3.0
141
12.0
290
     0
  0
SCALE
  5
890B5
102
{ACAD_REACTORS
330
890A5
102
}
330
890A5
100
AcDbScale
 70
     0
300
6" = 1'-0"
140
6.0
141
12.0
290
     0
  0
SCALE
  5
890B6
102
{ACAD_REACTORS
330
890A5
102
}
330
890A5
100
AcDbScale
 70
     0
300
1'-0" = 1'-0"
140
12.0
141
12.0
290
     0
  0
ACDBSECTIONVIEWSTYLE
  5
8AA9F
102
{ACAD_XDICTIONARY
360
8AB4F
102
}
102
{ACAD_REACTORS
330
8971D
102
}
330
8971D
100
AcDbModelDocViewStyle
 70
     0
  3
Imperial24
290
     0
100
AcDbSectionViewStyle
 70
     0
 71
     0
 90
       78
 71
     1
340
F
 40
0.24
340
0
340
0
 40
0.24
300
I, O, Q, S, X, Z
 40
0.48
 90
        3
 40
0.18
 90
        1
 71
     2
340
14
 90
       25
340
14
 90
       50
 40
0.24
 40
0.0
 40
0.24
 71
     3
340
F
 40
0.24
 90
        1
 40
0.75
 90
        1
300
%<\AcVar ViewType \f "%tc1">% %<\AcVar ViewSectionStartId>%-%<\AcVar ViewSectionEndId>%\PSCALE %<\AcVar ViewScale \f "%sn">%
 71
     4
300
ANSI31
 40
1.0
 90
        0
290
     0
290
     0
 90
        6
 40
0.0
 40
1.570796326794896
 40
0.2617993877991494
 40
1.308996938995747
 40
-0.2617993877991494
 40
1.832595714594046
  0
TABLESTYLE
  5
8AA95
102
{ACAD_XDICTIONARY
360
8AAA9
102
}
102
{ACAD_REACTORS
330
8AA94
102
}
330
8AA94
100
AcDbTableStyle
  3
Standard
 70
     0
 71
     0
 40
0.06
 41
0.06
280
     0
281
     0
  7
STANDARD
140
0.18
170
     2
 62
     0
 63
     7
283
     0
274
    -2
284
     1
 64
     0
275
    -2
285
     1
 65
     0
276
    -2
286
     1
 66
     0
277
    -2
287
     1
 67
     0
278
    -2
288
     1
 68
     0
279
    -2
289
     1
 69
     0
  7
STANDARD
140
0.25
170
     5
 62
     0
 63
     7
283
     0
274
    -2
284
     1
 64
     0
275
    -2
285
     1
 65
     0
276
    -2
286
     1
 66
     0
277
    -2
287
     1
 67
     0
278
    -2
288
     1
 68
     0
279
    -2
289
     1
 69
     0
  7
STANDARD
140
0.18
170
     5
 62
     0
 63
     7
283
     0
274
    -2
284
     1
 64
     0
275
    -2
285
     1
 65
     0
276
    -2
286
     1
 66
     0
277
    -2
287
     1
 67
     0
278
    -2
288
     1
 68
     0
279
    -2
289
     1
 69
     0
  0
VISUALSTYLE
  5
8AA7C
102
{ACAD_XDICTIONARY
360
8AB20
102
}
102
{ACAD_REACTORS
330
8AA77
102
}
330
8AA77
100
AcDbVisualStyle
  2
2dWireframe
 70
     4
 71
     0
 72
     2
 73
     0
 90
        0
 40
-0.6
 41
-30.0
 62
     5
 63
     7
 74
     1
 91
        4
 64
     7
 65
   257
 75
     1
175
     1
 42
1.0
 92
        0
 66
   257
 43
1.0
 76
     1
 77
     6
 78
     2
 67
     7
 79
     5
170
     0
171
     0
290
     0
174
     0
 93
        1
 44
0.0
173
     0
291
     0
 45
0.0
1001
ACAD
1000
AcDbSavedByObjectVersion
1070
     0
  0
VISUALSTYLE
  5
8AA7F
102
{ACAD_XDICTIONARY
360
8AB26
102
}
102
{ACAD_REACTORS
330
8AA77
102
}
330
8AA77
100
AcDbVisualStyle
  2
Basic
 70
     7
 71
     1
 72
     0
 73
     1
 90
        0
 40
-0.6
 41
-30.0
 62
     5
 63
     7
 74
     0
 91
        4
 64
     7
 65
   257
 75
     1
175
     1
 42
1.0
 92
        8
 66
     7
 43
1.0
 76
     1
 77
     6
 78
     2
 67
     7
 79
     5
170
     0
171
     0
290
     0
174
     0
 93
        1
 44
0.0
173
     0
291
     1
 45
0.0
1001
ACAD
1000
AcDbSavedByObjectVersion
1070
     0
  0
VISUALSTYLE
  5
8AA83
102
{ACAD_XDICTIONARY
360
8AB2E
102
}
102
{ACAD_REACTORS
330
8AA77
102
}
330
8AA77
100
AcDbVisualStyle
  2
Brighten
 70
    12
 71
     2
 72
     2
 73
     0
 90
        0
 40
-0.6
 41
-30.0
 62
     5
 63
     7
 74
     1
 91
        4
 64
     7
 65
   257
 75
     1
175
     1
 42
1.0
 92
        8
 66
     7
 43
1.0
 76
     1
 77
     6
 78
     2
 67
     7
 79
     5
170
     0
171
     0
290
     0
174
     0
 93
        1
 44
50.0
173
     0
291
     1
 45
0.0
1001
ACAD
1000
AcDbSavedByObjectVersion
1070
     0
  0
VISUALSTYLE
  5
8AA87
102
{ACAD_XDICTIONARY
360
8AB36
102
}
102
{ACAD_REACTORS
330
8AA77
102
}
330
8AA77
100
AcDbVisualStyle
  2
ColorChange
 70
    16
 71
     2
 72
     2
 73
     3
 90
        0
 40
-0.6
 41
-30.0
 62
     5
 63
     8
 74
     1
 91
        4
 64
     7
 65
   257
 75
     1
175
     1
 42
1.0
 92
        8
 66
     8
 43
1.0
 76
     1
 77
     6
 78
     2
 67
     7
 79
     5
170
     0
171
     0
290
     0
174
     0
 93
        1
 44
0.0
173
     0
291
     1
 45
0.0
1001
ACAD
1000
AcDbSavedByObjectVersion
1070
     0
  0
VISUALSTYLE
  5
8AA81
102
{ACAD_XDICTIONARY
360
8AB2A
102
}
102
{ACAD_REACTORS
330
8AA77
102
}
330
8AA77
100
AcDbVisualStyle
  2
Conceptual
 70
     9
 71
     3
 72
     2
 73
     0
 90
        0
 40
-0.6
 41
-30.0
 62
     5
 63
     7
 74
     2
 91
        2
 64
     7
 65
   257
 75
     1
175
     1
 42
179.0
 92
        8
 66
     7
 43
1.0
 76
     1
 77
     6
 78
     2
 67
     7
 79
     3
170
     0
171
     0
290
     0
174
     0
 93
        1
 44
0.0
173
     0
291
     0
 45
0.0
1001
ACAD
1000
AcDbSavedByObjectVersion
1070
     0
  0
VISUALSTYLE
  5
8AA82
102
{ACAD_XDICTIONARY
360
8AB2C
102
}
102
{ACAD_REACTORS
330
8AA77
102
}
330
8AA77
100
AcDbVisualStyle
  2
Dim
 70
    11
 71
     2
 72
     2
 73
     0
 90
        0
 40
-0.6
 41
-30.0
 62
     5
 63
     7
 74
     1
 91
        4
 64
     7
 65
   257
 75
     1
175
     1
 42
1.0
 92
        8
 66
     7
 43
1.0
 76
     1
 77
     6
 78
     2
 67
     7
 79
     5
170
     0
171
     0
290
     0
174
     0
 93
        1
 44
-50.0
173
     0
291
     1
 45
0.0
1001
ACAD
1000
AcDbSavedByObjectVersion
1070
     0
  0
VISUALSTYLE
  5
8AA8A
102
{ACAD_XDICTIONARY
360
8AB3C
102
}
102
{ACAD_REACTORS
330
8AA77
102
}
330
8AA77
100
AcDbVisualStyle
  2
EdgeColorOff
 70
    22
 71
     2
 72
     2
 73
     0
 90
        0
 40
-0.6
 41
-30.0
 62
     5
 63
     7
 74
     1
 91
        4
 64
     7
 65
   257
 75
     1
175
     1
 42
1.0
 92
        8
 66
     7
 43
1.0
 76
     1
 77
     6
 78
     2
 67
     7
 79
     5
170
     0
171
     0
290
     0
174
     0
 93
        1
 44
0.0
173
     0
291
     1
 45
0.0
1001
ACAD
1000
AcDbSavedByObjectVersion
1070
     0
  0
VISUALSTYLE
  5
8AA86
102
{ACAD_XDICTIONARY
360
8AB34
102
}
102
{ACAD_REACTORS
330
8AA77
102
}
330
8AA77
100
AcDbVisualStyle
  2
Facepattern
 70
    15
 71
     2
 72
     2
 73
     0
 90
        0
 40
-0.6
 41
-30.0
 62
     5
 63
     7
 74
     1
 91
        4
 64
     7
 65
   257
 75
     1
175
     1
 42
1.0
 92
        8
 66
     7
 43
1.0
 76
     1
 77
     6
 78
     2
 67
     7
 79
     5
170
     0
171
     0
290
     0
174
     0
 93
        1
 44
0.0
173
     0
291
     1
 45
0.0
1001
ACAD
1000
AcDbSavedByObjectVersion
1070
     0
  0
VISUALSTYLE
  5
8AA78
102
{ACAD_XDICTIONARY
360
8AB18
102
}
102
{ACAD_REACTORS
330
8AA77
102
}
330
8AA77
100
AcDbVisualStyle
  2
Flat
 70
     0
 71
     2
 72
     1
 73
     1
 90
        2
 40
-0.6
 41
30.0
 62
     5
 63
     7
 74
     0
 91
        0
 64
     7
 65
   257
 75
     1
175
     1
 42
1.0
 92
        8
 66
     7
 43
1.0
 76
     1
 77
     6
 78
     2
 67
     7
 79
     5
170
     0
171
     0
290
     0
174
     0
 93
       13
 44
0.0
173
     0
291
     1
 45
0.0
1001
ACAD
1000
AcDbSavedByObjectVersion
1070
     0
  0
VISUALSTYLE
  5
8AA79
102
{ACAD_XDICTIONARY
360
8AB1A
102
}
102
{ACAD_REACTORS
330
8AA77
102
}
330
8AA77
100
AcDbVisualStyle
  2
FlatWithEdges
 70
     1
 71
     2
 72
     1
 73
     1
 90
        2
 40
-0.6
 41
30.0
 62
     5
 63
     7
 74
     1
 91
        0
 64
     7
 65
   257
 75
     1
175
     1
 42
1.0
 92
        0
 66
   257
 43
1.0
 76
     1
 77
     6
 78
     2
 67
     7
 79
     5
170
     0
171
     0
290
     0
174
     0
 93
       13
 44
0.0
173
     0
291
     1
 45
0.0
1001
ACAD
1000
AcDbSavedByObjectVersion
1070
     0
  0
VISUALSTYLE
  5
8AA7A
102
{ACAD_XDICTIONARY
360
8AB1C
102
}
102
{ACAD_REACTORS
330
8AA77
102
}
330
8AA77
100
AcDbVisualStyle
  2
Gouraud
 70
     2
 71
     2
 72
     2
 73
     1
 90
        2
 40
-0.6
 41
30.0
 62
     5
 63
     7
 74
     0
 91
        0
 64
     7
 65
   257
 75
     1
175
     1
 42
1.0
 92
        0
 66
     7
 43
1.0
 76
     1
 77
     6
 78
     2
 67
     7
 79
     5
170
     0
171
     0
290
     0
174
     0
 93
       13
 44
0.0
173
     0
291
     1
 45
0.0
1001
ACAD
1000
AcDbSavedByObjectVersion
1070
     0
  0
VISUALSTYLE
  5
8AA7B
102
{ACAD_XDICTIONARY
360
8AB1E
102
}
102
{ACAD_REACTORS
330
8AA77
102
}
330
8AA77
100
AcDbVisualStyle
  2
GouraudWithEdges
 70
     3
 71
     2
 72
     2
 73
     1
 90
        2
 40
-0.6
 41
30.0
 62
     5
 63
     7
 74
     1
 91
        0
 64
     7
 65
   257
 75
     1
175
     1
 42
1.0
 92
        0
 66
   257
 43
1.0
 76
     1
 77
     6
 78
     2
 67
     7
 79
     5
170
     0
171
     0
290
     0
174
     0
 93
       13
 44
0.0
173
     0
291
     1
 45
0.0
1001
ACAD
1000
AcDbSavedByObjectVersion
1070
     0
  0
VISUALSTYLE
  5
8AA7E
102
{ACAD_XDICTIONARY
360
8AB24
102
}
102
{ACAD_REACTORS
330
8AA77
102
}
330
8AA77
100
AcDbVisualStyle
  2
Hidden
 70
     6
 71
     1
 72
     2
 73
     2
 90
        0
 40
-0.6
 41
-30.0
 62
     5
 63
     7
 74
     2
 91
        2
 64
     7
 65
   257
 75
     2
175
     1
 42
40.0
 92
        0
 66
   257
 43
1.0
 76
     1
 77
     6
 78
     2
 67
     7
 79
     3
170
     0
171
     0
290
     0
174
     0
 93
        1
 44
0.0
173
     0
291
     0
 45
0.0
1001
ACAD
1000
AcDbSavedByObjectVersion
1070
     0
  0
VISUALSTYLE
  5
8AA88
102
{ACAD_XDICTIONARY
360
8AB38
102
}
102
{ACAD_REACTORS
330
8AA77
102
}
330
8AA77
100
AcDbVisualStyle
  2
JitterOff
 70
    20
 71
     2
 72
     2
 73
     0
 90
        0
 40
-0.6
 41
-30.0
 62
     5
 63
     7
 74
     1
 91
        4
 64
     7
 65
   257
 75
     1
175
     1
 42
1.0
 92
       10
 66
     7
 43
1.0
 76
     1
 77
     6
 78
     2
 67
     7
 79
     5
170
     0
171
     0
290
     0
174
     0
 93
        1
 44
0.0
173
     0
291
     1
 45
0.0
1001
ACAD
1000
AcDbSavedByObjectVersion
1070
     0
  0
VISUALSTYLE
  5
8AA85
102
{ACAD_XDICTIONARY
360
8AB32
102
}
102
{ACAD_REACTORS
330
8AA77
102
}
330
8AA77
100
AcDbVisualStyle
  2
Linepattern
 70
    14
 71
     2
 72
     2
 73
     0
 90
        0
 40
-0.6
 41
-30.0
 62
     5
 63
     7
 74
     1
 91
        4
 64
     7
 65
   257
 75
     7
175
     7
 42
1.0
 92
        8
 66
     7
 43
1.0
 76
     1
 77
     6
 78
     2
 67
     7
 79
     5
170
     0
171
     0
290
     0
174
     0
 93
        1
 44
0.0
173
     0
291
     1
 45
0.0
1001
ACAD
1000
AcDbSavedByObjectVersion
1070
     0
  0
VISUALSTYLE
  5
8AA89
102
{ACAD_XDICTIONARY
360
8AB3A
102
}
102
{ACAD_REACTORS
330
8AA77
102
}
330
8AA77
100
AcDbVisualStyle
  2
OverhangOff
 70
    21
 71
     2
 72
     2
 73
     0
 90
        0
 40
-0.6
 41
-30.0
 62
     5
 63
     7
 74
     1
 91
        4
 64
     7
 65
   257
 75
     1
175
     1
 42
1.0
 92
        9
 66
     7
 43
1.0
 76
     1
 77
     6
 78
     2
 67
     7
 79
     5
170
     0
171
     0
290
     0
174
     0
 93
        1
 44
0.0
173
     0
291
     1
 45
0.0
1001
ACAD
1000
AcDbSavedByObjectVersion
1070
     0
  0
VISUALSTYLE
  5
8AA80
102
{ACAD_XDICTIONARY
360
8AB28
102
}
102
{ACAD_REACTORS
330
8AA77
102
}
330
8AA77
100
AcDbVisualStyle
  2
Realistic
 70
     8
 71
     2
 72
     2
 73
     0
 90
        2
 40
-0.6
 41
30.0
 62
     5
 63
     7
 74
     0
 91
        0
 64
     7
 65
   257
 75
     1
175
     1
 42
1.0
 92
        8
 66
   257
 43
1.0
 76
     1
 77
     6
 78
     2
 67
     7
 79
     3
170
     0
171
     0
290
     0
174
     0
 93
       13
 44
0.0
173
     0
291
     0
 45
0.0
1001
ACAD
1000
AcDbSavedByObjectVersion
1070
     0
  0
VISUALSTYLE
  5
8AA8F
102
{ACAD_XDICTIONARY
360
8AB46
102
}
102
{ACAD_REACTORS
330
8AA77
102
}
330
8AA77
100
AcDbVisualStyle
  2
Shaded
 70
    27
 71
     2
 72
     2
 73
     1
 90
        2
 40
-0.6
 41
30.0
 62
     5
 63
     7
 74
     0
 91
        4
 64
     7
 65
   257
 75
     1
175
     1
 42
1.0
 92
        8
 66
   257
 43
1.0
 76
     1
 77
     6
 78
     2
 67
     8
 79
     3
170
     0
171
     0
290
     0
174
     0
 93
        5
 44
0.0
173
     0
291
     0
 45
0.0
1001
ACAD
1000
AcDbSavedByObjectVersion
1070
     0
  0
VISUALSTYLE
  5
8AA8E
102
{ACAD_XDICTIONARY
360
8AB44
102
}
102
{ACAD_REACTORS
330
8AA77
102
}
330
8AA77
100
AcDbVisualStyle
  2
Shaded with edges
 70
    26
 71
     2
 72
     2
 73
     1
 90
        2
 40
-0.6
 41
30.0
 62
     5
 63
     7
 74
     1
 91
        2
 64
     7
 65
   257
 75
     2
175
     1
 42
1.0
 92
        8
 66
   257
 43
1.0
 76
     1
 77
     6
 78
     2
 67
     7
 79
     3
170
     0
171
     0
290
     0
174
     0
 93
        5
 44
0.0
173
     0
291
     0
 45
0.0
1001
ACAD
1000
AcDbSavedByObjectVersion
1070
     0
  0
VISUALSTYLE
  5
8AA8B
102
{ACAD_XDICTIONARY
360
8AB3E
102
}
102
{ACAD_REACTORS
330
8AA77
102
}
330
8AA77
100
AcDbVisualStyle
  2
Shades of Gray
 70
    23
 71
     2
 72
     2
 73
     3
 90
        0
 40
-0.6
 41
-30.0
 62
     5
 63
     7
 74
     2
 91
        2
 64
     7
 65
     7
 75
     1
175
     1
 42
40.0
 92
        8
 66
     7
 43
1.0
 76
     1
 77
     6
 78
     2
 67
     7
 79
     3
170
     0
171
     0
290
     0
174
     0
 93
        1
 44
0.0
173
     0
291
     0
 45
0.0
1001
ACAD
1000
AcDbSavedByObjectVersion
1070
     0
  0
VISUALSTYLE
  5
8AA8C
102
{ACAD_XDICTIONARY
360
8AB40
102
}
102
{ACAD_REACTORS
330
8AA77
102
}
330
8AA77
100
AcDbVisualStyle
  2
Sketchy
 70
    24
 71
     1
 72
     2
 73
     2
 90
        0
 40
-0.6
 41
-30.0
 62
     5
 63
     7
 74
     2
 91
        2
 64
     7
 65
     7
 75
     1
175
     1
 42
40.0
 92
       11
 66
     7
 43
1.0
 76
     1
 77
     6
 78
     2
 67
     7
 79
     6
170
     0
171
     0
290
     0
174
     0
 93
        1
 44
0.0
173
     0
291
     0
 45
0.0
1001
ACAD
1000
AcDbSavedByObjectVersion
1070
     0
  0
VISUALSTYLE
  5
8AA84
102
{ACAD_XDICTIONARY
360
8AB30
102
}
102
{ACAD_REACTORS
330
8AA77
102
}
330
8AA77
100
AcDbVisualStyle
  2
Thicken
 70
    13
 71
     2
 72
     2
 73
     0
 90
        0
 40
-0.6
 41
-30.0
 62
     5
 63
     7
 74
     1
 91
        4
 64
     7
 65
   257
 75
     1
175
     1
 42
1.0
 92
       12
 66
     7
 43
1.0
 76
     1
 77
     6
 78
     2
 67
     7
 79
     5
170
     0
171
     0
290
     0
174
     0
 93
        1
 44
0.0
173
     0
291
     1
 45
0.0
1001
ACAD
1000
AcDbSavedByObjectVersion
1070
     0
  0
VISUALSTYLE
  5
8AA7D
102
{ACAD_XDICTIONARY
360
8AB22
102
}
102
{ACAD_REACTORS
330
8AA77
102
}
330
8AA77
100
AcDbVisualStyle
  2
Wireframe
 70
     5
 71
     0
 72
     2
 73
     0
 90
        0
 40
-0.6
 41
-30.0
 62
     5
 63
     7
 74
     1
 91
        4
 64
     7
 65
   257
 75
     1
175
     1
 42
1.0
 92
        0
 66
   257
 43
1.0
 76
     1
 77
     6
 78
     2
 67
     7
 79
     3
170
     0
171
     0
290
     0
174
     0
 93
        1
 44
0.0
173
     0
291
     0
 45
0.0
1001
ACAD
1000
AcDbSavedByObjectVersion
1070
     0
  0
VISUALSTYLE
  5
8AA8D
102
{ACAD_XDICTIONARY
360
8AB42
102
}
102
{ACAD_REACTORS
330
8AA77
102
}
330
8AA77
100
AcDbVisualStyle
  2
X-Ray
 70
    25
 71
     2
 72
     2
 73
     1
 90
        1
 40
0.5
 41
-30.0
 62
     5
 63
     7
 74
     1
 91
        0
 64
     7
 65
   257
 75
     1
175
     1
 42
1.0
 92
        8
 66
     7
 43
1.0
 76
     1
 77
     6
 78
     2
 67
     7
 79
     3
170
     0
171
     0
290
     0
174
     0
 93
       13
 44
0.0
173
     0
291
     0
 45
0.0
1001
ACAD
1000
AcDbSavedByObjectVersion
1070
     0
  0
DICTIONARYVAR
  5
8AA99
102
{ACAD_REACTORS
330
11AC
102
}
330
11AC
100
DictionaryVariables
280
     0
  1
1:1
  0
DICTIONARYVAR
  5
8AA9B
102
{ACAD_REACTORS
330
11AC
102
}
330
11AC
100
DictionaryVariables
280
     0
  1
STANDARD
  0
DICTIONARYVAR
  5
8AA9A
102
{ACAD_REACTORS
330
11AC
102
}
330
11AC
100
DictionaryVariables
280
     0
  1
STANDARD
  0
DICTIONARYVAR
  5
8AAFC
102
{ACAD_REACTORS
330
11AC
102
}
330
11AC
100
DictionaryVariables
280
     0
  1
Imperial24
  0
DICTIONARYVAR
  5
8AAFD
102
{ACAD_REACTORS
330
11AC
102
}
330
11AC
100
DictionaryVariables
280
     0
  1
Imperial24
  0
DICTIONARYVAR
  5
8AB02
102
{ACAD_REACTORS
330
11AC
102
}
330
11AC
100
DictionaryVariables
280
     0
  1
2
  0
DICTIONARYVAR
  5
11AD
102
{ACAD_REACTORS
330
11AC
102
}
330
11AC
100
DictionaryVariables
280
     0
  1
1
  0
DICTIONARYVAR
  5
8AB01
102
{ACAD_REACTORS
330
11AC
102
}
330
11AC
100
DictionaryVariables
280
     0
  1
1
  0
DICTIONARYVAR
  5
891C8
102
{ACAD_REACTORS
330
11AC
102
}
330
11AC
100
DictionaryVariables
280
     0
  1
0
  0
DICTIONARYVAR
  5
8AAFF
102
{ACAD_REACTORS
330
11AC
102
}
330
11AC
100
DictionaryVariables
280
     0
  1
0
  0
DICTIONARYVAR
  5
8AB00
102
{ACAD_REACTORS
330
11AC
102
}
330
11AC
100
DictionaryVariables
280
     0
  1
0
  0
DICTIONARYVAR
  5
8AAFE
102
{ACAD_REACTORS
330
11AC
102
}
330
11AC
100
DictionaryVariables
280
     0
  1
2
  0
DICTIONARYVAR
  5
8AA9C
102
{ACAD_REACTORS
330
11AC
102
}
330
11AC
100
DictionaryVariables
280
     0
  1
0
  0
DICTIONARYVAR
  5
AD08
102
{ACAD_REACTORS
330
11AC
102
}
330
11AC
100
DictionaryVariables
280
     0
  1
96
  0
DICTIONARYVAR
  5
8AB0B
102
{ACAD_REACTORS
330
11AC
102
}
330
11AC
100
DictionaryVariables
280
     0
  1
2
  0
DICTIONARYVAR
  5
897FE
102
{ACAD_REACTORS
330
897FB
102
}
330
897FB
100
DictionaryVariables
280
     0
  1
0.261799
  0
DICTIONARYVAR
  5
897FC
102
{ACAD_REACTORS
330
897FB
102
}
330
897FB
100
DictionaryVariables
280
     0
  1
0.400000
  0
DICTIONARYVAR
  5
897FD
102
{ACAD_REACTORS
330
897FB
102
}
330
897FB
100
DictionaryVariables
280
     0
  1
0.250000
  0
DICTIONARYVAR
  5
897FF
102
{ACAD_REACTORS
330
897FB
102
}
330
897FB
100
DictionaryVariables
280
     0
  1
0
  0
XRECORD
  5
89EA2
102
{ACAD_REACTORS
330
89EA1
102
}
330
89EA1
100
AcDbXrecord
280
     1
290
     1
290
     0
  0
XRECORD
  5
8A03A
102
{ACAD_REACTORS
330
89EA1
102
}
330
89EA1
100
AcDbXrecord
280
     1
290
     0
290
     0
  0
XRECORD
  5
8A03E
102
{ACAD_REACTORS
330
89EA1
102
}
330
89EA1
100
AcDbXrecord
280
     1
290
     0
290
     0
  0
XRECORD
  5
8A2F3
102
{ACAD_REACTORS
330
89EA1
102
}
330
89EA1
100
AcDbXrecord
280
     1
290
     0
290
     0
  0
DICTIONARY
  5
8AB51
330
8AAA0
100
AcDbDictionary
280
     1
281
     1
  3
ACAD_XREC_ROUNDTRIP
360
8AB52
  0
DICTIONARY
  5
8AB11
330
741
100
AcDbDictionary
280
     1
281
     1
  3
ACAD_XREC_ROUNDTRIP
360
8AB12
  0
DICTIONARY
  5
8AB13
330
8A953
100
AcDbDictionary
280
     1
281
     1
  3
ACAD_XREC_ROUNDTRIP
360
8AB14
  0
DICTIONARY
  5
8AB4A
330
8AA92
100
AcDbDictionary
280
     1
281
     1
  3
ACAD_XREC_ROUNDTRIP
360
8AB4B
  0
DICTIONARY
  5
8AB48
330
8AA91
100
AcDbDictionary
280
     1
281
     1
  3
ACAD_XREC_ROUNDTRIP
360
8AB49
  0
DICTIONARY
  5
8AB4C
330
8AA93
100
AcDbDictionary
280
     1
281
     1
  3
ACAD_XREC_ROUNDTRIP
360
8AB4D
  0
DICTIONARY
  5
8AB4F
330
8AA9F
100
AcDbDictionary
280
     1
281
     1
  3
ACAD_XREC_ROUNDTRIP
360
8AB50
  0
DICTIONARY
  5
8AAA9
330
8AA95
100
AcDbDictionary
280
     1
281
     1
  3
ACAD_ROUNDTRIP_2008_TABLESTYLE_CELLSTYLEMAP
360
8AB0C
  3
ACAD_XREC_ROUNDTRIP
360
8AB4E
  0
DICTIONARY
  5
8AB20
330
8AA7C
100
AcDbDictionary
280
     1
281
     1
  3
ACAD_XREC_ROUNDTRIP
360
8AB21
  0
DICTIONARY
  5
8AB26
330
8AA7F
100
AcDbDictionary
280
     1
281
     1
  3
ACAD_XREC_ROUNDTRIP
360
8AB27
  0
DICTIONARY
  5
8AB2E
330
8AA83
100
AcDbDictionary
280
     1
281
     1
  3
ACAD_XREC_ROUNDTRIP
360
8AB2F
  0
DICTIONARY
  5
8AB36
330
8AA87
100
AcDbDictionary
280
     1
281
     1
  3
ACAD_XREC_ROUNDTRIP
360
8AB37
  0
DICTIONARY
  5
8AB2A
330
8AA81
100
AcDbDictionary
280
     1
281
     1
  3
ACAD_XREC_ROUNDTRIP
360
8AB2B
  0
DICTIONARY
  5
8AB2C
330
8AA82
100
AcDbDictionary
280
     1
281
     1
  3
ACAD_XREC_ROUNDTRIP
360
8AB2D
  0
DICTIONARY
  5
8AB3C
330
8AA8A
100
AcDbDictionary
280
     1
281
     1
  3
ACAD_XREC_ROUNDTRIP
360
8AB3D
  0
DICTIONARY
  5
8AB34
330
8AA86
100
AcDbDictionary
280
     1
281
     1
  3
ACAD_XREC_ROUNDTRIP
360
8AB35
  0
DICTIONARY
  5
8AB18
330
8AA78
100
AcDbDictionary
280
     1
281
     1
  3
ACAD_XREC_ROUNDTRIP
360
8AB19
  0
DICTIONARY
  5
8AB1A
330
8AA79
100
AcDbDictionary
280
     1
281
     1
  3
ACAD_XREC_ROUNDTRIP
360
8AB1B
  0
DICTIONARY
  5
8AB1C
330
8AA7A
100
AcDbDictionary
280
     1
281
     1
  3
ACAD_XREC_ROUNDTRIP
360
8AB1D
  0
DICTIONARY
  5
8AB1E
330
8AA7B
100
AcDbDictionary
280
     1
281
     1
  3
ACAD_XREC_ROUNDTRIP
360
8AB1F
  0
DICTIONARY
  5
8AB24
330
8AA7E
100
AcDbDictionary
280
     1
281
     1
  3
ACAD_XREC_ROUNDTRIP
360
8AB25
  0
DICTIONARY
  5
8AB38
330
8AA88
100
AcDbDictionary
280
     1
281
     1
  3
ACAD_XREC_ROUNDTRIP
360
8AB39
  0
DICTIONARY
  5
8AB32
330
8AA85
100
AcDbDictionary
280
     1
281
     1
  3
ACAD_XREC_ROUNDTRIP
360
8AB33
  0
DICTIONARY
  5
8AB3A
330
8AA89
100
AcDbDictionary
280
     1
281
     1
  3
ACAD_XREC_ROUNDTRIP
360
8AB3B
  0
DICTIONARY
  5
8AB28
330
8AA80
100
AcDbDictionary
280
     1
281
     1
  3
ACAD_XREC_ROUNDTRIP
360
8AB29
  0
DICTIONARY
  5
8AB46
330
8AA8F
100
AcDbDictionary
280
     1
281
     1
  3
ACAD_XREC_ROUNDTRIP
360
8AB47
  0
DICTIONARY
  5
8AB44
330
8AA8E
100
AcDbDictionary
280
     1
281
     1
  3
ACAD_XREC_ROUNDTRIP
360
8AB45
  0
DICTIONARY
  5
8AB3E
330
8AA8B
100
AcDbDictionary
280
     1
281
     1
  3
ACAD_XREC_ROUNDTRIP
360
8AB3F
  0
DICTIONARY
  5
8AB40
330
8AA8C
100
AcDbDictionary
280
     1
281
     1
  3
ACAD_XREC_ROUNDTRIP
360
8AB41
  0
DICTIONARY
  5
8AB30
330
8AA84
100
AcDbDictionary
280
     1
281
     1
  3
ACAD_XREC_ROUNDTRIP
360
8AB31
  0
DICTIONARY
  5
8AB22
330
8AA7D
100
AcDbDictionary
280
     1
281
     1
  3
ACAD_XREC_ROUNDTRIP
360
8AB23
  0
DICTIONARY
  5
8AB42
330
8AA8D
100
AcDbDictionary
280
     1
281
     1
  3
ACAD_XREC_ROUNDTRIP
360
8AB43
  0
XRECORD
  5
8AB52
102
{ACAD_REACTORS
330
8AB51
102
}
330
8AB51
100
AcDbXrecord
280
     1
102
DISPLAYNAME
  1
Imperial24
102
FLAGS
 90
        0
  0
XRECORD
  5
8AB12
102
{ACAD_REACTORS
330
8AB11
102
}
330
8AB11
100
AcDbXrecord
280
     1
102
SHADEPLOT
 70
     0
102
SHADEPLOTRESLEVEL
 70
     2
102
SHADEPLOTCUSTOMDPI
 70
   300
  0
XRECORD
  5
8AB14
102
{ACAD_REACTORS
330
8AB13
102
}
330
8AB13
100
AcDbXrecord
280
     1
102
SHADEPLOT
 70
     0
102
SHADEPLOTRESLEVEL
 70
     2
102
SHADEPLOTCUSTOMDPI
 70
   300
  0
XRECORD
  5
8AB4B
102
{ACAD_REACTORS
330
8AB4A
102
}
330
8AB4A
100
AcDbXrecord
280
     1
102
MATERIAL
148
0.0
149
0.0
149
0.0
 93
        0
 94
      127
282
     0
 72
     1
 77
     1
171
     1
175
     1
179
     1
273
     0
  0
XRECORD
  5
8AB49
102
{ACAD_REACTORS
330
8AB48
102
}
330
8AB48
100
AcDbXrecord
280
     1
102
MATERIAL
148
0.0
149
0.0
149
0.0
 93
        0
 94
      127
282
     0
 72
     1
 77
     1
171
     1
175
     1
179
     1
273
     0
  0
XRECORD
  5
8AB4D
102
{ACAD_REACTORS
330
8AB4C
102
}
330
8AB4C
100
AcDbXrecord
280
     1
102
MATERIAL
148
0.0
149
0.0
149
0.0
 93
        0
 94
      127
282
     0
 72
     1
 77
     1
171
     1
175
     1
179
     1
273
     0
  0
XRECORD
  5
8AB50
102
{ACAD_REACTORS
330
8AB4F
102
}
330
8AB4F
100
AcDbXrecord
280
     1
102
DISPLAYNAME
  1
Imperial24
102
FLAGS
 90
        0
  0
CELLSTYLEMAP
  5
8AB0C
102
{ACAD_REACTORS
330
8AAA9
102
}
330
8AAA9
100
AcDbCellStyleMap
 90
        3
300
CELLSTYLE
  1
TABLEFORMAT_BEGIN
 90
        5
170
     1
 91
        0
 92
    32768
 62
   257
 93
        1
300
CONTENTFORMAT
  1
CONTENTFORMAT_BEGIN
 90
        0
 91
        0
 92
        4
 93
        0
300

 40
0.0
140
1.0
 94
        5
 62
     0
340
F
144
0.25
309
CONTENTFORMAT_END
171
     1
301
MARGIN
  1
CELLMARGIN_BEGIN
 40
0.06
 40
0.06
 40
0.06
 40
0.06
 40
0.06
 40
0.06
309
CELLMARGIN_END
 94
        6
 95
        1
302
GRIDFORMAT
  1
GRIDFORMAT_BEGIN
 90
        0
 91
        1
 62
     0
 92
       -2
340
12
 93
        0
 40
0.045
309
GRIDFORMAT_END
 95
        2
302
GRIDFORMAT
  1
GRIDFORMAT_BEGIN
 90
        0
 91
        1
 62
     0
 92
       -2
340
12
 93
        0
 40
0.045
309
GRIDFORMAT_END
 95
        4
302
GRIDFORMAT
  1
GRIDFORMAT_BEGIN
 90
        0
 91
        1
 62
     0
 92
       -2
340
12
 93
        0
 40
0.045
309
GRIDFORMAT_END
 95
        8
302
GRIDFORMAT
  1
GRIDFORMAT_BEGIN
 90
        0
 91
        1
 62
     0
 92
       -2
340
12
 93
        0
 40
0.045
309
GRIDFORMAT_END
 95
       16
302
GRIDFORMAT
  1
GRIDFORMAT_BEGIN
 90
        0
 91
        1
 62
     0
 92
       -2
340
12
 93
        0
 40
0.045
309
GRIDFORMAT_END
 95
       32
302
GRIDFORMAT
  1
GRIDFORMAT_BEGIN
 90
        0
 91
        1
 62
     0
 92
       -2
340
12
 93
        0
 40
0.045
309
GRIDFORMAT_END
309
TABLEFORMAT_END
  1
CELLSTYLE_BEGIN
 90
        1
 91
        1
300
_TITLE
309
CELLSTYLE_END
300
CELLSTYLE
  1
TABLEFORMAT_BEGIN
 90
        5
170
     1
 91
        0
 92
        0
 62
   257
 93
        1
300
CONTENTFORMAT
  1
CONTENTFORMAT_BEGIN
 90
        0
 91
        0
 92
        4
 93
        0
300

 40
0.0
140
1.0
 94
        5
 62
     0
340
F
144
0.18
309
CONTENTFORMAT_END
171
     1
301
MARGIN
  1
CELLMARGIN_BEGIN
 40
0.06
 40
0.06
 40
0.06
 40
0.06
 40
0.06
 40
0.06
309
CELLMARGIN_END
 94
        6
 95
        1
302
GRIDFORMAT
  1
GRIDFORMAT_BEGIN
 90
        0
 91
        1
 62
     0
 92
       -2
340
12
 93
        0
 40
0.045
309
GRIDFORMAT_END
 95
        2
302
GRIDFORMAT
  1
GRIDFORMAT_BEGIN
 90
        0
 91
        1
 62
     0
 92
       -2
340
12
 93
        0
 40
0.045
309
GRIDFORMAT_END
 95
        4
302
GRIDFORMAT
  1
GRIDFORMAT_BEGIN
 90
        0
 91
        1
 62
     0
 92
       -2
340
12
 93
        0
 40
0.045
309
GRIDFORMAT_END
 95
        8
302
GRIDFORMAT
  1
GRIDFORMAT_BEGIN
 90
        0
 91
        1
 62
     0
 92
       -2
340
12
 93
        0
 40
0.045
309
GRIDFORMAT_END
 95
       16
302
GRIDFORMAT
  1
GRIDFORMAT_BEGIN
 90
        0
 91
        1
 62
     0
 92
       -2
340
12
 93
        0
 40
0.045
309
GRIDFORMAT_END
 95
       32
302
GRIDFORMAT
  1
GRIDFORMAT_BEGIN
 90
        0
 91
        1
 62
     0
 92
       -2
340
12
 93
        0
 40
0.045
309
GRIDFORMAT_END
309
TABLEFORMAT_END
  1
CELLSTYLE_BEGIN
 90
        2
 91
        1
300
_HEADER
309
CELLSTYLE_END
300
CELLSTYLE
  1
TABLEFORMAT_BEGIN
 90
        5
170
     1
 91
        0
 92
        0
 62
   257
 93
        1
300
CONTENTFORMAT
  1
CONTENTFORMAT_BEGIN
 90
        0
 91
        0
 92
        4
 93
        0
300

 40
0.0
140
1.0
 94
        2
 62
     0
340
F
144
0.18
309
CONTENTFORMAT_END
171
     1
301
MARGIN
  1
CELLMARGIN_BEGIN
 40
0.06
 40
0.06
 40
0.06
 40
0.06
 40
0.06
 40
0.06
309
CELLMARGIN_END
 94
        6
 95
        1
302
GRIDFORMAT
  1
GRIDFORMAT_BEGIN
 90
        0
 91
        1
 62
     0
 92
       -2
340
12
 93
        0
 40
0.045
309
GRIDFORMAT_END
 95
        2
302
GRIDFORMAT
  1
GRIDFORMAT_BEGIN
 90
        0
 91
        1
 62
     0
 92
       -2
340
12
 93
        0
 40
0.045
309
GRIDFORMAT_END
 95
        4
302
GRIDFORMAT
  1
GRIDFORMAT_BEGIN
 90
        0
 91
        1
 62
     0
 92
       -2
340
12
 93
        0
 40
0.045
309
GRIDFORMAT_END
 95
        8
302
GRIDFORMAT
  1
GRIDFORMAT_BEGIN
 90
        0
 91
        1
 62
     0
 92
       -2
340
12
 93
        0
 40
0.045
309
GRIDFORMAT_END
 95
       16
302
GRIDFORMAT
  1
GRIDFORMAT_BEGIN
 90
        0
 91
        1
 62
     0
 92
       -2
340
12
 93
        0
 40
0.045
309
GRIDFORMAT_END
 95
       32
302
GRIDFORMAT
  1
GRIDFORMAT_BEGIN
 90
        0
 91
        1
 62
     0
 92
       -2
340
12
 93
        0
 40
0.045
309
GRIDFORMAT_END
309
TABLEFORMAT_END
  1
CELLSTYLE_BEGIN
 90
        3
 91
        2
300
_DATA
309
CELLSTYLE_END
  0
XRECORD
  5
8AB4E
102
{ACAD_REACTORS
330
8AAA9
102
}
330
8AAA9
100
AcDbXrecord
280
     1
102
ACAD_ROUNDTRIP_PRE2007_TABLESTYLE
 90
        4
 91
        0
  1

 92
        4
 93
        0
  2

 94
        4
 95
        0
  3

  0
XRECORD
  5
8AB21
102
{ACAD_REACTORS
330
8AB20
102
}
330
8AB20
100
AcDbXrecord
280
     1
102
RTVSPost2010Prop28
280
     1
102
RTVSPost2010PropOp28
 70
     1
102
RTVSPost2010Prop29
280
     1
102
RTVSPost2010PropOp29
 70
     1
102
RTVSPost2010Prop30
280
     0
102
RTVSPost2010PropOp30
 70
     1
102
RTVSPost2010Prop31
280
     0
102
RTVSPost2010PropOp31
 70
     1
102
RTVSPost2010Prop32
280
     0
102
RTVSPost2010PropOp32
 70
     1
102
RTVSPost2010Prop33
280
     0
102
RTVSPost2010PropOp33
 70
     1
102
RTVSPost2010Prop34
280
     0
102
RTVSPost2010PropOp34
 70
     1
102
RTVSPost2010Prop35
280
     0
102
RTVSPost2010PropOp35
 70
     1
102
RTVSPost2010Prop36
280
     0
102
RTVSPost2010PropOp36
 70
     1
102
RTVSPost2010Prop37
 90
       50
102
RTVSPost2010PropOp37
 70
     1
102
RTVSPost2010Prop38
140
0.0
102
RTVSPost2010PropOp38
 70
     1
102
RTVSPost2010Prop39
140
1.0
102
RTVSPost2010PropOp39
 70
     1
102
RTVSPost2010Prop40
 90
        0
102
RTVSPost2010PropOp40
 70
     1
102
RTVSPost2010Prop41ColorIndex
 90
       18
102
RTVSPost2010Prop41ColorRGB
 90
        0
102
RTVSPost2010PropOp41
 70
     1
102
RTVSPost2010Prop42
 90
       50
102
RTVSPost2010PropOp42
 70
     1
102
RTVSPost2010Prop43
 90
        3
102
RTVSPost2010PropOp43
 70
     1
102
RTVSPost2010Prop44ColorIndex
 90
        5
102
RTVSPost2010Prop44ColorRGB
 90
      255
102
RTVSPost2010PropOp44
 70
     1
102
RTVSPost2010Prop45
280
     0
102
RTVSPost2010PropOp45
 70
     1
102
RTVSPost2010Prop46
 90
       50
102
RTVSPost2010PropOp46
 70
     1
102
RTVSPost2010Prop47
 90
       50
102
RTVSPost2010PropOp47
 70
     1
102
RTVSPost2010Prop48
 90
       50
102
RTVSPost2010PropOp48
 70
     1
102
RTVSPost2010Prop49
280
     0
102
RTVSPost2010PropOp49
 70
     1
102
RTVSPost2010Prop50
 90
       50
102
RTVSPost2010PropOp50
 70
     1
102
RTVSPost2010Prop51ColorIndex
 90
      256
102
RTVSPost2010Prop51ColorRGB
 90
-16777216
102
RTVSPost2010PropOp51
 70
     0
102
RTVSPost2010Prop52
140
1.0
102
RTVSPost2010PropOp52
 70
     0
102
RTVSPost2010Prop53
 90
        2
102
RTVSPost2010PropOp53
 70
     1
102
RTVSPost2010Prop54
  1
strokes_ogs.tif
102
RTVSPost2010PropOp54
 70
     1
102
RTVSPost2010Prop55
280
     0
102
RTVSPost2010PropOp55
 70
     1
102
RTVSPost2010Prop56
140
1.0
102
RTVSPost2010PropOp56
 70
     1
102
RTVSPost2010Prop57
140
1.0
102
RTVSPost2010PropOp57
 70
     1
102
RTVSPropertyOp0
 70
     1
102
RTVSPropertyOp1
 70
     1
102
RTVSPropertyOp2
 70
     1
102
RTVSPropertyOp3
 70
     1
102
RTVSPropertyOp4
 70
     1
102
RTVSPropertyOp5
 70
     1
102
RTVSPropertyOp6
 70
     1
102
RTVSPropertyOp7
 70
     1
102
RTVSPropertyOp8
 70
     1
102
RTVSPropertyOp9
 70
     1
102
RTVSPropertyOp10
 70
     1
102
RTVSPropertyOp11
 70
     1
102
RTVSPropertyOp12
 70
     1
102
RTVSPropertyOp13
 70
     1
102
RTVSPropertyOp14
 70
     1
102
RTVSPropertyOp15
 70
     1
102
RTVSPropertyOp16
 70
     1
102
RTVSPropertyOp17
 70
     1
102
RTVSPropertyOp18
 70
     1
102
RTVSPropertyOp19
 70
     1
102
RTVSPropertyOp20
 70
     1
102
RTVSPropertyOp21
 70
     1
102
RTVSPropertyOp22
 70
     1
102
RTVSPropertyOp23
 70
     1
102
RTVSPropertyOp24
 70
     1
102
RTVSPropertyOp25
 70
     1
102
RTVSPropertyOp26
 70
     1
102
RTVSPropertyOp27
 70
     1
102
RTVSPropertyOp28
 70
     1
102
RTVSPropertyOp29
 70
     1
102
RTVSPropertyOp30
 70
     1
102
RTVSPropertyOp31
 70
     1
102
RTVSPropertyOp32
 70
     1
102
RTVSPropertyOp33
 70
     1
102
RTVSPropertyOp34
 70
     1
102
RTVSPropertyOp35
 70
     1
102
RTVSPropertyOp36
 70
     1
102
RTVSPropertyOp37
 70
     1
102
RTVSPropertyOp38
 70
     1
102
RTVSPropertyOp39
 70
     1
102
RTVSPropertyOp40
 70
     1
102
RTVSPropertyOp41
 70
     1
102
RTVSPropertyOp42
 70
     1
102
RTVSPropertyOp43
 70
     1
102
RTVSPropertyOp44
 70
     1
102
RTVSPropertyOp45
 70
     1
102
RTVSPropertyOp46
 70
     1
102
RTVSPropertyOp47
 70
     1
102
RTVSPropertyOp48
 70
     1
102
RTVSPropertyOp49
 70
     1
102
RTVSPropertyOp50
 70
     1
102
RTVSPropertyOp51
 70
     0
102
RTVSPropertyOp52
 70
     0
102
RTVSPropertyOp53
 70
     1
102
RTVSPropertyOp54
 70
     1
102
RTVSPropertyOp55
 70
     1
102
RTVSPropertyOp56
 70
     1
102
RTVSPropertyOp57
 70
     1
102
RTVSPropertyOp58
 70
     1
102
RTVSPropertyOp59
 70
     1
102
RTVSPropertyOp60
 70
     1
102
RTVSPropertyOp61
 70
     1
102
RTVSPropertyOp62
 70
     1
  0
XRECORD
  5
8AB27
102
{ACAD_REACTORS
330
8AB26
102
}
330
8AB26
100
AcDbXrecord
280
     1
102
RTVSPost2010Prop28
280
     0
102
RTVSPost2010PropOp28
 70
     1
102
RTVSPost2010Prop29
280
     1
102
RTVSPost2010PropOp29
 70
     1
102
RTVSPost2010Prop30
280
     1
102
RTVSPost2010PropOp30
 70
     1
102
RTVSPost2010Prop31
280
     0
102
RTVSPost2010PropOp31
 70
     1
102
RTVSPost2010Prop32
280
     0
102
RTVSPost2010PropOp32
 70
     1
102
RTVSPost2010Prop33
280
     0
102
RTVSPost2010PropOp33
 70
     1
102
RTVSPost2010Prop34
280
     0
102
RTVSPost2010PropOp34
 70
     1
102
RTVSPost2010Prop35
280
     0
102
RTVSPost2010PropOp35
 70
     1
102
RTVSPost2010Prop36
280
     0
102
RTVSPost2010PropOp36
 70
     1
102
RTVSPost2010Prop37
 90
       50
102
RTVSPost2010PropOp37
 70
     1
102
RTVSPost2010Prop38
140
0.0
102
RTVSPost2010PropOp38
 70
     1
102
RTVSPost2010Prop39
140
1.0
102
RTVSPost2010PropOp39
 70
     1
102
RTVSPost2010Prop40
 90
        0
102
RTVSPost2010PropOp40
 70
     1
102
RTVSPost2010Prop41ColorIndex
 90
       18
102
RTVSPost2010Prop41ColorRGB
 90
        0
102
RTVSPost2010PropOp41
 70
     1
102
RTVSPost2010Prop42
 90
       50
102
RTVSPost2010PropOp42
 70
     1
102
RTVSPost2010Prop43
 90
        3
102
RTVSPost2010PropOp43
 70
     1
102
RTVSPost2010Prop44ColorIndex
 90
        5
102
RTVSPost2010Prop44ColorRGB
 90
      255
102
RTVSPost2010PropOp44
 70
     1
102
RTVSPost2010Prop45
280
     0
102
RTVSPost2010PropOp45
 70
     1
102
RTVSPost2010Prop46
 90
       50
102
RTVSPost2010PropOp46
 70
     1
102
RTVSPost2010Prop47
 90
       50
102
RTVSPost2010PropOp47
 70
     1
102
RTVSPost2010Prop48
 90
       50
102
RTVSPost2010PropOp48
 70
     1
102
RTVSPost2010Prop49
280
     0
102
RTVSPost2010PropOp49
 70
     1
102
RTVSPost2010Prop50
 90
       50
102
RTVSPost2010PropOp50
 70
     1
102
RTVSPost2010Prop51ColorIndex
 90
      256
102
RTVSPost2010Prop51ColorRGB
 90
-16777216
102
RTVSPost2010PropOp51
 70
     0
102
RTVSPost2010Prop52
140
1.0
102
RTVSPost2010PropOp52
 70
     0
102
RTVSPost2010Prop53
 90
        2
102
RTVSPost2010PropOp53
 70
     1
102
RTVSPost2010Prop54
  1
strokes_ogs.tif
102
RTVSPost2010PropOp54
 70
     1
102
RTVSPost2010Prop55
280
     0
102
RTVSPost2010PropOp55
 70
     1
102
RTVSPost2010Prop56
140
1.0
102
RTVSPost2010PropOp56
 70
     1
102
RTVSPost2010Prop57
140
1.0
102
RTVSPost2010PropOp57
 70
     1
102
RTVSPropertyOp0
 70
     1
102
RTVSPropertyOp1
 70
     1
102
RTVSPropertyOp2
 70
     1
102
RTVSPropertyOp3
 70
     1
102
RTVSPropertyOp4
 70
     1
102
RTVSPropertyOp5
 70
     1
102
RTVSPropertyOp6
 70
     1
102
RTVSPropertyOp7
 70
     1
102
RTVSPropertyOp8
 70
     1
102
RTVSPropertyOp9
 70
     1
102
RTVSPropertyOp10
 70
     1
102
RTVSPropertyOp11
 70
     1
102
RTVSPropertyOp12
 70
     1
102
RTVSPropertyOp13
 70
     1
102
RTVSPropertyOp14
 70
     1
102
RTVSPropertyOp15
 70
     1
102
RTVSPropertyOp16
 70
     1
102
RTVSPropertyOp17
 70
     1
102
RTVSPropertyOp18
 70
     1
102
RTVSPropertyOp19
 70
     1
102
RTVSPropertyOp20
 70
     1
102
RTVSPropertyOp21
 70
     1
102
RTVSPropertyOp22
 70
     1
102
RTVSPropertyOp23
 70
     1
102
RTVSPropertyOp24
 70
     1
102
RTVSPropertyOp25
 70
     1
102
RTVSPropertyOp26
 70
     1
102
RTVSPropertyOp27
 70
     1
102
RTVSPropertyOp28
 70
     1
102
RTVSPropertyOp29
 70
     1
102
RTVSPropertyOp30
 70
     1
102
RTVSPropertyOp31
 70
     1
102
RTVSPropertyOp32
 70
     1
102
RTVSPropertyOp33
 70
     1
102
RTVSPropertyOp34
 70
     1
102
RTVSPropertyOp35
 70
     1
102
RTVSPropertyOp36
 70
     1
102
RTVSPropertyOp37
 70
     1
102
RTVSPropertyOp38
 70
     1
102
RTVSPropertyOp39
 70
     1
102
RTVSPropertyOp40
 70
     1
102
RTVSPropertyOp41
 70
     1
102
RTVSPropertyOp42
 70
     1
102
RTVSPropertyOp43
 70
     1
102
RTVSPropertyOp44
 70
     1
102
RTVSPropertyOp45
 70
     1
102
RTVSPropertyOp46
 70
     1
102
RTVSPropertyOp47
 70
     1
102
RTVSPropertyOp48
 70
     1
102
RTVSPropertyOp49
 70
     1
102
RTVSPropertyOp50
 70
     1
102
RTVSPropertyOp51
 70
     0
102
RTVSPropertyOp52
 70
     0
102
RTVSPropertyOp53
 70
     1
102
RTVSPropertyOp54
 70
     1
102
RTVSPropertyOp55
 70
     1
102
RTVSPropertyOp56
 70
     1
102
RTVSPropertyOp57
 70
     1
102
RTVSPropertyOp58
 70
     1
102
RTVSPropertyOp59
 70
     1
102
RTVSPropertyOp60
 70
     1
102
RTVSPropertyOp61
 70
     1
102
RTVSPropertyOp62
 70
     1
  0
XRECORD
  5
8AB2F
102
{ACAD_REACTORS
330
8AB2E
102
}
330
8AB2E
100
AcDbXrecord
280
     1
102
RTVSPost2010Prop28
280
     0
102
RTVSPost2010PropOp28
 70
     1
102
RTVSPost2010Prop29
280
     1
102
RTVSPost2010PropOp29
 70
     1
102
RTVSPost2010Prop30
280
     1
102
RTVSPost2010PropOp30
 70
     1
102
RTVSPost2010Prop31
280
     0
102
RTVSPost2010PropOp31
 70
     1
102
RTVSPost2010Prop32
280
     0
102
RTVSPost2010PropOp32
 70
     1
102
RTVSPost2010Prop33
280
     0
102
RTVSPost2010PropOp33
 70
     1
102
RTVSPost2010Prop34
280
     0
102
RTVSPost2010PropOp34
 70
     1
102
RTVSPost2010Prop35
280
     0
102
RTVSPost2010PropOp35
 70
     1
102
RTVSPost2010Prop36
280
     0
102
RTVSPost2010PropOp36
 70
     1
102
RTVSPost2010Prop37
 90
       50
102
RTVSPost2010PropOp37
 70
     1
102
RTVSPost2010Prop38
140
0.0
102
RTVSPost2010PropOp38
 70
     1
102
RTVSPost2010Prop39
140
1.0
102
RTVSPost2010PropOp39
 70
     1
102
RTVSPost2010Prop40
 90
        0
102
RTVSPost2010PropOp40
 70
     1
102
RTVSPost2010Prop41ColorIndex
 90
       18
102
RTVSPost2010Prop41ColorRGB
 90
        0
102
RTVSPost2010PropOp41
 70
     1
102
RTVSPost2010Prop42
 90
       50
102
RTVSPost2010PropOp42
 70
     1
102
RTVSPost2010Prop43
 90
        3
102
RTVSPost2010PropOp43
 70
     1
102
RTVSPost2010Prop44ColorIndex
 90
        5
102
RTVSPost2010Prop44ColorRGB
 90
      255
102
RTVSPost2010PropOp44
 70
     1
102
RTVSPost2010Prop45
280
     0
102
RTVSPost2010PropOp45
 70
     1
102
RTVSPost2010Prop46
 90
       50
102
RTVSPost2010PropOp46
 70
     1
102
RTVSPost2010Prop47
 90
       50
102
RTVSPost2010PropOp47
 70
     1
102
RTVSPost2010Prop48
 90
       50
102
RTVSPost2010PropOp48
 70
     1
102
RTVSPost2010Prop49
280
     0
102
RTVSPost2010PropOp49
 70
     1
102
RTVSPost2010Prop50
 90
       50
102
RTVSPost2010PropOp50
 70
     1
102
RTVSPost2010Prop51ColorIndex
 90
      256
102
RTVSPost2010Prop51ColorRGB
 90
-16777216
102
RTVSPost2010PropOp51
 70
     0
102
RTVSPost2010Prop52
140
1.0
102
RTVSPost2010PropOp52
 70
     0
102
RTVSPost2010Prop53
 90
        2
102
RTVSPost2010PropOp53
 70
     1
102
RTVSPost2010Prop54
  1
strokes_ogs.tif
102
RTVSPost2010PropOp54
 70
     1
102
RTVSPost2010Prop55
280
     0
102
RTVSPost2010PropOp55
 70
     1
102
RTVSPost2010Prop56
140
1.0
102
RTVSPost2010PropOp56
 70
     1
102
RTVSPost2010Prop57
140
1.0
102
RTVSPost2010PropOp57
 70
     1
102
RTVSPropertyOp0
 70
     1
102
RTVSPropertyOp1
 70
     1
102
RTVSPropertyOp2
 70
     1
102
RTVSPropertyOp3
 70
     1
102
RTVSPropertyOp4
 70
     1
102
RTVSPropertyOp5
 70
     1
102
RTVSPropertyOp6
 70
     1
102
RTVSPropertyOp7
 70
     1
102
RTVSPropertyOp8
 70
     1
102
RTVSPropertyOp9
 70
     1
102
RTVSPropertyOp10
 70
     1
102
RTVSPropertyOp11
 70
     1
102
RTVSPropertyOp12
 70
     1
102
RTVSPropertyOp13
 70
     1
102
RTVSPropertyOp14
 70
     1
102
RTVSPropertyOp15
 70
     1
102
RTVSPropertyOp16
 70
     1
102
RTVSPropertyOp17
 70
     1
102
RTVSPropertyOp18
 70
     1
102
RTVSPropertyOp19
 70
     1
102
RTVSPropertyOp20
 70
     1
102
RTVSPropertyOp21
 70
     1
102
RTVSPropertyOp22
 70
     1
102
RTVSPropertyOp23
 70
     1
102
RTVSPropertyOp24
 70
     1
102
RTVSPropertyOp25
 70
     1
102
RTVSPropertyOp26
 70
     1
102
RTVSPropertyOp27
 70
     1
102
RTVSPropertyOp28
 70
     1
102
RTVSPropertyOp29
 70
     1
102
RTVSPropertyOp30
 70
     1
102
RTVSPropertyOp31
 70
     1
102
RTVSPropertyOp32
 70
     1
102
RTVSPropertyOp33
 70
     1
102
RTVSPropertyOp34
 70
     1
102
RTVSPropertyOp35
 70
     1
102
RTVSPropertyOp36
 70
     1
102
RTVSPropertyOp37
 70
     1
102
RTVSPropertyOp38
 70
     1
102
RTVSPropertyOp39
 70
     1
102
RTVSPropertyOp40
 70
     1
102
RTVSPropertyOp41
 70
     1
102
RTVSPropertyOp42
 70
     1
102
RTVSPropertyOp43
 70
     1
102
RTVSPropertyOp44
 70
     1
102
RTVSPropertyOp45
 70
     1
102
RTVSPropertyOp46
 70
     1
102
RTVSPropertyOp47
 70
     1
102
RTVSPropertyOp48
 70
     1
102
RTVSPropertyOp49
 70
     1
102
RTVSPropertyOp50
 70
     1
102
RTVSPropertyOp51
 70
     0
102
RTVSPropertyOp52
 70
     0
102
RTVSPropertyOp53
 70
     1
102
RTVSPropertyOp54
 70
     1
102
RTVSPropertyOp55
 70
     1
102
RTVSPropertyOp56
 70
     1
102
RTVSPropertyOp57
 70
     1
102
RTVSPropertyOp58
 70
     1
102
RTVSPropertyOp59
 70
     1
102
RTVSPropertyOp60
 70
     1
102
RTVSPropertyOp61
 70
     1
102
RTVSPropertyOp62
 70
     1
  0
XRECORD
  5
8AB37
102
{ACAD_REACTORS
330
8AB36
102
}
330
8AB36
100
AcDbXrecord
280
     1
102
RTVSPost2010Prop28
280
     0
102
RTVSPost2010PropOp28
 70
     1
102
RTVSPost2010Prop29
280
     1
102
RTVSPost2010PropOp29
 70
     1
102
RTVSPost2010Prop30
280
     1
102
RTVSPost2010PropOp30
 70
     1
102
RTVSPost2010Prop31
280
     0
102
RTVSPost2010PropOp31
 70
     1
102
RTVSPost2010Prop32
280
     0
102
RTVSPost2010PropOp32
 70
     1
102
RTVSPost2010Prop33
280
     0
102
RTVSPost2010PropOp33
 70
     1
102
RTVSPost2010Prop34
280
     0
102
RTVSPost2010PropOp34
 70
     1
102
RTVSPost2010Prop35
280
     0
102
RTVSPost2010PropOp35
 70
     1
102
RTVSPost2010Prop36
280
     0
102
RTVSPost2010PropOp36
 70
     1
102
RTVSPost2010Prop37
 90
       50
102
RTVSPost2010PropOp37
 70
     1
102
RTVSPost2010Prop38
140
0.0
102
RTVSPost2010PropOp38
 70
     1
102
RTVSPost2010Prop39
140
1.0
102
RTVSPost2010PropOp39
 70
     1
102
RTVSPost2010Prop40
 90
        0
102
RTVSPost2010PropOp40
 70
     1
102
RTVSPost2010Prop41ColorIndex
 90
       18
102
RTVSPost2010Prop41ColorRGB
 90
        0
102
RTVSPost2010PropOp41
 70
     1
102
RTVSPost2010Prop42
 90
       50
102
RTVSPost2010PropOp42
 70
     1
102
RTVSPost2010Prop43
 90
        3
102
RTVSPost2010PropOp43
 70
     1
102
RTVSPost2010Prop44ColorIndex
 90
        5
102
RTVSPost2010Prop44ColorRGB
 90
      255
102
RTVSPost2010PropOp44
 70
     1
102
RTVSPost2010Prop45
280
     0
102
RTVSPost2010PropOp45
 70
     1
102
RTVSPost2010Prop46
 90
       50
102
RTVSPost2010PropOp46
 70
     1
102
RTVSPost2010Prop47
 90
       50
102
RTVSPost2010PropOp47
 70
     1
102
RTVSPost2010Prop48
 90
       50
102
RTVSPost2010PropOp48
 70
     1
102
RTVSPost2010Prop49
280
     0
102
RTVSPost2010PropOp49
 70
     1
102
RTVSPost2010Prop50
 90
       50
102
RTVSPost2010PropOp50
 70
     1
102
RTVSPost2010Prop51ColorIndex
 90
      256
102
RTVSPost2010Prop51ColorRGB
 90
-16777216
102
RTVSPost2010PropOp51
 70
     0
102
RTVSPost2010Prop52
140
1.0
102
RTVSPost2010PropOp52
 70
     0
102
RTVSPost2010Prop53
 90
        2
102
RTVSPost2010PropOp53
 70
     1
102
RTVSPost2010Prop54
  1
strokes_ogs.tif
102
RTVSPost2010PropOp54
 70
     1
102
RTVSPost2010Prop55
280
     0
102
RTVSPost2010PropOp55
 70
     1
102
RTVSPost2010Prop56
140
1.0
102
RTVSPost2010PropOp56
 70
     1
102
RTVSPost2010Prop57
140
1.0
102
RTVSPost2010PropOp57
 70
     1
102
RTVSPropertyOp0
 70
     1
102
RTVSPropertyOp1
 70
     1
102
RTVSPropertyOp2
 70
     1
102
RTVSPropertyOp3
 70
     1
102
RTVSPropertyOp4
 70
     1
102
RTVSPropertyOp5
 70
     1
102
RTVSPropertyOp6
 70
     1
102
RTVSPropertyOp7
 70
     1
102
RTVSPropertyOp8
 70
     1
102
RTVSPropertyOp9
 70
     1
102
RTVSPropertyOp10
 70
     1
102
RTVSPropertyOp11
 70
     1
102
RTVSPropertyOp12
 70
     1
102
RTVSPropertyOp13
 70
     1
102
RTVSPropertyOp14
 70
     1
102
RTVSPropertyOp15
 70
     1
102
RTVSPropertyOp16
 70
     1
102
RTVSPropertyOp17
 70
     1
102
RTVSPropertyOp18
 70
     1
102
RTVSPropertyOp19
 70
     1
102
RTVSPropertyOp20
 70
     1
102
RTVSPropertyOp21
 70
     1
102
RTVSPropertyOp22
 70
     1
102
RTVSPropertyOp23
 70
     1
102
RTVSPropertyOp24
 70
     1
102
RTVSPropertyOp25
 70
     1
102
RTVSPropertyOp26
 70
     1
102
RTVSPropertyOp27
 70
     1
102
RTVSPropertyOp28
 70
     1
102
RTVSPropertyOp29
 70
     1
102
RTVSPropertyOp30
 70
     1
102
RTVSPropertyOp31
 70
     1
102
RTVSPropertyOp32
 70
     1
102
RTVSPropertyOp33
 70
     1
102
RTVSPropertyOp34
 70
     1
102
RTVSPropertyOp35
 70
     1
102
RTVSPropertyOp36
 70
     1
102
RTVSPropertyOp37
 70
     1
102
RTVSPropertyOp38
 70
     1
102
RTVSPropertyOp39
 70
     1
102
RTVSPropertyOp40
 70
     1
102
RTVSPropertyOp41
 70
     1
102
RTVSPropertyOp42
 70
     1
102
RTVSPropertyOp43
 70
     1
102
RTVSPropertyOp44
 70
     1
102
RTVSPropertyOp45
 70
     1
102
RTVSPropertyOp46
 70
     1
102
RTVSPropertyOp47
 70
     1
102
RTVSPropertyOp48
 70
     1
102
RTVSPropertyOp49
 70
     1
102
RTVSPropertyOp50
 70
     1
102
RTVSPropertyOp51
 70
     0
102
RTVSPropertyOp52
 70
     0
102
RTVSPropertyOp53
 70
     1
102
RTVSPropertyOp54
 70
     1
102
RTVSPropertyOp55
 70
     1
102
RTVSPropertyOp56
 70
     1
102
RTVSPropertyOp57
 70
     1
102
RTVSPropertyOp58
 70
     1
102
RTVSPropertyOp59
 70
     1
102
RTVSPropertyOp60
 70
     1
102
RTVSPropertyOp61
 70
     1
102
RTVSPropertyOp62
 70
     1
  0
XRECORD
  5
8AB2B
102
{ACAD_REACTORS
330
8AB2A
102
}
330
8AB2A
100
AcDbXrecord
280
     1
102
RTVSPost2010Prop28
280
     0
102
RTVSPost2010PropOp28
 70
     1
102
RTVSPost2010Prop29
280
     1
102
RTVSPost2010PropOp29
 70
     1
102
RTVSPost2010Prop30
280
     1
102
RTVSPost2010PropOp30
 70
     1
102
RTVSPost2010Prop31
280
     0
102
RTVSPost2010PropOp31
 70
     1
102
RTVSPost2010Prop32
280
     0
102
RTVSPost2010PropOp32
 70
     1
102
RTVSPost2010Prop33
280
     0
102
RTVSPost2010PropOp33
 70
     1
102
RTVSPost2010Prop34
280
     0
102
RTVSPost2010PropOp34
 70
     1
102
RTVSPost2010Prop35
280
     0
102
RTVSPost2010PropOp35
 70
     1
102
RTVSPost2010Prop36
280
     0
102
RTVSPost2010PropOp36
 70
     1
102
RTVSPost2010Prop37
 90
       50
102
RTVSPost2010PropOp37
 70
     1
102
RTVSPost2010Prop38
140
0.0
102
RTVSPost2010PropOp38
 70
     1
102
RTVSPost2010Prop39
140
1.0
102
RTVSPost2010PropOp39
 70
     1
102
RTVSPost2010Prop40
 90
        0
102
RTVSPost2010PropOp40
 70
     1
102
RTVSPost2010Prop41ColorIndex
 90
       18
102
RTVSPost2010Prop41ColorRGB
 90
        0
102
RTVSPost2010PropOp41
 70
     1
102
RTVSPost2010Prop42
 90
       50
102
RTVSPost2010PropOp42
 70
     1
102
RTVSPost2010Prop43
 90
        3
102
RTVSPost2010PropOp43
 70
     1
102
RTVSPost2010Prop44ColorIndex
 90
        5
102
RTVSPost2010Prop44ColorRGB
 90
      255
102
RTVSPost2010PropOp44
 70
     1
102
RTVSPost2010Prop45
280
     0
102
RTVSPost2010PropOp45
 70
     1
102
RTVSPost2010Prop46
 90
       50
102
RTVSPost2010PropOp46
 70
     1
102
RTVSPost2010Prop47
 90
       50
102
RTVSPost2010PropOp47
 70
     1
102
RTVSPost2010Prop48
 90
       50
102
RTVSPost2010PropOp48
 70
     1
102
RTVSPost2010Prop49
280
     0
102
RTVSPost2010PropOp49
 70
     1
102
RTVSPost2010Prop50
 90
       50
102
RTVSPost2010PropOp50
 70
     1
102
RTVSPost2010Prop51ColorIndex
 90
      256
102
RTVSPost2010Prop51ColorRGB
 90
-16777216
102
RTVSPost2010PropOp51
 70
     0
102
RTVSPost2010Prop52
140
1.0
102
RTVSPost2010PropOp52
 70
     0
102
RTVSPost2010Prop53
 90
        2
102
RTVSPost2010PropOp53
 70
     1
102
RTVSPost2010Prop54
  1
strokes_ogs.tif
102
RTVSPost2010PropOp54
 70
     1
102
RTVSPost2010Prop55
280
     0
102
RTVSPost2010PropOp55
 70
     1
102
RTVSPost2010Prop56
140
1.0
102
RTVSPost2010PropOp56
 70
     1
102
RTVSPost2010Prop57
140
1.0
102
RTVSPost2010PropOp57
 70
     1
102
RTVSPropertyOp0
 70
     1
102
RTVSPropertyOp1
 70
     1
102
RTVSPropertyOp2
 70
     1
102
RTVSPropertyOp3
 70
     1
102
RTVSPropertyOp4
 70
     1
102
RTVSPropertyOp5
 70
     1
102
RTVSPropertyOp6
 70
     1
102
RTVSPropertyOp7
 70
     1
102
RTVSPropertyOp8
 70
     1
102
RTVSPropertyOp9
 70
     1
102
RTVSPropertyOp10
 70
     1
102
RTVSPropertyOp11
 70
     1
102
RTVSPropertyOp12
 70
     1
102
RTVSPropertyOp13
 70
     1
102
RTVSPropertyOp14
 70
     1
102
RTVSPropertyOp15
 70
     1
102
RTVSPropertyOp16
 70
     1
102
RTVSPropertyOp17
 70
     1
102
RTVSPropertyOp18
 70
     1
102
RTVSPropertyOp19
 70
     1
102
RTVSPropertyOp20
 70
     1
102
RTVSPropertyOp21
 70
     1
102
RTVSPropertyOp22
 70
     1
102
RTVSPropertyOp23
 70
     1
102
RTVSPropertyOp24
 70
     1
102
RTVSPropertyOp25
 70
     1
102
RTVSPropertyOp26
 70
     1
102
RTVSPropertyOp27
 70
     1
102
RTVSPropertyOp28
 70
     1
102
RTVSPropertyOp29
 70
     1
102
RTVSPropertyOp30
 70
     1
102
RTVSPropertyOp31
 70
     1
102
RTVSPropertyOp32
 70
     1
102
RTVSPropertyOp33
 70
     1
102
RTVSPropertyOp34
 70
     1
102
RTVSPropertyOp35
 70
     1
102
RTVSPropertyOp36
 70
     1
102
RTVSPropertyOp37
 70
     1
102
RTVSPropertyOp38
 70
     1
102
RTVSPropertyOp39
 70
     1
102
RTVSPropertyOp40
 70
     1
102
RTVSPropertyOp41
 70
     1
102
RTVSPropertyOp42
 70
     1
102
RTVSPropertyOp43
 70
     1
102
RTVSPropertyOp44
 70
     1
102
RTVSPropertyOp45
 70
     1
102
RTVSPropertyOp46
 70
     1
102
RTVSPropertyOp47
 70
     1
102
RTVSPropertyOp48
 70
     1
102
RTVSPropertyOp49
 70
     1
102
RTVSPropertyOp50
 70
     1
102
RTVSPropertyOp51
 70
     0
102
RTVSPropertyOp52
 70
     0
102
RTVSPropertyOp53
 70
     1
102
RTVSPropertyOp54
 70
     1
102
RTVSPropertyOp55
 70
     1
102
RTVSPropertyOp56
 70
     1
102
RTVSPropertyOp57
 70
     1
102
RTVSPropertyOp58
 70
     1
102
RTVSPropertyOp59
 70
     1
102
RTVSPropertyOp60
 70
     1
102
RTVSPropertyOp61
 70
     1
102
RTVSPropertyOp62
 70
     1
  0
XRECORD
  5
8AB2D
102
{ACAD_REACTORS
330
8AB2C
102
}
330
8AB2C
100
AcDbXrecord
280
     1
102
RTVSPost2010Prop28
280
     0
102
RTVSPost2010PropOp28
 70
     1
102
RTVSPost2010Prop29
280
     1
102
RTVSPost2010PropOp29
 70
     1
102
RTVSPost2010Prop30
280
     1
102
RTVSPost2010PropOp30
 70
     1
102
RTVSPost2010Prop31
280
     0
102
RTVSPost2010PropOp31
 70
     1
102
RTVSPost2010Prop32
280
     0
102
RTVSPost2010PropOp32
 70
     1
102
RTVSPost2010Prop33
280
     0
102
RTVSPost2010PropOp33
 70
     1
102
RTVSPost2010Prop34
280
     0
102
RTVSPost2010PropOp34
 70
     1
102
RTVSPost2010Prop35
280
     0
102
RTVSPost2010PropOp35
 70
     1
102
RTVSPost2010Prop36
280
     0
102
RTVSPost2010PropOp36
 70
     1
102
RTVSPost2010Prop37
 90
       50
102
RTVSPost2010PropOp37
 70
     1
102
RTVSPost2010Prop38
140
0.0
102
RTVSPost2010PropOp38
 70
     1
102
RTVSPost2010Prop39
140
1.0
102
RTVSPost2010PropOp39
 70
     1
102
RTVSPost2010Prop40
 90
        0
102
RTVSPost2010PropOp40
 70
     1
102
RTVSPost2010Prop41ColorIndex
 90
       18
102
RTVSPost2010Prop41ColorRGB
 90
        0
102
RTVSPost2010PropOp41
 70
     1
102
RTVSPost2010Prop42
 90
       50
102
RTVSPost2010PropOp42
 70
     1
102
RTVSPost2010Prop43
 90
        3
102
RTVSPost2010PropOp43
 70
     1
102
RTVSPost2010Prop44ColorIndex
 90
        5
102
RTVSPost2010Prop44ColorRGB
 90
      255
102
RTVSPost2010PropOp44
 70
     1
102
RTVSPost2010Prop45
280
     0
102
RTVSPost2010PropOp45
 70
     1
102
RTVSPost2010Prop46
 90
       50
102
RTVSPost2010PropOp46
 70
     1
102
RTVSPost2010Prop47
 90
       50
102
RTVSPost2010PropOp47
 70
     1
102
RTVSPost2010Prop48
 90
       50
102
RTVSPost2010PropOp48
 70
     1
102
RTVSPost2010Prop49
280
     0
102
RTVSPost2010PropOp49
 70
     1
102
RTVSPost2010Prop50
 90
       50
102
RTVSPost2010PropOp50
 70
     1
102
RTVSPost2010Prop51ColorIndex
 90
      256
102
RTVSPost2010Prop51ColorRGB
 90
-16777216
102
RTVSPost2010PropOp51
 70
     0
102
RTVSPost2010Prop52
140
1.0
102
RTVSPost2010PropOp52
 70
     0
102
RTVSPost2010Prop53
 90
        2
102
RTVSPost2010PropOp53
 70
     1
102
RTVSPost2010Prop54
  1
strokes_ogs.tif
102
RTVSPost2010PropOp54
 70
     1
102
RTVSPost2010Prop55
280
     0
102
RTVSPost2010PropOp55
 70
     1
102
RTVSPost2010Prop56
140
1.0
102
RTVSPost2010PropOp56
 70
     1
102
RTVSPost2010Prop57
140
1.0
102
RTVSPost2010PropOp57
 70
     1
102
RTVSPropertyOp0
 70
     1
102
RTVSPropertyOp1
 70
     1
102
RTVSPropertyOp2
 70
     1
102
RTVSPropertyOp3
 70
     1
102
RTVSPropertyOp4
 70
     1
102
RTVSPropertyOp5
 70
     1
102
RTVSPropertyOp6
 70
     1
102
RTVSPropertyOp7
 70
     1
102
RTVSPropertyOp8
 70
     1
102
RTVSPropertyOp9
 70
     1
102
RTVSPropertyOp10
 70
     1
102
RTVSPropertyOp11
 70
     1
102
RTVSPropertyOp12
 70
     1
102
RTVSPropertyOp13
 70
     1
102
RTVSPropertyOp14
 70
     1
102
RTVSPropertyOp15
 70
     1
102
RTVSPropertyOp16
 70
     1
102
RTVSPropertyOp17
 70
     1
102
RTVSPropertyOp18
 70
     1
102
RTVSPropertyOp19
 70
     1
102
RTVSPropertyOp20
 70
     1
102
RTVSPropertyOp21
 70
     1
102
RTVSPropertyOp22
 70
     1
102
RTVSPropertyOp23
 70
     1
102
RTVSPropertyOp24
 70
     1
102
RTVSPropertyOp25
 70
     1
102
RTVSPropertyOp26
 70
     1
102
RTVSPropertyOp27
 70
     1
102
RTVSPropertyOp28
 70
     1
102
RTVSPropertyOp29
 70
     1
102
RTVSPropertyOp30
 70
     1
102
RTVSPropertyOp31
 70
     1
102
RTVSPropertyOp32
 70
     1
102
RTVSPropertyOp33
 70
     1
102
RTVSPropertyOp34
 70
     1
102
RTVSPropertyOp35
 70
     1
102
RTVSPropertyOp36
 70
     1
102
RTVSPropertyOp37
 70
     1
102
RTVSPropertyOp38
 70
     1
102
RTVSPropertyOp39
 70
     1
102
RTVSPropertyOp40
 70
     1
102
RTVSPropertyOp41
 70
     1
102
RTVSPropertyOp42
 70
     1
102
RTVSPropertyOp43
 70
     1
102
RTVSPropertyOp44
 70
     1
102
RTVSPropertyOp45
 70
     1
102
RTVSPropertyOp46
 70
     1
102
RTVSPropertyOp47
 70
     1
102
RTVSPropertyOp48
 70
     1
102
RTVSPropertyOp49
 70
     1
102
RTVSPropertyOp50
 70
     1
102
RTVSPropertyOp51
 70
     0
102
RTVSPropertyOp52
 70
     0
102
RTVSPropertyOp53
 70
     1
102
RTVSPropertyOp54
 70
     1
102
RTVSPropertyOp55
 70
     1
102
RTVSPropertyOp56
 70
     1
102
RTVSPropertyOp57
 70
     1
102
RTVSPropertyOp58
 70
     1
102
RTVSPropertyOp59
 70
     1
102
RTVSPropertyOp60
 70
     1
102
RTVSPropertyOp61
 70
     1
102
RTVSPropertyOp62
 70
     1
  0
XRECORD
  5
8AB3D
102
{ACAD_REACTORS
330
8AB3C
102
}
330
8AB3C
100
AcDbXrecord
280
     1
102
RTVSPost2010Prop28
280
     0
102
RTVSPost2010PropOp28
 70
     0
102
RTVSPost2010Prop29
280
     1
102
RTVSPost2010PropOp29
 70
     0
102
RTVSPost2010Prop30
280
     1
102
RTVSPost2010PropOp30
 70
     0
102
RTVSPost2010Prop31
280
     0
102
RTVSPost2010PropOp31
 70
     0
102
RTVSPost2010Prop32
280
     0
102
RTVSPost2010PropOp32
 70
     0
102
RTVSPost2010Prop33
280
     0
102
RTVSPost2010PropOp33
 70
     0
102
RTVSPost2010Prop34
280
     0
102
RTVSPost2010PropOp34
 70
     0
102
RTVSPost2010Prop35
280
     0
102
RTVSPost2010PropOp35
 70
     0
102
RTVSPost2010Prop36
280
     0
102
RTVSPost2010PropOp36
 70
     0
102
RTVSPost2010Prop37
 90
       50
102
RTVSPost2010PropOp37
 70
     0
102
RTVSPost2010Prop38
140
0.0
102
RTVSPost2010PropOp38
 70
     0
102
RTVSPost2010Prop39
140
1.0
102
RTVSPost2010PropOp39
 70
     0
102
RTVSPost2010Prop40
 90
        0
102
RTVSPost2010PropOp40
 70
     0
102
RTVSPost2010Prop41ColorIndex
 90
       18
102
RTVSPost2010Prop41ColorRGB
 90
        0
102
RTVSPost2010PropOp41
 70
     0
102
RTVSPost2010Prop42
 90
       50
102
RTVSPost2010PropOp42
 70
     0
102
RTVSPost2010Prop43
 90
        3
102
RTVSPost2010PropOp43
 70
     0
102
RTVSPost2010Prop44ColorIndex
 90
        5
102
RTVSPost2010Prop44ColorRGB
 90
      255
102
RTVSPost2010PropOp44
 70
     0
102
RTVSPost2010Prop45
280
     0
102
RTVSPost2010PropOp45
 70
     0
102
RTVSPost2010Prop46
 90
       50
102
RTVSPost2010PropOp46
 70
     0
102
RTVSPost2010Prop47
 90
       50
102
RTVSPost2010PropOp47
 70
     0
102
RTVSPost2010Prop48
 90
       50
102
RTVSPost2010PropOp48
 70
     0
102
RTVSPost2010Prop49
280
     0
102
RTVSPost2010PropOp49
 70
     0
102
RTVSPost2010Prop50
 90
       50
102
RTVSPost2010PropOp50
 70
     0
102
RTVSPost2010Prop51ColorIndex
 90
      256
102
RTVSPost2010Prop51ColorRGB
 90
-16777216
102
RTVSPost2010PropOp51
 70
     0
102
RTVSPost2010Prop52
140
1.0
102
RTVSPost2010PropOp52
 70
     0
102
RTVSPost2010Prop53
 90
        2
102
RTVSPost2010PropOp53
 70
     0
102
RTVSPost2010Prop54
  1
strokes_ogs.tif
102
RTVSPost2010PropOp54
 70
     0
102
RTVSPost2010Prop55
280
     0
102
RTVSPost2010PropOp55
 70
     0
102
RTVSPost2010Prop56
140
1.0
102
RTVSPost2010PropOp56
 70
     0
102
RTVSPost2010Prop57
140
1.0
102
RTVSPost2010PropOp57
 70
     0
102
RTVSPropertyOp0
 70
     0
102
RTVSPropertyOp1
 70
     0
102
RTVSPropertyOp2
 70
     0
102
RTVSPropertyOp3
 70
     0
102
RTVSPropertyOp4
 70
     0
102
RTVSPropertyOp5
 70
     0
102
RTVSPropertyOp6
 70
     0
102
RTVSPropertyOp7
 70
     0
102
RTVSPropertyOp8
 70
     0
102
RTVSPropertyOp9
 70
     0
102
RTVSPropertyOp10
 70
     0
102
RTVSPropertyOp11
 70
     0
102
RTVSPropertyOp12
 70
     0
102
RTVSPropertyOp13
 70
     0
102
RTVSPropertyOp14
 70
     2
102
RTVSPropertyOp15
 70
     0
102
RTVSPropertyOp16
 70
     0
102
RTVSPropertyOp17
 70
     0
102
RTVSPropertyOp18
 70
     0
102
RTVSPropertyOp19
 70
     0
102
RTVSPropertyOp20
 70
     0
102
RTVSPropertyOp21
 70
     0
102
RTVSPropertyOp22
 70
     0
102
RTVSPropertyOp23
 70
     0
102
RTVSPropertyOp24
 70
     0
102
RTVSPropertyOp25
 70
     0
102
RTVSPropertyOp26
 70
     0
102
RTVSPropertyOp27
 70
     0
102
RTVSPropertyOp28
 70
     0
102
RTVSPropertyOp29
 70
     0
102
RTVSPropertyOp30
 70
     0
102
RTVSPropertyOp31
 70
     0
102
RTVSPropertyOp32
 70
     0
102
RTVSPropertyOp33
 70
     0
102
RTVSPropertyOp34
 70
     0
102
RTVSPropertyOp35
 70
     0
102
RTVSPropertyOp36
 70
     0
102
RTVSPropertyOp37
 70
     0
102
RTVSPropertyOp38
 70
     0
102
RTVSPropertyOp39
 70
     0
102
RTVSPropertyOp40
 70
     0
102
RTVSPropertyOp41
 70
     0
102
RTVSPropertyOp42
 70
     0
102
RTVSPropertyOp43
 70
     0
102
RTVSPropertyOp44
 70
     0
102
RTVSPropertyOp45
 70
     0
102
RTVSPropertyOp46
 70
     0
102
RTVSPropertyOp47
 70
     0
102
RTVSPropertyOp48
 70
     0
102
RTVSPropertyOp49
 70
     0
102
RTVSPropertyOp50
 70
     0
102
RTVSPropertyOp51
 70
     0
102
RTVSPropertyOp52
 70
     0
102
RTVSPropertyOp53
 70
     0
102
RTVSPropertyOp54
 70
     0
102
RTVSPropertyOp55
 70
     0
102
RTVSPropertyOp56
 70
     0
102
RTVSPropertyOp57
 70
     0
102
RTVSPropertyOp58
 70
     1
102
RTVSPropertyOp59
 70
     1
102
RTVSPropertyOp60
 70
     1
102
RTVSPropertyOp61
 70
     1
102
RTVSPropertyOp62
 70
     1
  0
XRECORD
  5
8AB35
102
{ACAD_REACTORS
330
8AB34
102
}
330
8AB34
100
AcDbXrecord
280
     1
102
RTVSPost2010Prop28
280
     0
102
RTVSPost2010PropOp28
 70
     1
102
RTVSPost2010Prop29
280
     1
102
RTVSPost2010PropOp29
 70
     1
102
RTVSPost2010Prop30
280
     1
102
RTVSPost2010PropOp30
 70
     1
102
RTVSPost2010Prop31
280
     0
102
RTVSPost2010PropOp31
 70
     1
102
RTVSPost2010Prop32
280
     0
102
RTVSPost2010PropOp32
 70
     1
102
RTVSPost2010Prop33
280
     0
102
RTVSPost2010PropOp33
 70
     1
102
RTVSPost2010Prop34
280
     0
102
RTVSPost2010PropOp34
 70
     1
102
RTVSPost2010Prop35
280
     0
102
RTVSPost2010PropOp35
 70
     1
102
RTVSPost2010Prop36
280
     0
102
RTVSPost2010PropOp36
 70
     1
102
RTVSPost2010Prop37
 90
       50
102
RTVSPost2010PropOp37
 70
     1
102
RTVSPost2010Prop38
140
0.0
102
RTVSPost2010PropOp38
 70
     1
102
RTVSPost2010Prop39
140
1.0
102
RTVSPost2010PropOp39
 70
     1
102
RTVSPost2010Prop40
 90
        0
102
RTVSPost2010PropOp40
 70
     1
102
RTVSPost2010Prop41ColorIndex
 90
       18
102
RTVSPost2010Prop41ColorRGB
 90
        0
102
RTVSPost2010PropOp41
 70
     1
102
RTVSPost2010Prop42
 90
       50
102
RTVSPost2010PropOp42
 70
     1
102
RTVSPost2010Prop43
 90
        3
102
RTVSPost2010PropOp43
 70
     1
102
RTVSPost2010Prop44ColorIndex
 90
        5
102
RTVSPost2010Prop44ColorRGB
 90
      255
102
RTVSPost2010PropOp44
 70
     1
102
RTVSPost2010Prop45
280
     0
102
RTVSPost2010PropOp45
 70
     1
102
RTVSPost2010Prop46
 90
       50
102
RTVSPost2010PropOp46
 70
     1
102
RTVSPost2010Prop47
 90
       50
102
RTVSPost2010PropOp47
 70
     1
102
RTVSPost2010Prop48
 90
       50
102
RTVSPost2010PropOp48
 70
     1
102
RTVSPost2010Prop49
280
     0
102
RTVSPost2010PropOp49
 70
     1
102
RTVSPost2010Prop50
 90
       50
102
RTVSPost2010PropOp50
 70
     1
102
RTVSPost2010Prop51ColorIndex
 90
      256
102
RTVSPost2010Prop51ColorRGB
 90
-16777216
102
RTVSPost2010PropOp51
 70
     0
102
RTVSPost2010Prop52
140
1.0
102
RTVSPost2010PropOp52
 70
     0
102
RTVSPost2010Prop53
 90
        2
102
RTVSPost2010PropOp53
 70
     1
102
RTVSPost2010Prop54
  1
strokes_ogs.tif
102
RTVSPost2010PropOp54
 70
     1
102
RTVSPost2010Prop55
280
     0
102
RTVSPost2010PropOp55
 70
     1
102
RTVSPost2010Prop56
140
1.0
102
RTVSPost2010PropOp56
 70
     1
102
RTVSPost2010Prop57
140
1.0
102
RTVSPost2010PropOp57
 70
     1
102
RTVSPropertyOp0
 70
     1
102
RTVSPropertyOp1
 70
     1
102
RTVSPropertyOp2
 70
     1
102
RTVSPropertyOp3
 70
     1
102
RTVSPropertyOp4
 70
     1
102
RTVSPropertyOp5
 70
     1
102
RTVSPropertyOp6
 70
     1
102
RTVSPropertyOp7
 70
     1
102
RTVSPropertyOp8
 70
     1
102
RTVSPropertyOp9
 70
     1
102
RTVSPropertyOp10
 70
     1
102
RTVSPropertyOp11
 70
     1
102
RTVSPropertyOp12
 70
     1
102
RTVSPropertyOp13
 70
     1
102
RTVSPropertyOp14
 70
     1
102
RTVSPropertyOp15
 70
     1
102
RTVSPropertyOp16
 70
     1
102
RTVSPropertyOp17
 70
     1
102
RTVSPropertyOp18
 70
     1
102
RTVSPropertyOp19
 70
     1
102
RTVSPropertyOp20
 70
     1
102
RTVSPropertyOp21
 70
     1
102
RTVSPropertyOp22
 70
     1
102
RTVSPropertyOp23
 70
     1
102
RTVSPropertyOp24
 70
     1
102
RTVSPropertyOp25
 70
     1
102
RTVSPropertyOp26
 70
     1
102
RTVSPropertyOp27
 70
     1
102
RTVSPropertyOp28
 70
     1
102
RTVSPropertyOp29
 70
     1
102
RTVSPropertyOp30
 70
     1
102
RTVSPropertyOp31
 70
     1
102
RTVSPropertyOp32
 70
     1
102
RTVSPropertyOp33
 70
     1
102
RTVSPropertyOp34
 70
     1
102
RTVSPropertyOp35
 70
     1
102
RTVSPropertyOp36
 70
     1
102
RTVSPropertyOp37
 70
     1
102
RTVSPropertyOp38
 70
     1
102
RTVSPropertyOp39
 70
     1
102
RTVSPropertyOp40
 70
     1
102
RTVSPropertyOp41
 70
     1
102
RTVSPropertyOp42
 70
     1
102
RTVSPropertyOp43
 70
     1
102
RTVSPropertyOp44
 70
     1
102
RTVSPropertyOp45
 70
     1
102
RTVSPropertyOp46
 70
     1
102
RTVSPropertyOp47
 70
     1
102
RTVSPropertyOp48
 70
     1
102
RTVSPropertyOp49
 70
     1
102
RTVSPropertyOp50
 70
     1
102
RTVSPropertyOp51
 70
     0
102
RTVSPropertyOp52
 70
     0
102
RTVSPropertyOp53
 70
     1
102
RTVSPropertyOp54
 70
     1
102
RTVSPropertyOp55
 70
     1
102
RTVSPropertyOp56
 70
     1
102
RTVSPropertyOp57
 70
     1
102
RTVSPropertyOp58
 70
     1
102
RTVSPropertyOp59
 70
     1
102
RTVSPropertyOp60
 70
     1
102
RTVSPropertyOp61
 70
     1
102
RTVSPropertyOp62
 70
     1
  0
XRECORD
  5
8AB19
102
{ACAD_REACTORS
330
8AB18
102
}
330
8AB18
100
AcDbXrecord
280
     1
102
RTVSPost2010Prop28
280
     0
102
RTVSPost2010PropOp28
 70
     1
102
RTVSPost2010Prop29
280
     1
102
RTVSPost2010PropOp29
 70
     1
102
RTVSPost2010Prop30
280
     1
102
RTVSPost2010PropOp30
 70
     1
102
RTVSPost2010Prop31
280
     0
102
RTVSPost2010PropOp31
 70
     1
102
RTVSPost2010Prop32
280
     0
102
RTVSPost2010PropOp32
 70
     1
102
RTVSPost2010Prop33
280
     0
102
RTVSPost2010PropOp33
 70
     1
102
RTVSPost2010Prop34
280
     0
102
RTVSPost2010PropOp34
 70
     1
102
RTVSPost2010Prop35
280
     0
102
RTVSPost2010PropOp35
 70
     1
102
RTVSPost2010Prop36
280
     0
102
RTVSPost2010PropOp36
 70
     1
102
RTVSPost2010Prop37
 90
       50
102
RTVSPost2010PropOp37
 70
     1
102
RTVSPost2010Prop38
140
0.0
102
RTVSPost2010PropOp38
 70
     1
102
RTVSPost2010Prop39
140
1.0
102
RTVSPost2010PropOp39
 70
     1
102
RTVSPost2010Prop40
 90
        0
102
RTVSPost2010PropOp40
 70
     1
102
RTVSPost2010Prop41ColorIndex
 90
       18
102
RTVSPost2010Prop41ColorRGB
 90
        0
102
RTVSPost2010PropOp41
 70
     1
102
RTVSPost2010Prop42
 90
       50
102
RTVSPost2010PropOp42
 70
     1
102
RTVSPost2010Prop43
 90
        3
102
RTVSPost2010PropOp43
 70
     1
102
RTVSPost2010Prop44ColorIndex
 90
        5
102
RTVSPost2010Prop44ColorRGB
 90
      255
102
RTVSPost2010PropOp44
 70
     1
102
RTVSPost2010Prop45
280
     0
102
RTVSPost2010PropOp45
 70
     1
102
RTVSPost2010Prop46
 90
       50
102
RTVSPost2010PropOp46
 70
     1
102
RTVSPost2010Prop47
 90
       50
102
RTVSPost2010PropOp47
 70
     1
102
RTVSPost2010Prop48
 90
       50
102
RTVSPost2010PropOp48
 70
     1
102
RTVSPost2010Prop49
280
     0
102
RTVSPost2010PropOp49
 70
     1
102
RTVSPost2010Prop50
 90
       50
102
RTVSPost2010PropOp50
 70
     1
102
RTVSPost2010Prop51ColorIndex
 90
      256
102
RTVSPost2010Prop51ColorRGB
 90
-16777216
102
RTVSPost2010PropOp51
 70
     0
102
RTVSPost2010Prop52
140
1.0
102
RTVSPost2010PropOp52
 70
     0
102
RTVSPost2010Prop53
 90
        2
102
RTVSPost2010PropOp53
 70
     1
102
RTVSPost2010Prop54
  1
strokes_ogs.tif
102
RTVSPost2010PropOp54
 70
     1
102
RTVSPost2010Prop55
280
     0
102
RTVSPost2010PropOp55
 70
     1
102
RTVSPost2010Prop56
140
1.0
102
RTVSPost2010PropOp56
 70
     1
102
RTVSPost2010Prop57
140
1.0
102
RTVSPost2010PropOp57
 70
     1
102
RTVSPropertyOp0
 70
     1
102
RTVSPropertyOp1
 70
     1
102
RTVSPropertyOp2
 70
     1
102
RTVSPropertyOp3
 70
     1
102
RTVSPropertyOp4
 70
     1
102
RTVSPropertyOp5
 70
     1
102
RTVSPropertyOp6
 70
     1
102
RTVSPropertyOp7
 70
     1
102
RTVSPropertyOp8
 70
     1
102
RTVSPropertyOp9
 70
     1
102
RTVSPropertyOp10
 70
     1
102
RTVSPropertyOp11
 70
     1
102
RTVSPropertyOp12
 70
     1
102
RTVSPropertyOp13
 70
     1
102
RTVSPropertyOp14
 70
     1
102
RTVSPropertyOp15
 70
     1
102
RTVSPropertyOp16
 70
     1
102
RTVSPropertyOp17
 70
     1
102
RTVSPropertyOp18
 70
     1
102
RTVSPropertyOp19
 70
     1
102
RTVSPropertyOp20
 70
     1
102
RTVSPropertyOp21
 70
     1
102
RTVSPropertyOp22
 70
     1
102
RTVSPropertyOp23
 70
     1
102
RTVSPropertyOp24
 70
     1
102
RTVSPropertyOp25
 70
     1
102
RTVSPropertyOp26
 70
     1
102
RTVSPropertyOp27
 70
     1
102
RTVSPropertyOp28
 70
     1
102
RTVSPropertyOp29
 70
     1
102
RTVSPropertyOp30
 70
     1
102
RTVSPropertyOp31
 70
     1
102
RTVSPropertyOp32
 70
     1
102
RTVSPropertyOp33
 70
     1
102
RTVSPropertyOp34
 70
     1
102
RTVSPropertyOp35
 70
     1
102
RTVSPropertyOp36
 70
     1
102
RTVSPropertyOp37
 70
     1
102
RTVSPropertyOp38
 70
     1
102
RTVSPropertyOp39
 70
     1
102
RTVSPropertyOp40
 70
     1
102
RTVSPropertyOp41
 70
     1
102
RTVSPropertyOp42
 70
     1
102
RTVSPropertyOp43
 70
     1
102
RTVSPropertyOp44
 70
     1
102
RTVSPropertyOp45
 70
     1
102
RTVSPropertyOp46
 70
     1
102
RTVSPropertyOp47
 70
     1
102
RTVSPropertyOp48
 70
     1
102
RTVSPropertyOp49
 70
     1
102
RTVSPropertyOp50
 70
     1
102
RTVSPropertyOp51
 70
     0
102
RTVSPropertyOp52
 70
     0
102
RTVSPropertyOp53
 70
     1
102
RTVSPropertyOp54
 70
     1
102
RTVSPropertyOp55
 70
     1
102
RTVSPropertyOp56
 70
     1
102
RTVSPropertyOp57
 70
     1
102
RTVSPropertyOp58
 70
     1
102
RTVSPropertyOp59
 70
     1
102
RTVSPropertyOp60
 70
     1
102
RTVSPropertyOp61
 70
     1
102
RTVSPropertyOp62
 70
     1
  0
XRECORD
  5
8AB1B
102
{ACAD_REACTORS
330
8AB1A
102
}
330
8AB1A
100
AcDbXrecord
280
     1
102
RTVSPost2010Prop28
280
     0
102
RTVSPost2010PropOp28
 70
     1
102
RTVSPost2010Prop29
280
     1
102
RTVSPost2010PropOp29
 70
     1
102
RTVSPost2010Prop30
280
     1
102
RTVSPost2010PropOp30
 70
     1
102
RTVSPost2010Prop31
280
     0
102
RTVSPost2010PropOp31
 70
     1
102
RTVSPost2010Prop32
280
     0
102
RTVSPost2010PropOp32
 70
     1
102
RTVSPost2010Prop33
280
     0
102
RTVSPost2010PropOp33
 70
     1
102
RTVSPost2010Prop34
280
     0
102
RTVSPost2010PropOp34
 70
     1
102
RTVSPost2010Prop35
280
     0
102
RTVSPost2010PropOp35
 70
     1
102
RTVSPost2010Prop36
280
     0
102
RTVSPost2010PropOp36
 70
     1
102
RTVSPost2010Prop37
 90
       50
102
RTVSPost2010PropOp37
 70
     1
102
RTVSPost2010Prop38
140
0.0
102
RTVSPost2010PropOp38
 70
     1
102
RTVSPost2010Prop39
140
1.0
102
RTVSPost2010PropOp39
 70
     1
102
RTVSPost2010Prop40
 90
        0
102
RTVSPost2010PropOp40
 70
     1
102
RTVSPost2010Prop41ColorIndex
 90
       18
102
RTVSPost2010Prop41ColorRGB
 90
        0
102
RTVSPost2010PropOp41
 70
     1
102
RTVSPost2010Prop42
 90
       50
102
RTVSPost2010PropOp42
 70
     1
102
RTVSPost2010Prop43
 90
        3
102
RTVSPost2010PropOp43
 70
     1
102
RTVSPost2010Prop44ColorIndex
 90
        5
102
RTVSPost2010Prop44ColorRGB
 90
      255
102
RTVSPost2010PropOp44
 70
     1
102
RTVSPost2010Prop45
280
     0
102
RTVSPost2010PropOp45
 70
     1
102
RTVSPost2010Prop46
 90
       50
102
RTVSPost2010PropOp46
 70
     1
102
RTVSPost2010Prop47
 90
       50
102
RTVSPost2010PropOp47
 70
     1
102
RTVSPost2010Prop48
 90
       50
102
RTVSPost2010PropOp48
 70
     1
102
RTVSPost2010Prop49
280
     0
102
RTVSPost2010PropOp49
 70
     1
102
RTVSPost2010Prop50
 90
       50
102
RTVSPost2010PropOp50
 70
     1
102
RTVSPost2010Prop51ColorIndex
 90
      256
102
RTVSPost2010Prop51ColorRGB
 90
-16777216
102
RTVSPost2010PropOp51
 70
     0
102
RTVSPost2010Prop52
140
1.0
102
RTVSPost2010PropOp52
 70
     0
102
RTVSPost2010Prop53
 90
        2
102
RTVSPost2010PropOp53
 70
     1
102
RTVSPost2010Prop54
  1
strokes_ogs.tif
102
RTVSPost2010PropOp54
 70
     1
102
RTVSPost2010Prop55
280
     0
102
RTVSPost2010PropOp55
 70
     1
102
RTVSPost2010Prop56
140
1.0
102
RTVSPost2010PropOp56
 70
     1
102
RTVSPost2010Prop57
140
1.0
102
RTVSPost2010PropOp57
 70
     1
102
RTVSPropertyOp0
 70
     1
102
RTVSPropertyOp1
 70
     1
102
RTVSPropertyOp2
 70
     1
102
RTVSPropertyOp3
 70
     1
102
RTVSPropertyOp4
 70
     1
102
RTVSPropertyOp5
 70
     1
102
RTVSPropertyOp6
 70
     1
102
RTVSPropertyOp7
 70
     1
102
RTVSPropertyOp8
 70
     1
102
RTVSPropertyOp9
 70
     1
102
RTVSPropertyOp10
 70
     1
102
RTVSPropertyOp11
 70
     1
102
RTVSPropertyOp12
 70
     1
102
RTVSPropertyOp13
 70
     1
102
RTVSPropertyOp14
 70
     1
102
RTVSPropertyOp15
 70
     1
102
RTVSPropertyOp16
 70
     1
102
RTVSPropertyOp17
 70
     1
102
RTVSPropertyOp18
 70
     1
102
RTVSPropertyOp19
 70
     1
102
RTVSPropertyOp20
 70
     1
102
RTVSPropertyOp21
 70
     1
102
RTVSPropertyOp22
 70
     1
102
RTVSPropertyOp23
 70
     1
102
RTVSPropertyOp24
 70
     1
102
RTVSPropertyOp25
 70
     1
102
RTVSPropertyOp26
 70
     1
102
RTVSPropertyOp27
 70
     1
102
RTVSPropertyOp28
 70
     1
102
RTVSPropertyOp29
 70
     1
102
RTVSPropertyOp30
 70
     1
102
RTVSPropertyOp31
 70
     1
102
RTVSPropertyOp32
 70
     1
102
RTVSPropertyOp33
 70
     1
102
RTVSPropertyOp34
 70
     1
102
RTVSPropertyOp35
 70
     1
102
RTVSPropertyOp36
 70
     1
102
RTVSPropertyOp37
 70
     1
102
RTVSPropertyOp38
 70
     1
102
RTVSPropertyOp39
 70
     1
102
RTVSPropertyOp40
 70
     1
102
RTVSPropertyOp41
 70
     1
102
RTVSPropertyOp42
 70
     1
102
RTVSPropertyOp43
 70
     1
102
RTVSPropertyOp44
 70
     1
102
RTVSPropertyOp45
 70
     1
102
RTVSPropertyOp46
 70
     1
102
RTVSPropertyOp47
 70
     1
102
RTVSPropertyOp48
 70
     1
102
RTVSPropertyOp49
 70
     1
102
RTVSPropertyOp50
 70
     1
102
RTVSPropertyOp51
 70
     0
102
RTVSPropertyOp52
 70
     0
102
RTVSPropertyOp53
 70
     1
102
RTVSPropertyOp54
 70
     1
102
RTVSPropertyOp55
 70
     1
102
RTVSPropertyOp56
 70
     1
102
RTVSPropertyOp57
 70
     1
102
RTVSPropertyOp58
 70
     1
102
RTVSPropertyOp59
 70
     1
102
RTVSPropertyOp60
 70
     1
102
RTVSPropertyOp61
 70
     1
102
RTVSPropertyOp62
 70
     1
  0
XRECORD
  5
8AB1D
102
{ACAD_REACTORS
330
8AB1C
102
}
330
8AB1C
100
AcDbXrecord
280
     1
102
RTVSPost2010Prop28
280
     0
102
RTVSPost2010PropOp28
 70
     1
102
RTVSPost2010Prop29
280
     1
102
RTVSPost2010PropOp29
 70
     1
102
RTVSPost2010Prop30
280
     1
102
RTVSPost2010PropOp30
 70
     1
102
RTVSPost2010Prop31
280
     0
102
RTVSPost2010PropOp31
 70
     1
102
RTVSPost2010Prop32
280
     0
102
RTVSPost2010PropOp32
 70
     1
102
RTVSPost2010Prop33
280
     0
102
RTVSPost2010PropOp33
 70
     1
102
RTVSPost2010Prop34
280
     0
102
RTVSPost2010PropOp34
 70
     1
102
RTVSPost2010Prop35
280
     0
102
RTVSPost2010PropOp35
 70
     1
102
RTVSPost2010Prop36
280
     0
102
RTVSPost2010PropOp36
 70
     1
102
RTVSPost2010Prop37
 90
       50
102
RTVSPost2010PropOp37
 70
     1
102
RTVSPost2010Prop38
140
0.0
102
RTVSPost2010PropOp38
 70
     1
102
RTVSPost2010Prop39
140
1.0
102
RTVSPost2010PropOp39
 70
     1
102
RTVSPost2010Prop40
 90
        0
102
RTVSPost2010PropOp40
 70
     1
102
RTVSPost2010Prop41ColorIndex
 90
       18
102
RTVSPost2010Prop41ColorRGB
 90
        0
102
RTVSPost2010PropOp41
 70
     1
102
RTVSPost2010Prop42
 90
       50
102
RTVSPost2010PropOp42
 70
     1
102
RTVSPost2010Prop43
 90
        3
102
RTVSPost2010PropOp43
 70
     1
102
RTVSPost2010Prop44ColorIndex
 90
        5
102
RTVSPost2010Prop44ColorRGB
 90
      255
102
RTVSPost2010PropOp44
 70
     1
102
RTVSPost2010Prop45
280
     0
102
RTVSPost2010PropOp45
 70
     1
102
RTVSPost2010Prop46
 90
       50
102
RTVSPost2010PropOp46
 70
     1
102
RTVSPost2010Prop47
 90
       50
102
RTVSPost2010PropOp47
 70
     1
102
RTVSPost2010Prop48
 90
       50
102
RTVSPost2010PropOp48
 70
     1
102
RTVSPost2010Prop49
280
     0
102
RTVSPost2010PropOp49
 70
     1
102
RTVSPost2010Prop50
 90
       50
102
RTVSPost2010PropOp50
 70
     1
102
RTVSPost2010Prop51ColorIndex
 90
      256
102
RTVSPost2010Prop51ColorRGB
 90
-16777216
102
RTVSPost2010PropOp51
 70
     0
102
RTVSPost2010Prop52
140
1.0
102
RTVSPost2010PropOp52
 70
     0
102
RTVSPost2010Prop53
 90
        2
102
RTVSPost2010PropOp53
 70
     1
102
RTVSPost2010Prop54
  1
strokes_ogs.tif
102
RTVSPost2010PropOp54
 70
     1
102
RTVSPost2010Prop55
280
     0
102
RTVSPost2010PropOp55
 70
     1
102
RTVSPost2010Prop56
140
1.0
102
RTVSPost2010PropOp56
 70
     1
102
RTVSPost2010Prop57
140
1.0
102
RTVSPost2010PropOp57
 70
     1
102
RTVSPropertyOp0
 70
     1
102
RTVSPropertyOp1
 70
     1
102
RTVSPropertyOp2
 70
     1
102
RTVSPropertyOp3
 70
     1
102
RTVSPropertyOp4
 70
     1
102
RTVSPropertyOp5
 70
     1
102
RTVSPropertyOp6
 70
     1
102
RTVSPropertyOp7
 70
     1
102
RTVSPropertyOp8
 70
     1
102
RTVSPropertyOp9
 70
     1
102
RTVSPropertyOp10
 70
     1
102
RTVSPropertyOp11
 70
     1
102
RTVSPropertyOp12
 70
     1
102
RTVSPropertyOp13
 70
     1
102
RTVSPropertyOp14
 70
     1
102
RTVSPropertyOp15
 70
     1
102
RTVSPropertyOp16
 70
     1
102
RTVSPropertyOp17
 70
     1
102
RTVSPropertyOp18
 70
     1
102
RTVSPropertyOp19
 70
     1
102
RTVSPropertyOp20
 70
     1
102
RTVSPropertyOp21
 70
     1
102
RTVSPropertyOp22
 70
     1
102
RTVSPropertyOp23
 70
     1
102
RTVSPropertyOp24
 70
     1
102
RTVSPropertyOp25
 70
     1
102
RTVSPropertyOp26
 70
     1
102
RTVSPropertyOp27
 70
     1
102
RTVSPropertyOp28
 70
     1
102
RTVSPropertyOp29
 70
     1
102
RTVSPropertyOp30
 70
     1
102
RTVSPropertyOp31
 70
     1
102
RTVSPropertyOp32
 70
     1
102
RTVSPropertyOp33
 70
     1
102
RTVSPropertyOp34
 70
     1
102
RTVSPropertyOp35
 70
     1
102
RTVSPropertyOp36
 70
     1
102
RTVSPropertyOp37
 70
     1
102
RTVSPropertyOp38
 70
     1
102
RTVSPropertyOp39
 70
     1
102
RTVSPropertyOp40
 70
     1
102
RTVSPropertyOp41
 70
     1
102
RTVSPropertyOp42
 70
     1
102
RTVSPropertyOp43
 70
     1
102
RTVSPropertyOp44
 70
     1
102
RTVSPropertyOp45
 70
     1
102
RTVSPropertyOp46
 70
     1
102
RTVSPropertyOp47
 70
     1
102
RTVSPropertyOp48
 70
     1
102
RTVSPropertyOp49
 70
     1
102
RTVSPropertyOp50
 70
     1
102
RTVSPropertyOp51
 70
     0
102
RTVSPropertyOp52
 70
     0
102
RTVSPropertyOp53
 70
     1
102
RTVSPropertyOp54
 70
     1
102
RTVSPropertyOp55
 70
     1
102
RTVSPropertyOp56
 70
     1
102
RTVSPropertyOp57
 70
     1
102
RTVSPropertyOp58
 70
     1
102
RTVSPropertyOp59
 70
     1
102
RTVSPropertyOp60
 70
     1
102
RTVSPropertyOp61
 70
     1
102
RTVSPropertyOp62
 70
     1
  0
XRECORD
  5
8AB1F
102
{ACAD_REACTORS
330
8AB1E
102
}
330
8AB1E
100
AcDbXrecord
280
     1
102
RTVSPost2010Prop28
280
     0
102
RTVSPost2010PropOp28
 70
     1
102
RTVSPost2010Prop29
280
     1
102
RTVSPost2010PropOp29
 70
     1
102
RTVSPost2010Prop30
280
     1
102
RTVSPost2010PropOp30
 70
     1
102
RTVSPost2010Prop31
280
     0
102
RTVSPost2010PropOp31
 70
     1
102
RTVSPost2010Prop32
280
     0
102
RTVSPost2010PropOp32
 70
     1
102
RTVSPost2010Prop33
280
     0
102
RTVSPost2010PropOp33
 70
     1
102
RTVSPost2010Prop34
280
     0
102
RTVSPost2010PropOp34
 70
     1
102
RTVSPost2010Prop35
280
     0
102
RTVSPost2010PropOp35
 70
     1
102
RTVSPost2010Prop36
280
     0
102
RTVSPost2010PropOp36
 70
     1
102
RTVSPost2010Prop37
 90
       50
102
RTVSPost2010PropOp37
 70
     1
102
RTVSPost2010Prop38
140
0.0
102
RTVSPost2010PropOp38
 70
     1
102
RTVSPost2010Prop39
140
1.0
102
RTVSPost2010PropOp39
 70
     1
102
RTVSPost2010Prop40
 90
        0
102
RTVSPost2010PropOp40
 70
     1
102
RTVSPost2010Prop41ColorIndex
 90
       18
102
RTVSPost2010Prop41ColorRGB
 90
        0
102
RTVSPost2010PropOp41
 70
     1
102
RTVSPost2010Prop42
 90
       50
102
RTVSPost2010PropOp42
 70
     1
102
RTVSPost2010Prop43
 90
        3
102
RTVSPost2010PropOp43
 70
     1
102
RTVSPost2010Prop44ColorIndex
 90
        5
102
RTVSPost2010Prop44ColorRGB
 90
      255
102
RTVSPost2010PropOp44
 70
     1
102
RTVSPost2010Prop45
280
     0
102
RTVSPost2010PropOp45
 70
     1
102
RTVSPost2010Prop46
 90
       50
102
RTVSPost2010PropOp46
 70
     1
102
RTVSPost2010Prop47
 90
       50
102
RTVSPost2010PropOp47
 70
     1
102
RTVSPost2010Prop48
 90
       50
102
RTVSPost2010PropOp48
 70
     1
102
RTVSPost2010Prop49
280
     0
102
RTVSPost2010PropOp49
 70
     1
102
RTVSPost2010Prop50
 90
       50
102
RTVSPost2010PropOp50
 70
     1
102
RTVSPost2010Prop51ColorIndex
 90
      256
102
RTVSPost2010Prop51ColorRGB
 90
-16777216
102
RTVSPost2010PropOp51
 70
     0
102
RTVSPost2010Prop52
140
1.0
102
RTVSPost2010PropOp52
 70
     0
102
RTVSPost2010Prop53
 90
        2
102
RTVSPost2010PropOp53
 70
     1
102
RTVSPost2010Prop54
  1
strokes_ogs.tif
102
RTVSPost2010PropOp54
 70
     1
102
RTVSPost2010Prop55
280
     0
102
RTVSPost2010PropOp55
 70
     1
102
RTVSPost2010Prop56
140
1.0
102
RTVSPost2010PropOp56
 70
     1
102
RTVSPost2010Prop57
140
1.0
102
RTVSPost2010PropOp57
 70
     1
102
RTVSPropertyOp0
 70
     1
102
RTVSPropertyOp1
 70
     1
102
RTVSPropertyOp2
 70
     1
102
RTVSPropertyOp3
 70
     1
102
RTVSPropertyOp4
 70
     1
102
RTVSPropertyOp5
 70
     1
102
RTVSPropertyOp6
 70
     1
102
RTVSPropertyOp7
 70
     1
102
RTVSPropertyOp8
 70
     1
102
RTVSPropertyOp9
 70
     1
102
RTVSPropertyOp10
 70
     1
102
RTVSPropertyOp11
 70
     1
102
RTVSPropertyOp12
 70
     1
102
RTVSPropertyOp13
 70
     1
102
RTVSPropertyOp14
 70
     1
102
RTVSPropertyOp15
 70
     1
102
RTVSPropertyOp16
 70
     1
102
RTVSPropertyOp17
 70
     1
102
RTVSPropertyOp18
 70
     1
102
RTVSPropertyOp19
 70
     1
102
RTVSPropertyOp20
 70
     1
102
RTVSPropertyOp21
 70
     1
102
RTVSPropertyOp22
 70
     1
102
RTVSPropertyOp23
 70
     1
102
RTVSPropertyOp24
 70
     1
102
RTVSPropertyOp25
 70
     1
102
RTVSPropertyOp26
 70
     1
102
RTVSPropertyOp27
 70
     1
102
RTVSPropertyOp28
 70
     1
102
RTVSPropertyOp29
 70
     1
102
RTVSPropertyOp30
 70
     1
102
RTVSPropertyOp31
 70
     1
102
RTVSPropertyOp32
 70
     1
102
RTVSPropertyOp33
 70
     1
102
RTVSPropertyOp34
 70
     1
102
RTVSPropertyOp35
 70
     1
102
RTVSPropertyOp36
 70
     1
102
RTVSPropertyOp37
 70
     1
102
RTVSPropertyOp38
 70
     1
102
RTVSPropertyOp39
 70
     1
102
RTVSPropertyOp40
 70
     1
102
RTVSPropertyOp41
 70
     1
102
RTVSPropertyOp42
 70
     1
102
RTVSPropertyOp43
 70
     1
102
RTVSPropertyOp44
 70
     1
102
RTVSPropertyOp45
 70
     1
102
RTVSPropertyOp46
 70
     1
102
RTVSPropertyOp47
 70
     1
102
RTVSPropertyOp48
 70
     1
102
RTVSPropertyOp49
 70
     1
102
RTVSPropertyOp50
 70
     1
102
RTVSPropertyOp51
 70
     0
102
RTVSPropertyOp52
 70
     0
102
RTVSPropertyOp53
 70
     1
102
RTVSPropertyOp54
 70
     1
102
RTVSPropertyOp55
 70
     1
102
RTVSPropertyOp56
 70
     1
102
RTVSPropertyOp57
 70
     1
102
RTVSPropertyOp58
 70
     1
102
RTVSPropertyOp59
 70
     1
102
RTVSPropertyOp60
 70
     1
102
RTVSPropertyOp61
 70
     1
102
RTVSPropertyOp62
 70
     1
  0
XRECORD
  5
8AB25
102
{ACAD_REACTORS
330
8AB24
102
}
330
8AB24
100
AcDbXrecord
280
     1
102
RTVSPost2010Prop28
280
     0
102
RTVSPost2010PropOp28
 70
     1
102
RTVSPost2010Prop29
280
     1
102
RTVSPost2010PropOp29
 70
     1
102
RTVSPost2010Prop30
280
     1
102
RTVSPost2010PropOp30
 70
     1
102
RTVSPost2010Prop31
280
     0
102
RTVSPost2010PropOp31
 70
     1
102
RTVSPost2010Prop32
280
     0
102
RTVSPost2010PropOp32
 70
     1
102
RTVSPost2010Prop33
280
     0
102
RTVSPost2010PropOp33
 70
     1
102
RTVSPost2010Prop34
280
     0
102
RTVSPost2010PropOp34
 70
     1
102
RTVSPost2010Prop35
280
     0
102
RTVSPost2010PropOp35
 70
     1
102
RTVSPost2010Prop36
280
     0
102
RTVSPost2010PropOp36
 70
     1
102
RTVSPost2010Prop37
 90
       50
102
RTVSPost2010PropOp37
 70
     1
102
RTVSPost2010Prop38
140
0.0
102
RTVSPost2010PropOp38
 70
     1
102
RTVSPost2010Prop39
140
1.0
102
RTVSPost2010PropOp39
 70
     1
102
RTVSPost2010Prop40
 90
        0
102
RTVSPost2010PropOp40
 70
     1
102
RTVSPost2010Prop41ColorIndex
 90
       18
102
RTVSPost2010Prop41ColorRGB
 90
        0
102
RTVSPost2010PropOp41
 70
     1
102
RTVSPost2010Prop42
 90
       50
102
RTVSPost2010PropOp42
 70
     1
102
RTVSPost2010Prop43
 90
        3
102
RTVSPost2010PropOp43
 70
     1
102
RTVSPost2010Prop44ColorIndex
 90
        5
102
RTVSPost2010Prop44ColorRGB
 90
      255
102
RTVSPost2010PropOp44
 70
     1
102
RTVSPost2010Prop45
280
     0
102
RTVSPost2010PropOp45
 70
     1
102
RTVSPost2010Prop46
 90
       50
102
RTVSPost2010PropOp46
 70
     1
102
RTVSPost2010Prop47
 90
       50
102
RTVSPost2010PropOp47
 70
     1
102
RTVSPost2010Prop48
 90
       50
102
RTVSPost2010PropOp48
 70
     1
102
RTVSPost2010Prop49
280
     0
102
RTVSPost2010PropOp49
 70
     1
102
RTVSPost2010Prop50
 90
       50
102
RTVSPost2010PropOp50
 70
     1
102
RTVSPost2010Prop51ColorIndex
 90
      256
102
RTVSPost2010Prop51ColorRGB
 90
-16777216
102
RTVSPost2010PropOp51
 70
     0
102
RTVSPost2010Prop52
140
1.0
102
RTVSPost2010PropOp52
 70
     0
102
RTVSPost2010Prop53
 90
        2
102
RTVSPost2010PropOp53
 70
     1
102
RTVSPost2010Prop54
  1
strokes_ogs.tif
102
RTVSPost2010PropOp54
 70
     1
102
RTVSPost2010Prop55
280
     0
102
RTVSPost2010PropOp55
 70
     1
102
RTVSPost2010Prop56
140
1.0
102
RTVSPost2010PropOp56
 70
     1
102
RTVSPost2010Prop57
140
1.0
102
RTVSPost2010PropOp57
 70
     1
102
RTVSPropertyOp0
 70
     1
102
RTVSPropertyOp1
 70
     1
102
RTVSPropertyOp2
 70
     1
102
RTVSPropertyOp3
 70
     1
102
RTVSPropertyOp4
 70
     1
102
RTVSPropertyOp5
 70
     1
102
RTVSPropertyOp6
 70
     1
102
RTVSPropertyOp7
 70
     1
102
RTVSPropertyOp8
 70
     1
102
RTVSPropertyOp9
 70
     1
102
RTVSPropertyOp10
 70
     1
102
RTVSPropertyOp11
 70
     1
102
RTVSPropertyOp12
 70
     1
102
RTVSPropertyOp13
 70
     1
102
RTVSPropertyOp14
 70
     1
102
RTVSPropertyOp15
 70
     1
102
RTVSPropertyOp16
 70
     1
102
RTVSPropertyOp17
 70
     1
102
RTVSPropertyOp18
 70
     1
102
RTVSPropertyOp19
 70
     1
102
RTVSPropertyOp20
 70
     1
102
RTVSPropertyOp21
 70
     1
102
RTVSPropertyOp22
 70
     1
102
RTVSPropertyOp23
 70
     1
102
RTVSPropertyOp24
 70
     1
102
RTVSPropertyOp25
 70
     1
102
RTVSPropertyOp26
 70
     1
102
RTVSPropertyOp27
 70
     1
102
RTVSPropertyOp28
 70
     1
102
RTVSPropertyOp29
 70
     1
102
RTVSPropertyOp30
 70
     1
102
RTVSPropertyOp31
 70
     1
102
RTVSPropertyOp32
 70
     1
102
RTVSPropertyOp33
 70
     1
102
RTVSPropertyOp34
 70
     1
102
RTVSPropertyOp35
 70
     1
102
RTVSPropertyOp36
 70
     1
102
RTVSPropertyOp37
 70
     1
102
RTVSPropertyOp38
 70
     1
102
RTVSPropertyOp39
 70
     1
102
RTVSPropertyOp40
 70
     1
102
RTVSPropertyOp41
 70
     1
102
RTVSPropertyOp42
 70
     1
102
RTVSPropertyOp43
 70
     1
102
RTVSPropertyOp44
 70
     1
102
RTVSPropertyOp45
 70
     1
102
RTVSPropertyOp46
 70
     1
102
RTVSPropertyOp47
 70
     1
102
RTVSPropertyOp48
 70
     1
102
RTVSPropertyOp49
 70
     1
102
RTVSPropertyOp50
 70
     1
102
RTVSPropertyOp51
 70
     0
102
RTVSPropertyOp52
 70
     0
102
RTVSPropertyOp53
 70
     1
102
RTVSPropertyOp54
 70
     1
102
RTVSPropertyOp55
 70
     1
102
RTVSPropertyOp56
 70
     1
102
RTVSPropertyOp57
 70
     1
102
RTVSPropertyOp58
 70
     1
102
RTVSPropertyOp59
 70
     1
102
RTVSPropertyOp60
 70
     1
102
RTVSPropertyOp61
 70
     1
102
RTVSPropertyOp62
 70
     1
  0
XRECORD
  5
8AB39
102
{ACAD_REACTORS
330
8AB38
102
}
330
8AB38
100
AcDbXrecord
280
     1
102
RTVSPost2010Prop28
280
     0
102
RTVSPost2010PropOp28
 70
     0
102
RTVSPost2010Prop29
280
     1
102
RTVSPost2010PropOp29
 70
     0
102
RTVSPost2010Prop30
280
     1
102
RTVSPost2010PropOp30
 70
     0
102
RTVSPost2010Prop31
280
     0
102
RTVSPost2010PropOp31
 70
     0
102
RTVSPost2010Prop32
280
     0
102
RTVSPost2010PropOp32
 70
     0
102
RTVSPost2010Prop33
280
     0
102
RTVSPost2010PropOp33
 70
     0
102
RTVSPost2010Prop34
280
     0
102
RTVSPost2010PropOp34
 70
     0
102
RTVSPost2010Prop35
280
     0
102
RTVSPost2010PropOp35
 70
     0
102
RTVSPost2010Prop36
280
     0
102
RTVSPost2010PropOp36
 70
     0
102
RTVSPost2010Prop37
 90
       50
102
RTVSPost2010PropOp37
 70
     0
102
RTVSPost2010Prop38
140
0.0
102
RTVSPost2010PropOp38
 70
     0
102
RTVSPost2010Prop39
140
1.0
102
RTVSPost2010PropOp39
 70
     0
102
RTVSPost2010Prop40
 90
        0
102
RTVSPost2010PropOp40
 70
     0
102
RTVSPost2010Prop41ColorIndex
 90
       18
102
RTVSPost2010Prop41ColorRGB
 90
        0
102
RTVSPost2010PropOp41
 70
     0
102
RTVSPost2010Prop42
 90
       50
102
RTVSPost2010PropOp42
 70
     0
102
RTVSPost2010Prop43
 90
        3
102
RTVSPost2010PropOp43
 70
     0
102
RTVSPost2010Prop44ColorIndex
 90
        5
102
RTVSPost2010Prop44ColorRGB
 90
      255
102
RTVSPost2010PropOp44
 70
     0
102
RTVSPost2010Prop45
280
     0
102
RTVSPost2010PropOp45
 70
     0
102
RTVSPost2010Prop46
 90
       50
102
RTVSPost2010PropOp46
 70
     0
102
RTVSPost2010Prop47
 90
       50
102
RTVSPost2010PropOp47
 70
     0
102
RTVSPost2010Prop48
 90
       50
102
RTVSPost2010PropOp48
 70
     0
102
RTVSPost2010Prop49
280
     0
102
RTVSPost2010PropOp49
 70
     0
102
RTVSPost2010Prop50
 90
       50
102
RTVSPost2010PropOp50
 70
     0
102
RTVSPost2010Prop51ColorIndex
 90
      256
102
RTVSPost2010Prop51ColorRGB
 90
-16777216
102
RTVSPost2010PropOp51
 70
     0
102
RTVSPost2010Prop52
140
1.0
102
RTVSPost2010PropOp52
 70
     0
102
RTVSPost2010Prop53
 90
        2
102
RTVSPost2010PropOp53
 70
     0
102
RTVSPost2010Prop54
  1
strokes_ogs.tif
102
RTVSPost2010PropOp54
 70
     0
102
RTVSPost2010Prop55
280
     0
102
RTVSPost2010PropOp55
 70
     0
102
RTVSPost2010Prop56
140
1.0
102
RTVSPost2010PropOp56
 70
     0
102
RTVSPost2010Prop57
140
1.0
102
RTVSPost2010PropOp57
 70
     0
102
RTVSPropertyOp0
 70
     0
102
RTVSPropertyOp1
 70
     0
102
RTVSPropertyOp2
 70
     0
102
RTVSPropertyOp3
 70
     0
102
RTVSPropertyOp4
 70
     0
102
RTVSPropertyOp5
 70
     0
102
RTVSPropertyOp6
 70
     0
102
RTVSPropertyOp7
 70
     0
102
RTVSPropertyOp8
 70
     0
102
RTVSPropertyOp9
 70
     0
102
RTVSPropertyOp10
 70
     0
102
RTVSPropertyOp11
 70
     0
102
RTVSPropertyOp12
 70
     0
102
RTVSPropertyOp13
 70
     0
102
RTVSPropertyOp14
 70
     2
102
RTVSPropertyOp15
 70
     0
102
RTVSPropertyOp16
 70
     0
102
RTVSPropertyOp17
 70
     0
102
RTVSPropertyOp18
 70
     0
102
RTVSPropertyOp19
 70
     0
102
RTVSPropertyOp20
 70
     0
102
RTVSPropertyOp21
 70
     0
102
RTVSPropertyOp22
 70
     0
102
RTVSPropertyOp23
 70
     0
102
RTVSPropertyOp24
 70
     0
102
RTVSPropertyOp25
 70
     0
102
RTVSPropertyOp26
 70
     0
102
RTVSPropertyOp27
 70
     0
102
RTVSPropertyOp28
 70
     0
102
RTVSPropertyOp29
 70
     0
102
RTVSPropertyOp30
 70
     0
102
RTVSPropertyOp31
 70
     0
102
RTVSPropertyOp32
 70
     0
102
RTVSPropertyOp33
 70
     0
102
RTVSPropertyOp34
 70
     0
102
RTVSPropertyOp35
 70
     0
102
RTVSPropertyOp36
 70
     0
102
RTVSPropertyOp37
 70
     0
102
RTVSPropertyOp38
 70
     0
102
RTVSPropertyOp39
 70
     0
102
RTVSPropertyOp40
 70
     0
102
RTVSPropertyOp41
 70
     0
102
RTVSPropertyOp42
 70
     0
102
RTVSPropertyOp43
 70
     0
102
RTVSPropertyOp44
 70
     0
102
RTVSPropertyOp45
 70
     0
102
RTVSPropertyOp46
 70
     0
102
RTVSPropertyOp47
 70
     0
102
RTVSPropertyOp48
 70
     0
102
RTVSPropertyOp49
 70
     0
102
RTVSPropertyOp50
 70
     0
102
RTVSPropertyOp51
 70
     0
102
RTVSPropertyOp52
 70
     0
102
RTVSPropertyOp53
 70
     0
102
RTVSPropertyOp54
 70
     0
102
RTVSPropertyOp55
 70
     0
102
RTVSPropertyOp56
 70
     0
102
RTVSPropertyOp57
 70
     0
102
RTVSPropertyOp58
 70
     1
102
RTVSPropertyOp59
 70
     1
102
RTVSPropertyOp60
 70
     1
102
RTVSPropertyOp61
 70
     1
102
RTVSPropertyOp62
 70
     1
  0
XRECORD
  5
8AB33
102
{ACAD_REACTORS
330
8AB32
102
}
330
8AB32
100
AcDbXrecord
280
     1
102
RTVSPost2010Prop28
280
     0
102
RTVSPost2010PropOp28
 70
     1
102
RTVSPost2010Prop29
280
     1
102
RTVSPost2010PropOp29
 70
     1
102
RTVSPost2010Prop30
280
     1
102
RTVSPost2010PropOp30
 70
     1
102
RTVSPost2010Prop31
280
     0
102
RTVSPost2010PropOp31
 70
     1
102
RTVSPost2010Prop32
280
     0
102
RTVSPost2010PropOp32
 70
     1
102
RTVSPost2010Prop33
280
     0
102
RTVSPost2010PropOp33
 70
     1
102
RTVSPost2010Prop34
280
     0
102
RTVSPost2010PropOp34
 70
     1
102
RTVSPost2010Prop35
280
     0
102
RTVSPost2010PropOp35
 70
     1
102
RTVSPost2010Prop36
280
     0
102
RTVSPost2010PropOp36
 70
     1
102
RTVSPost2010Prop37
 90
       50
102
RTVSPost2010PropOp37
 70
     1
102
RTVSPost2010Prop38
140
0.0
102
RTVSPost2010PropOp38
 70
     1
102
RTVSPost2010Prop39
140
1.0
102
RTVSPost2010PropOp39
 70
     1
102
RTVSPost2010Prop40
 90
        0
102
RTVSPost2010PropOp40
 70
     1
102
RTVSPost2010Prop41ColorIndex
 90
       18
102
RTVSPost2010Prop41ColorRGB
 90
        0
102
RTVSPost2010PropOp41
 70
     1
102
RTVSPost2010Prop42
 90
       50
102
RTVSPost2010PropOp42
 70
     1
102
RTVSPost2010Prop43
 90
        3
102
RTVSPost2010PropOp43
 70
     1
102
RTVSPost2010Prop44ColorIndex
 90
        5
102
RTVSPost2010Prop44ColorRGB
 90
      255
102
RTVSPost2010PropOp44
 70
     1
102
RTVSPost2010Prop45
280
     0
102
RTVSPost2010PropOp45
 70
     1
102
RTVSPost2010Prop46
 90
       50
102
RTVSPost2010PropOp46
 70
     1
102
RTVSPost2010Prop47
 90
       50
102
RTVSPost2010PropOp47
 70
     1
102
RTVSPost2010Prop48
 90
       50
102
RTVSPost2010PropOp48
 70
     1
102
RTVSPost2010Prop49
280
     0
102
RTVSPost2010PropOp49
 70
     1
102
RTVSPost2010Prop50
 90
       50
102
RTVSPost2010PropOp50
 70
     1
102
RTVSPost2010Prop51ColorIndex
 90
      256
102
RTVSPost2010Prop51ColorRGB
 90
-16777216
102
RTVSPost2010PropOp51
 70
     0
102
RTVSPost2010Prop52
140
1.0
102
RTVSPost2010PropOp52
 70
     0
102
RTVSPost2010Prop53
 90
        2
102
RTVSPost2010PropOp53
 70
     1
102
RTVSPost2010Prop54
  1
strokes_ogs.tif
102
RTVSPost2010PropOp54
 70
     1
102
RTVSPost2010Prop55
280
     0
102
RTVSPost2010PropOp55
 70
     1
102
RTVSPost2010Prop56
140
1.0
102
RTVSPost2010PropOp56
 70
     1
102
RTVSPost2010Prop57
140
1.0
102
RTVSPost2010PropOp57
 70
     1
102
RTVSPropertyOp0
 70
     1
102
RTVSPropertyOp1
 70
     1
102
RTVSPropertyOp2
 70
     1
102
RTVSPropertyOp3
 70
     1
102
RTVSPropertyOp4
 70
     1
102
RTVSPropertyOp5
 70
     1
102
RTVSPropertyOp6
 70
     1
102
RTVSPropertyOp7
 70
     1
102
RTVSPropertyOp8
 70
     1
102
RTVSPropertyOp9
 70
     1
102
RTVSPropertyOp10
 70
     1
102
RTVSPropertyOp11
 70
     1
102
RTVSPropertyOp12
 70
     1
102
RTVSPropertyOp13
 70
     1
102
RTVSPropertyOp14
 70
     1
102
RTVSPropertyOp15
 70
     1
102
RTVSPropertyOp16
 70
     1
102
RTVSPropertyOp17
 70
     1
102
RTVSPropertyOp18
 70
     1
102
RTVSPropertyOp19
 70
     1
102
RTVSPropertyOp20
 70
     1
102
RTVSPropertyOp21
 70
     1
102
RTVSPropertyOp22
 70
     1
102
RTVSPropertyOp23
 70
     1
102
RTVSPropertyOp24
 70
     1
102
RTVSPropertyOp25
 70
     1
102
RTVSPropertyOp26
 70
     1
102
RTVSPropertyOp27
 70
     1
102
RTVSPropertyOp28
 70
     1
102
RTVSPropertyOp29
 70
     1
102
RTVSPropertyOp30
 70
     1
102
RTVSPropertyOp31
 70
     1
102
RTVSPropertyOp32
 70
     1
102
RTVSPropertyOp33
 70
     1
102
RTVSPropertyOp34
 70
     1
102
RTVSPropertyOp35
 70
     1
102
RTVSPropertyOp36
 70
     1
102
RTVSPropertyOp37
 70
     1
102
RTVSPropertyOp38
 70
     1
102
RTVSPropertyOp39
 70
     1
102
RTVSPropertyOp40
 70
     1
102
RTVSPropertyOp41
 70
     1
102
RTVSPropertyOp42
 70
     1
102
RTVSPropertyOp43
 70
     1
102
RTVSPropertyOp44
 70
     1
102
RTVSPropertyOp45
 70
     1
102
RTVSPropertyOp46
 70
     1
102
RTVSPropertyOp47
 70
     1
102
RTVSPropertyOp48
 70
     1
102
RTVSPropertyOp49
 70
     1
102
RTVSPropertyOp50
 70
     1
102
RTVSPropertyOp51
 70
     0
102
RTVSPropertyOp52
 70
     0
102
RTVSPropertyOp53
 70
     1
102
RTVSPropertyOp54
 70
     1
102
RTVSPropertyOp55
 70
     1
102
RTVSPropertyOp56
 70
     1
102
RTVSPropertyOp57
 70
     1
102
RTVSPropertyOp58
 70
     1
102
RTVSPropertyOp59
 70
     1
102
RTVSPropertyOp60
 70
     1
102
RTVSPropertyOp61
 70
     1
102
RTVSPropertyOp62
 70
     1
  0
XRECORD
  5
8AB3B
102
{ACAD_REACTORS
330
8AB3A
102
}
330
8AB3A
100
AcDbXrecord
280
     1
102
RTVSPost2010Prop28
280
     0
102
RTVSPost2010PropOp28
 70
     0
102
RTVSPost2010Prop29
280
     1
102
RTVSPost2010PropOp29
 70
     0
102
RTVSPost2010Prop30
280
     1
102
RTVSPost2010PropOp30
 70
     0
102
RTVSPost2010Prop31
280
     0
102
RTVSPost2010PropOp31
 70
     0
102
RTVSPost2010Prop32
280
     0
102
RTVSPost2010PropOp32
 70
     0
102
RTVSPost2010Prop33
280
     0
102
RTVSPost2010PropOp33
 70
     0
102
RTVSPost2010Prop34
280
     0
102
RTVSPost2010PropOp34
 70
     0
102
RTVSPost2010Prop35
280
     0
102
RTVSPost2010PropOp35
 70
     0
102
RTVSPost2010Prop36
280
     0
102
RTVSPost2010PropOp36
 70
     0
102
RTVSPost2010Prop37
 90
       50
102
RTVSPost2010PropOp37
 70
     0
102
RTVSPost2010Prop38
140
0.0
102
RTVSPost2010PropOp38
 70
     0
102
RTVSPost2010Prop39
140
1.0
102
RTVSPost2010PropOp39
 70
     0
102
RTVSPost2010Prop40
 90
        0
102
RTVSPost2010PropOp40
 70
     0
102
RTVSPost2010Prop41ColorIndex
 90
       18
102
RTVSPost2010Prop41ColorRGB
 90
        0
102
RTVSPost2010PropOp41
 70
     0
102
RTVSPost2010Prop42
 90
       50
102
RTVSPost2010PropOp42
 70
     0
102
RTVSPost2010Prop43
 90
        3
102
RTVSPost2010PropOp43
 70
     0
102
RTVSPost2010Prop44ColorIndex
 90
        5
102
RTVSPost2010Prop44ColorRGB
 90
      255
102
RTVSPost2010PropOp44
 70
     0
102
RTVSPost2010Prop45
280
     0
102
RTVSPost2010PropOp45
 70
     0
102
RTVSPost2010Prop46
 90
       50
102
RTVSPost2010PropOp46
 70
     0
102
RTVSPost2010Prop47
 90
       50
102
RTVSPost2010PropOp47
 70
     0
102
RTVSPost2010Prop48
 90
       50
102
RTVSPost2010PropOp48
 70
     0
102
RTVSPost2010Prop49
280
     0
102
RTVSPost2010PropOp49
 70
     0
102
RTVSPost2010Prop50
 90
       50
102
RTVSPost2010PropOp50
 70
     0
102
RTVSPost2010Prop51ColorIndex
 90
      256
102
RTVSPost2010Prop51ColorRGB
 90
-16777216
102
RTVSPost2010PropOp51
 70
     0
102
RTVSPost2010Prop52
140
1.0
102
RTVSPost2010PropOp52
 70
     0
102
RTVSPost2010Prop53
 90
        2
102
RTVSPost2010PropOp53
 70
     0
102
RTVSPost2010Prop54
  1
strokes_ogs.tif
102
RTVSPost2010PropOp54
 70
     0
102
RTVSPost2010Prop55
280
     0
102
RTVSPost2010PropOp55
 70
     0
102
RTVSPost2010Prop56
140
1.0
102
RTVSPost2010PropOp56
 70
     0
102
RTVSPost2010Prop57
140
1.0
102
RTVSPost2010PropOp57
 70
     0
102
RTVSPropertyOp0
 70
     0
102
RTVSPropertyOp1
 70
     0
102
RTVSPropertyOp2
 70
     0
102
RTVSPropertyOp3
 70
     0
102
RTVSPropertyOp4
 70
     0
102
RTVSPropertyOp5
 70
     0
102
RTVSPropertyOp6
 70
     0
102
RTVSPropertyOp7
 70
     0
102
RTVSPropertyOp8
 70
     0
102
RTVSPropertyOp9
 70
     0
102
RTVSPropertyOp10
 70
     0
102
RTVSPropertyOp11
 70
     0
102
RTVSPropertyOp12
 70
     0
102
RTVSPropertyOp13
 70
     0
102
RTVSPropertyOp14
 70
     2
102
RTVSPropertyOp15
 70
     0
102
RTVSPropertyOp16
 70
     0
102
RTVSPropertyOp17
 70
     0
102
RTVSPropertyOp18
 70
     0
102
RTVSPropertyOp19
 70
     0
102
RTVSPropertyOp20
 70
     0
102
RTVSPropertyOp21
 70
     0
102
RTVSPropertyOp22
 70
     0
102
RTVSPropertyOp23
 70
     0
102
RTVSPropertyOp24
 70
     0
102
RTVSPropertyOp25
 70
     0
102
RTVSPropertyOp26
 70
     0
102
RTVSPropertyOp27
 70
     0
102
RTVSPropertyOp28
 70
     0
102
RTVSPropertyOp29
 70
     0
102
RTVSPropertyOp30
 70
     0
102
RTVSPropertyOp31
 70
     0
102
RTVSPropertyOp32
 70
     0
102
RTVSPropertyOp33
 70
     0
102
RTVSPropertyOp34
 70
     0
102
RTVSPropertyOp35
 70
     0
102
RTVSPropertyOp36
 70
     0
102
RTVSPropertyOp37
 70
     0
102
RTVSPropertyOp38
 70
     0
102
RTVSPropertyOp39
 70
     0
102
RTVSPropertyOp40
 70
     0
102
RTVSPropertyOp41
 70
     0
102
RTVSPropertyOp42
 70
     0
102
RTVSPropertyOp43
 70
     0
102
RTVSPropertyOp44
 70
     0
102
RTVSPropertyOp45
 70
     0
102
RTVSPropertyOp46
 70
     0
102
RTVSPropertyOp47
 70
     0
102
RTVSPropertyOp48
 70
     0
102
RTVSPropertyOp49
 70
     0
102
RTVSPropertyOp50
 70
     0
102
RTVSPropertyOp51
 70
     0
102
RTVSPropertyOp52
 70
     0
102
RTVSPropertyOp53
 70
     0
102
RTVSPropertyOp54
 70
     0
102
RTVSPropertyOp55
 70
     0
102
RTVSPropertyOp56
 70
     0
102
RTVSPropertyOp57
 70
     0
102
RTVSPropertyOp58
 70
     1
102
RTVSPropertyOp59
 70
     1
102
RTVSPropertyOp60
 70
     1
102
RTVSPropertyOp61
 70
     1
102
RTVSPropertyOp62
 70
     1
  0
XRECORD
  5
8AB29
102
{ACAD_REACTORS
330
8AB28
102
}
330
8AB28
100
AcDbXrecord
280
     1
102
RTVSPost2010Prop28
280
     0
102
RTVSPost2010PropOp28
 70
     1
102
RTVSPost2010Prop29
280
     1
102
RTVSPost2010PropOp29
 70
     1
102
RTVSPost2010Prop30
280
     1
102
RTVSPost2010PropOp30
 70
     1
102
RTVSPost2010Prop31
280
     0
102
RTVSPost2010PropOp31
 70
     1
102
RTVSPost2010Prop32
280
     0
102
RTVSPost2010PropOp32
 70
     1
102
RTVSPost2010Prop33
280
     0
102
RTVSPost2010PropOp33
 70
     1
102
RTVSPost2010Prop34
280
     0
102
RTVSPost2010PropOp34
 70
     1
102
RTVSPost2010Prop35
280
     0
102
RTVSPost2010PropOp35
 70
     1
102
RTVSPost2010Prop36
280
     0
102
RTVSPost2010PropOp36
 70
     1
102
RTVSPost2010Prop37
 90
       50
102
RTVSPost2010PropOp37
 70
     1
102
RTVSPost2010Prop38
140
0.0
102
RTVSPost2010PropOp38
 70
     1
102
RTVSPost2010Prop39
140
1.0
102
RTVSPost2010PropOp39
 70
     1
102
RTVSPost2010Prop40
 90
        0
102
RTVSPost2010PropOp40
 70
     1
102
RTVSPost2010Prop41ColorIndex
 90
       18
102
RTVSPost2010Prop41ColorRGB
 90
        0
102
RTVSPost2010PropOp41
 70
     1
102
RTVSPost2010Prop42
 90
       50
102
RTVSPost2010PropOp42
 70
     1
102
RTVSPost2010Prop43
 90
        3
102
RTVSPost2010PropOp43
 70
     1
102
RTVSPost2010Prop44ColorIndex
 90
        5
102
RTVSPost2010Prop44ColorRGB
 90
      255
102
RTVSPost2010PropOp44
 70
     1
102
RTVSPost2010Prop45
280
     0
102
RTVSPost2010PropOp45
 70
     1
102
RTVSPost2010Prop46
 90
       50
102
RTVSPost2010PropOp46
 70
     1
102
RTVSPost2010Prop47
 90
       50
102
RTVSPost2010PropOp47
 70
     1
102
RTVSPost2010Prop48
 90
       50
102
RTVSPost2010PropOp48
 70
     1
102
RTVSPost2010Prop49
280
     0
102
RTVSPost2010PropOp49
 70
     1
102
RTVSPost2010Prop50
 90
       50
102
RTVSPost2010PropOp50
 70
     1
102
RTVSPost2010Prop51ColorIndex
 90
      256
102
RTVSPost2010Prop51ColorRGB
 90
-16777216
102
RTVSPost2010PropOp51
 70
     0
102
RTVSPost2010Prop52
140
1.0
102
RTVSPost2010PropOp52
 70
     0
102
RTVSPost2010Prop53
 90
        2
102
RTVSPost2010PropOp53
 70
     1
102
RTVSPost2010Prop54
  1
strokes_ogs.tif
102
RTVSPost2010PropOp54
 70
     1
102
RTVSPost2010Prop55
280
     0
102
RTVSPost2010PropOp55
 70
     1
102
RTVSPost2010Prop56
140
1.0
102
RTVSPost2010PropOp56
 70
     1
102
RTVSPost2010Prop57
140
1.0
102
RTVSPost2010PropOp57
 70
     1
102
RTVSPropertyOp0
 70
     1
102
RTVSPropertyOp1
 70
     1
102
RTVSPropertyOp2
 70
     1
102
RTVSPropertyOp3
 70
     1
102
RTVSPropertyOp4
 70
     1
102
RTVSPropertyOp5
 70
     1
102
RTVSPropertyOp6
 70
     1
102
RTVSPropertyOp7
 70
     1
102
RTVSPropertyOp8
 70
     1
102
RTVSPropertyOp9
 70
     1
102
RTVSPropertyOp10
 70
     1
102
RTVSPropertyOp11
 70
     1
102
RTVSPropertyOp12
 70
     1
102
RTVSPropertyOp13
 70
     1
102
RTVSPropertyOp14
 70
     1
102
RTVSPropertyOp15
 70
     1
102
RTVSPropertyOp16
 70
     1
102
RTVSPropertyOp17
 70
     1
102
RTVSPropertyOp18
 70
     1
102
RTVSPropertyOp19
 70
     1
102
RTVSPropertyOp20
 70
     1
102
RTVSPropertyOp21
 70
     1
102
RTVSPropertyOp22
 70
     1
102
RTVSPropertyOp23
 70
     1
102
RTVSPropertyOp24
 70
     1
102
RTVSPropertyOp25
 70
     1
102
RTVSPropertyOp26
 70
     1
102
RTVSPropertyOp27
 70
     1
102
RTVSPropertyOp28
 70
     1
102
RTVSPropertyOp29
 70
     1
102
RTVSPropertyOp30
 70
     1
102
RTVSPropertyOp31
 70
     1
102
RTVSPropertyOp32
 70
     1
102
RTVSPropertyOp33
 70
     1
102
RTVSPropertyOp34
 70
     1
102
RTVSPropertyOp35
 70
     1
102
RTVSPropertyOp36
 70
     1
102
RTVSPropertyOp37
 70
     1
102
RTVSPropertyOp38
 70
     1
102
RTVSPropertyOp39
 70
     1
102
RTVSPropertyOp40
 70
     1
102
RTVSPropertyOp41
 70
     1
102
RTVSPropertyOp42
 70
     1
102
RTVSPropertyOp43
 70
     1
102
RTVSPropertyOp44
 70
     1
102
RTVSPropertyOp45
 70
     1
102
RTVSPropertyOp46
 70
     1
102
RTVSPropertyOp47
 70
     1
102
RTVSPropertyOp48
 70
     1
102
RTVSPropertyOp49
 70
     1
102
RTVSPropertyOp50
 70
     1
102
RTVSPropertyOp51
 70
     0
102
RTVSPropertyOp52
 70
     0
102
RTVSPropertyOp53
 70
     1
102
RTVSPropertyOp54
 70
     1
102
RTVSPropertyOp55
 70
     1
102
RTVSPropertyOp56
 70
     1
102
RTVSPropertyOp57
 70
     1
102
RTVSPropertyOp58
 70
     1
102
RTVSPropertyOp59
 70
     1
102
RTVSPropertyOp60
 70
     1
102
RTVSPropertyOp61
 70
     1
102
RTVSPropertyOp62
 70
     1
  0
XRECORD
  5
8AB47
102
{ACAD_REACTORS
330
8AB46
102
}
330
8AB46
100
AcDbXrecord
280
     1
102
RTVSPost2010Prop28
280
     0
102
RTVSPost2010PropOp28
 70
     1
102
RTVSPost2010Prop29
280
     1
102
RTVSPost2010PropOp29
 70
     1
102
RTVSPost2010Prop30
280
     1
102
RTVSPost2010PropOp30
 70
     1
102
RTVSPost2010Prop31
280
     0
102
RTVSPost2010PropOp31
 70
     1
102
RTVSPost2010Prop32
280
     0
102
RTVSPost2010PropOp32
 70
     1
102
RTVSPost2010Prop33
280
     0
102
RTVSPost2010PropOp33
 70
     1
102
RTVSPost2010Prop34
280
     0
102
RTVSPost2010PropOp34
 70
     1
102
RTVSPost2010Prop35
280
     0
102
RTVSPost2010PropOp35
 70
     1
102
RTVSPost2010Prop36
280
     0
102
RTVSPost2010PropOp36
 70
     1
102
RTVSPost2010Prop37
 90
       50
102
RTVSPost2010PropOp37
 70
     1
102
RTVSPost2010Prop38
140
0.0
102
RTVSPost2010PropOp38
 70
     1
102
RTVSPost2010Prop39
140
1.0
102
RTVSPost2010PropOp39
 70
     1
102
RTVSPost2010Prop40
 90
        0
102
RTVSPost2010PropOp40
 70
     1
102
RTVSPost2010Prop41ColorIndex
 90
       18
102
RTVSPost2010Prop41ColorRGB
 90
        0
102
RTVSPost2010PropOp41
 70
     1
102
RTVSPost2010Prop42
 90
       50
102
RTVSPost2010PropOp42
 70
     1
102
RTVSPost2010Prop43
 90
        3
102
RTVSPost2010PropOp43
 70
     1
102
RTVSPost2010Prop44ColorIndex
 90
        5
102
RTVSPost2010Prop44ColorRGB
 90
      255
102
RTVSPost2010PropOp44
 70
     1
102
RTVSPost2010Prop45
280
     0
102
RTVSPost2010PropOp45
 70
     1
102
RTVSPost2010Prop46
 90
       50
102
RTVSPost2010PropOp46
 70
     1
102
RTVSPost2010Prop47
 90
       50
102
RTVSPost2010PropOp47
 70
     1
102
RTVSPost2010Prop48
 90
       50
102
RTVSPost2010PropOp48
 70
     1
102
RTVSPost2010Prop49
280
     0
102
RTVSPost2010PropOp49
 70
     1
102
RTVSPost2010Prop50
 90
       50
102
RTVSPost2010PropOp50
 70
     1
102
RTVSPost2010Prop51ColorIndex
 90
      256
102
RTVSPost2010Prop51ColorRGB
 90
-16777216
102
RTVSPost2010PropOp51
 70
     0
102
RTVSPost2010Prop52
140
1.0
102
RTVSPost2010PropOp52
 70
     0
102
RTVSPost2010Prop53
 90
        2
102
RTVSPost2010PropOp53
 70
     1
102
RTVSPost2010Prop54
  1
strokes_ogs.tif
102
RTVSPost2010PropOp54
 70
     1
102
RTVSPost2010Prop55
280
     0
102
RTVSPost2010PropOp55
 70
     1
102
RTVSPost2010Prop56
140
1.0
102
RTVSPost2010PropOp56
 70
     1
102
RTVSPost2010Prop57
140
1.0
102
RTVSPost2010PropOp57
 70
     1
102
RTVSPropertyOp0
 70
     1
102
RTVSPropertyOp1
 70
     1
102
RTVSPropertyOp2
 70
     1
102
RTVSPropertyOp3
 70
     1
102
RTVSPropertyOp4
 70
     1
102
RTVSPropertyOp5
 70
     1
102
RTVSPropertyOp6
 70
     1
102
RTVSPropertyOp7
 70
     1
102
RTVSPropertyOp8
 70
     1
102
RTVSPropertyOp9
 70
     1
102
RTVSPropertyOp10
 70
     1
102
RTVSPropertyOp11
 70
     1
102
RTVSPropertyOp12
 70
     1
102
RTVSPropertyOp13
 70
     1
102
RTVSPropertyOp14
 70
     1
102
RTVSPropertyOp15
 70
     1
102
RTVSPropertyOp16
 70
     1
102
RTVSPropertyOp17
 70
     1
102
RTVSPropertyOp18
 70
     1
102
RTVSPropertyOp19
 70
     1
102
RTVSPropertyOp20
 70
     1
102
RTVSPropertyOp21
 70
     1
102
RTVSPropertyOp22
 70
     1
102
RTVSPropertyOp23
 70
     1
102
RTVSPropertyOp24
 70
     1
102
RTVSPropertyOp25
 70
     1
102
RTVSPropertyOp26
 70
     1
102
RTVSPropertyOp27
 70
     1
102
RTVSPropertyOp28
 70
     1
102
RTVSPropertyOp29
 70
     1
102
RTVSPropertyOp30
 70
     1
102
RTVSPropertyOp31
 70
     1
102
RTVSPropertyOp32
 70
     1
102
RTVSPropertyOp33
 70
     1
102
RTVSPropertyOp34
 70
     1
102
RTVSPropertyOp35
 70
     1
102
RTVSPropertyOp36
 70
     1
102
RTVSPropertyOp37
 70
     1
102
RTVSPropertyOp38
 70
     1
102
RTVSPropertyOp39
 70
     1
102
RTVSPropertyOp40
 70
     1
102
RTVSPropertyOp41
 70
     1
102
RTVSPropertyOp42
 70
     1
102
RTVSPropertyOp43
 70
     1
102
RTVSPropertyOp44
 70
     1
102
RTVSPropertyOp45
 70
     1
102
RTVSPropertyOp46
 70
     1
102
RTVSPropertyOp47
 70
     1
102
RTVSPropertyOp48
 70
     1
102
RTVSPropertyOp49
 70
     1
102
RTVSPropertyOp50
 70
     1
102
RTVSPropertyOp51
 70
     0
102
RTVSPropertyOp52
 70
     0
102
RTVSPropertyOp53
 70
     1
102
RTVSPropertyOp54
 70
     1
102
RTVSPropertyOp55
 70
     1
102
RTVSPropertyOp56
 70
     1
102
RTVSPropertyOp57
 70
     1
102
RTVSPropertyOp58
 70
     1
102
RTVSPropertyOp59
 70
     1
102
RTVSPropertyOp60
 70
     1
102
RTVSPropertyOp61
 70
     1
102
RTVSPropertyOp62
 70
     1
  0
XRECORD
  5
8AB45
102
{ACAD_REACTORS
330
8AB44
102
}
330
8AB44
100
AcDbXrecord
280
     1
102
RTVSPost2010Prop28
280
     0
102
RTVSPost2010PropOp28
 70
     1
102
RTVSPost2010Prop29
280
     1
102
RTVSPost2010PropOp29
 70
     1
102
RTVSPost2010Prop30
280
     1
102
RTVSPost2010PropOp30
 70
     1
102
RTVSPost2010Prop31
280
     0
102
RTVSPost2010PropOp31
 70
     1
102
RTVSPost2010Prop32
280
     0
102
RTVSPost2010PropOp32
 70
     1
102
RTVSPost2010Prop33
280
     0
102
RTVSPost2010PropOp33
 70
     1
102
RTVSPost2010Prop34
280
     0
102
RTVSPost2010PropOp34
 70
     1
102
RTVSPost2010Prop35
280
     0
102
RTVSPost2010PropOp35
 70
     1
102
RTVSPost2010Prop36
280
     0
102
RTVSPost2010PropOp36
 70
     1
102
RTVSPost2010Prop37
 90
       50
102
RTVSPost2010PropOp37
 70
     1
102
RTVSPost2010Prop38
140
0.0
102
RTVSPost2010PropOp38
 70
     1
102
RTVSPost2010Prop39
140
1.0
102
RTVSPost2010PropOp39
 70
     1
102
RTVSPost2010Prop40
 90
        0
102
RTVSPost2010PropOp40
 70
     1
102
RTVSPost2010Prop41ColorIndex
 90
       18
102
RTVSPost2010Prop41ColorRGB
 90
        0
102
RTVSPost2010PropOp41
 70
     1
102
RTVSPost2010Prop42
 90
       50
102
RTVSPost2010PropOp42
 70
     1
102
RTVSPost2010Prop43
 90
        3
102
RTVSPost2010PropOp43
 70
     1
102
RTVSPost2010Prop44ColorIndex
 90
        5
102
RTVSPost2010Prop44ColorRGB
 90
      255
102
RTVSPost2010PropOp44
 70
     1
102
RTVSPost2010Prop45
280
     0
102
RTVSPost2010PropOp45
 70
     1
102
RTVSPost2010Prop46
 90
       50
102
RTVSPost2010PropOp46
 70
     1
102
RTVSPost2010Prop47
 90
       50
102
RTVSPost2010PropOp47
 70
     1
102
RTVSPost2010Prop48
 90
       50
102
RTVSPost2010PropOp48
 70
     1
102
RTVSPost2010Prop49
280
     0
102
RTVSPost2010PropOp49
 70
     1
102
RTVSPost2010Prop50
 90
       50
102
RTVSPost2010PropOp50
 70
     1
102
RTVSPost2010Prop51ColorIndex
 90
      256
102
RTVSPost2010Prop51ColorRGB
 90
-16777216
102
RTVSPost2010PropOp51
 70
     0
102
RTVSPost2010Prop52
140
1.0
102
RTVSPost2010PropOp52
 70
     0
102
RTVSPost2010Prop53
 90
        2
102
RTVSPost2010PropOp53
 70
     1
102
RTVSPost2010Prop54
  1
strokes_ogs.tif
102
RTVSPost2010PropOp54
 70
     1
102
RTVSPost2010Prop55
280
     0
102
RTVSPost2010PropOp55
 70
     1
102
RTVSPost2010Prop56
140
1.0
102
RTVSPost2010PropOp56
 70
     1
102
RTVSPost2010Prop57
140
1.0
102
RTVSPost2010PropOp57
 70
     1
102
RTVSPropertyOp0
 70
     1
102
RTVSPropertyOp1
 70
     1
102
RTVSPropertyOp2
 70
     1
102
RTVSPropertyOp3
 70
     1
102
RTVSPropertyOp4
 70
     1
102
RTVSPropertyOp5
 70
     1
102
RTVSPropertyOp6
 70
     1
102
RTVSPropertyOp7
 70
     1
102
RTVSPropertyOp8
 70
     1
102
RTVSPropertyOp9
 70
     1
102
RTVSPropertyOp10
 70
     1
102
RTVSPropertyOp11
 70
     1
102
RTVSPropertyOp12
 70
     1
102
RTVSPropertyOp13
 70
     1
102
RTVSPropertyOp14
 70
     1
102
RTVSPropertyOp15
 70
     1
102
RTVSPropertyOp16
 70
     1
102
RTVSPropertyOp17
 70
     1
102
RTVSPropertyOp18
 70
     1
102
RTVSPropertyOp19
 70
     1
102
RTVSPropertyOp20
 70
     1
102
RTVSPropertyOp21
 70
     1
102
RTVSPropertyOp22
 70
     1
102
RTVSPropertyOp23
 70
     1
102
RTVSPropertyOp24
 70
     1
102
RTVSPropertyOp25
 70
     1
102
RTVSPropertyOp26
 70
     1
102
RTVSPropertyOp27
 70
     1
102
RTVSPropertyOp28
 70
     1
102
RTVSPropertyOp29
 70
     1
102
RTVSPropertyOp30
 70
     1
102
RTVSPropertyOp31
 70
     1
102
RTVSPropertyOp32
 70
     1
102
RTVSPropertyOp33
 70
     1
102
RTVSPropertyOp34
 70
     1
102
RTVSPropertyOp35
 70
     1
102
RTVSPropertyOp36
 70
     1
102
RTVSPropertyOp37
 70
     1
102
RTVSPropertyOp38
 70
     1
102
RTVSPropertyOp39
 70
     1
102
RTVSPropertyOp40
 70
     1
102
RTVSPropertyOp41
 70
     1
102
RTVSPropertyOp42
 70
     1
102
RTVSPropertyOp43
 70
     1
102
RTVSPropertyOp44
 70
     1
102
RTVSPropertyOp45
 70
     1
102
RTVSPropertyOp46
 70
     1
102
RTVSPropertyOp47
 70
     1
102
RTVSPropertyOp48
 70
     1
102
RTVSPropertyOp49
 70
     1
102
RTVSPropertyOp50
 70
     1
102
RTVSPropertyOp51
 70
     0
102
RTVSPropertyOp52
 70
     0
102
RTVSPropertyOp53
 70
     1
102
RTVSPropertyOp54
 70
     1
102
RTVSPropertyOp55
 70
     1
102
RTVSPropertyOp56
 70
     1
102
RTVSPropertyOp57
 70
     1
102
RTVSPropertyOp58
 70
     1
102
RTVSPropertyOp59
 70
     1
102
RTVSPropertyOp60
 70
     1
102
RTVSPropertyOp61
 70
     1
102
RTVSPropertyOp62
 70
     1
  0
XRECORD
  5
8AB3F
102
{ACAD_REACTORS
330
8AB3E
102
}
330
8AB3E
100
AcDbXrecord
280
     1
102
RTVSPost2010Prop28
280
     0
102
RTVSPost2010PropOp28
 70
     1
102
RTVSPost2010Prop29
280
     1
102
RTVSPost2010PropOp29
 70
     1
102
RTVSPost2010Prop30
280
     1
102
RTVSPost2010PropOp30
 70
     1
102
RTVSPost2010Prop31
280
     0
102
RTVSPost2010PropOp31
 70
     1
102
RTVSPost2010Prop32
280
     0
102
RTVSPost2010PropOp32
 70
     1
102
RTVSPost2010Prop33
280
     0
102
RTVSPost2010PropOp33
 70
     1
102
RTVSPost2010Prop34
280
     0
102
RTVSPost2010PropOp34
 70
     1
102
RTVSPost2010Prop35
280
     0
102
RTVSPost2010PropOp35
 70
     1
102
RTVSPost2010Prop36
280
     0
102
RTVSPost2010PropOp36
 70
     1
102
RTVSPost2010Prop37
 90
       50
102
RTVSPost2010PropOp37
 70
     1
102
RTVSPost2010Prop38
140
0.0
102
RTVSPost2010PropOp38
 70
     1
102
RTVSPost2010Prop39
140
1.0
102
RTVSPost2010PropOp39
 70
     1
102
RTVSPost2010Prop40
 90
        0
102
RTVSPost2010PropOp40
 70
     1
102
RTVSPost2010Prop41ColorIndex
 90
       18
102
RTVSPost2010Prop41ColorRGB
 90
        0
102
RTVSPost2010PropOp41
 70
     1
102
RTVSPost2010Prop42
 90
       50
102
RTVSPost2010PropOp42
 70
     1
102
RTVSPost2010Prop43
 90
        3
102
RTVSPost2010PropOp43
 70
     1
102
RTVSPost2010Prop44ColorIndex
 90
        5
102
RTVSPost2010Prop44ColorRGB
 90
      255
102
RTVSPost2010PropOp44
 70
     1
102
RTVSPost2010Prop45
280
     0
102
RTVSPost2010PropOp45
 70
     1
102
RTVSPost2010Prop46
 90
       50
102
RTVSPost2010PropOp46
 70
     1
102
RTVSPost2010Prop47
 90
       50
102
RTVSPost2010PropOp47
 70
     1
102
RTVSPost2010Prop48
 90
       50
102
RTVSPost2010PropOp48
 70
     1
102
RTVSPost2010Prop49
280
     0
102
RTVSPost2010PropOp49
 70
     1
102
RTVSPost2010Prop50
 90
       50
102
RTVSPost2010PropOp50
 70
     1
102
RTVSPost2010Prop51ColorIndex
 90
      256
102
RTVSPost2010Prop51ColorRGB
 90
-16777216
102
RTVSPost2010PropOp51
 70
     0
102
RTVSPost2010Prop52
140
1.0
102
RTVSPost2010PropOp52
 70
     0
102
RTVSPost2010Prop53
 90
        2
102
RTVSPost2010PropOp53
 70
     1
102
RTVSPost2010Prop54
  1
strokes_ogs.tif
102
RTVSPost2010PropOp54
 70
     1
102
RTVSPost2010Prop55
280
     0
102
RTVSPost2010PropOp55
 70
     1
102
RTVSPost2010Prop56
140
1.0
102
RTVSPost2010PropOp56
 70
     1
102
RTVSPost2010Prop57
140
1.0
102
RTVSPost2010PropOp57
 70
     1
102
RTVSPropertyOp0
 70
     1
102
RTVSPropertyOp1
 70
     1
102
RTVSPropertyOp2
 70
     1
102
RTVSPropertyOp3
 70
     1
102
RTVSPropertyOp4
 70
     1
102
RTVSPropertyOp5
 70
     1
102
RTVSPropertyOp6
 70
     1
102
RTVSPropertyOp7
 70
     1
102
RTVSPropertyOp8
 70
     1
102
RTVSPropertyOp9
 70
     1
102
RTVSPropertyOp10
 70
     1
102
RTVSPropertyOp11
 70
     1
102
RTVSPropertyOp12
 70
     1
102
RTVSPropertyOp13
 70
     1
102
RTVSPropertyOp14
 70
     1
102
RTVSPropertyOp15
 70
     1
102
RTVSPropertyOp16
 70
     1
102
RTVSPropertyOp17
 70
     1
102
RTVSPropertyOp18
 70
     1
102
RTVSPropertyOp19
 70
     1
102
RTVSPropertyOp20
 70
     1
102
RTVSPropertyOp21
 70
     1
102
RTVSPropertyOp22
 70
     1
102
RTVSPropertyOp23
 70
     1
102
RTVSPropertyOp24
 70
     1
102
RTVSPropertyOp25
 70
     1
102
RTVSPropertyOp26
 70
     1
102
RTVSPropertyOp27
 70
     1
102
RTVSPropertyOp28
 70
     1
102
RTVSPropertyOp29
 70
     1
102
RTVSPropertyOp30
 70
     1
102
RTVSPropertyOp31
 70
     1
102
RTVSPropertyOp32
 70
     1
102
RTVSPropertyOp33
 70
     1
102
RTVSPropertyOp34
 70
     1
102
RTVSPropertyOp35
 70
     1
102
RTVSPropertyOp36
 70
     1
102
RTVSPropertyOp37
 70
     1
102
RTVSPropertyOp38
 70
     1
102
RTVSPropertyOp39
 70
     1
102
RTVSPropertyOp40
 70
     1
102
RTVSPropertyOp41
 70
     1
102
RTVSPropertyOp42
 70
     1
102
RTVSPropertyOp43
 70
     1
102
RTVSPropertyOp44
 70
     1
102
RTVSPropertyOp45
 70
     1
102
RTVSPropertyOp46
 70
     1
102
RTVSPropertyOp47
 70
     1
102
RTVSPropertyOp48
 70
     1
102
RTVSPropertyOp49
 70
     1
102
RTVSPropertyOp50
 70
     1
102
RTVSPropertyOp51
 70
     0
102
RTVSPropertyOp52
 70
     0
102
RTVSPropertyOp53
 70
     1
102
RTVSPropertyOp54
 70
     1
102
RTVSPropertyOp55
 70
     1
102
RTVSPropertyOp56
 70
     1
102
RTVSPropertyOp57
 70
     1
102
RTVSPropertyOp58
 70
     1
102
RTVSPropertyOp59
 70
     1
102
RTVSPropertyOp60
 70
     1
102
RTVSPropertyOp61
 70
     1
102
RTVSPropertyOp62
 70
     1
  0
XRECORD
  5
8AB41
102
{ACAD_REACTORS
330
8AB40
102
}
330
8AB40
100
AcDbXrecord
280
     1
102
RTVSPost2010Prop28
280
     0
102
RTVSPost2010PropOp28
 70
     1
102
RTVSPost2010Prop29
280
     1
102
RTVSPost2010PropOp29
 70
     1
102
RTVSPost2010Prop30
280
     1
102
RTVSPost2010PropOp30
 70
     1
102
RTVSPost2010Prop31
280
     0
102
RTVSPost2010PropOp31
 70
     1
102
RTVSPost2010Prop32
280
     0
102
RTVSPost2010PropOp32
 70
     1
102
RTVSPost2010Prop33
280
     0
102
RTVSPost2010PropOp33
 70
     1
102
RTVSPost2010Prop34
280
     0
102
RTVSPost2010PropOp34
 70
     1
102
RTVSPost2010Prop35
280
     0
102
RTVSPost2010PropOp35
 70
     1
102
RTVSPost2010Prop36
280
     0
102
RTVSPost2010PropOp36
 70
     1
102
RTVSPost2010Prop37
 90
       50
102
RTVSPost2010PropOp37
 70
     1
102
RTVSPost2010Prop38
140
0.0
102
RTVSPost2010PropOp38
 70
     1
102
RTVSPost2010Prop39
140
1.0
102
RTVSPost2010PropOp39
 70
     1
102
RTVSPost2010Prop40
 90
        0
102
RTVSPost2010PropOp40
 70
     1
102
RTVSPost2010Prop41ColorIndex
 90
       18
102
RTVSPost2010Prop41ColorRGB
 90
        0
102
RTVSPost2010PropOp41
 70
     1
102
RTVSPost2010Prop42
 90
       50
102
RTVSPost2010PropOp42
 70
     1
102
RTVSPost2010Prop43
 90
        3
102
RTVSPost2010PropOp43
 70
     1
102
RTVSPost2010Prop44ColorIndex
 90
        5
102
RTVSPost2010Prop44ColorRGB
 90
      255
102
RTVSPost2010PropOp44
 70
     1
102
RTVSPost2010Prop45
280
     0
102
RTVSPost2010PropOp45
 70
     1
102
RTVSPost2010Prop46
 90
       50
102
RTVSPost2010PropOp46
 70
     1
102
RTVSPost2010Prop47
 90
       50
102
RTVSPost2010PropOp47
 70
     1
102
RTVSPost2010Prop48
 90
       50
102
RTVSPost2010PropOp48
 70
     1
102
RTVSPost2010Prop49
280
     0
102
RTVSPost2010PropOp49
 70
     1
102
RTVSPost2010Prop50
 90
       50
102
RTVSPost2010PropOp50
 70
     1
102
RTVSPost2010Prop51ColorIndex
 90
      256
102
RTVSPost2010Prop51ColorRGB
 90
-16777216
102
RTVSPost2010PropOp51
 70
     0
102
RTVSPost2010Prop52
140
1.0
102
RTVSPost2010PropOp52
 70
     0
102
RTVSPost2010Prop53
 90
        2
102
RTVSPost2010PropOp53
 70
     1
102
RTVSPost2010Prop54
  1
strokes_ogs.tif
102
RTVSPost2010PropOp54
 70
     1
102
RTVSPost2010Prop55
280
     0
102
RTVSPost2010PropOp55
 70
     1
102
RTVSPost2010Prop56
140
1.0
102
RTVSPost2010PropOp56
 70
     1
102
RTVSPost2010Prop57
140
1.0
102
RTVSPost2010PropOp57
 70
     1
102
RTVSPropertyOp0
 70
     1
102
RTVSPropertyOp1
 70
     1
102
RTVSPropertyOp2
 70
     1
102
RTVSPropertyOp3
 70
     1
102
RTVSPropertyOp4
 70
     1
102
RTVSPropertyOp5
 70
     1
102
RTVSPropertyOp6
 70
     1
102
RTVSPropertyOp7
 70
     1
102
RTVSPropertyOp8
 70
     1
102
RTVSPropertyOp9
 70
     1
102
RTVSPropertyOp10
 70
     1
102
RTVSPropertyOp11
 70
     1
102
RTVSPropertyOp12
 70
     1
102
RTVSPropertyOp13
 70
     1
102
RTVSPropertyOp14
 70
     1
102
RTVSPropertyOp15
 70
     1
102
RTVSPropertyOp16
 70
     1
102
RTVSPropertyOp17
 70
     1
102
RTVSPropertyOp18
 70
     1
102
RTVSPropertyOp19
 70
     1
102
RTVSPropertyOp20
 70
     1
102
RTVSPropertyOp21
 70
     1
102
RTVSPropertyOp22
 70
     1
102
RTVSPropertyOp23
 70
     1
102
RTVSPropertyOp24
 70
     1
102
RTVSPropertyOp25
 70
     1
102
RTVSPropertyOp26
 70
     1
102
RTVSPropertyOp27
 70
     1
102
RTVSPropertyOp28
 70
     1
102
RTVSPropertyOp29
 70
     1
102
RTVSPropertyOp30
 70
     1
102
RTVSPropertyOp31
 70
     1
102
RTVSPropertyOp32
 70
     1
102
RTVSPropertyOp33
 70
     1
102
RTVSPropertyOp34
 70
     1
102
RTVSPropertyOp35
 70
     1
102
RTVSPropertyOp36
 70
     1
102
RTVSPropertyOp37
 70
     1
102
RTVSPropertyOp38
 70
     1
102
RTVSPropertyOp39
 70
     1
102
RTVSPropertyOp40
 70
     1
102
RTVSPropertyOp41
 70
     1
102
RTVSPropertyOp42
 70
     1
102
RTVSPropertyOp43
 70
     1
102
RTVSPropertyOp44
 70
     1
102
RTVSPropertyOp45
 70
     1
102
RTVSPropertyOp46
 70
     1
102
RTVSPropertyOp47
 70
     1
102
RTVSPropertyOp48
 70
     1
102
RTVSPropertyOp49
 70
     1
102
RTVSPropertyOp50
 70
     1
102
RTVSPropertyOp51
 70
     0
102
RTVSPropertyOp52
 70
     0
102
RTVSPropertyOp53
 70
     1
102
RTVSPropertyOp54
 70
     1
102
RTVSPropertyOp55
 70
     1
102
RTVSPropertyOp56
 70
     1
102
RTVSPropertyOp57
 70
     1
102
RTVSPropertyOp58
 70
     1
102
RTVSPropertyOp59
 70
     1
102
RTVSPropertyOp60
 70
     1
102
RTVSPropertyOp61
 70
     1
102
RTVSPropertyOp62
 70
     1
  0
XRECORD
  5
8AB31
102
{ACAD_REACTORS
330
8AB30
102
}
330
8AB30
100
AcDbXrecord
280
     1
102
RTVSPost2010Prop28
280
     0
102
RTVSPost2010PropOp28
 70
     1
102
RTVSPost2010Prop29
280
     1
102
RTVSPost2010PropOp29
 70
     1
102
RTVSPost2010Prop30
280
     1
102
RTVSPost2010PropOp30
 70
     1
102
RTVSPost2010Prop31
280
     0
102
RTVSPost2010PropOp31
 70
     1
102
RTVSPost2010Prop32
280
     0
102
RTVSPost2010PropOp32
 70
     1
102
RTVSPost2010Prop33
280
     0
102
RTVSPost2010PropOp33
 70
     1
102
RTVSPost2010Prop34
280
     0
102
RTVSPost2010PropOp34
 70
     1
102
RTVSPost2010Prop35
280
     0
102
RTVSPost2010PropOp35
 70
     1
102
RTVSPost2010Prop36
280
     0
102
RTVSPost2010PropOp36
 70
     1
102
RTVSPost2010Prop37
 90
       50
102
RTVSPost2010PropOp37
 70
     1
102
RTVSPost2010Prop38
140
0.0
102
RTVSPost2010PropOp38
 70
     1
102
RTVSPost2010Prop39
140
1.0
102
RTVSPost2010PropOp39
 70
     1
102
RTVSPost2010Prop40
 90
        0
102
RTVSPost2010PropOp40
 70
     1
102
RTVSPost2010Prop41ColorIndex
 90
       18
102
RTVSPost2010Prop41ColorRGB
 90
        0
102
RTVSPost2010PropOp41
 70
     1
102
RTVSPost2010Prop42
 90
       50
102
RTVSPost2010PropOp42
 70
     1
102
RTVSPost2010Prop43
 90
        3
102
RTVSPost2010PropOp43
 70
     1
102
RTVSPost2010Prop44ColorIndex
 90
        5
102
RTVSPost2010Prop44ColorRGB
 90
      255
102
RTVSPost2010PropOp44
 70
     1
102
RTVSPost2010Prop45
280
     0
102
RTVSPost2010PropOp45
 70
     1
102
RTVSPost2010Prop46
 90
       50
102
RTVSPost2010PropOp46
 70
     1
102
RTVSPost2010Prop47
 90
       50
102
RTVSPost2010PropOp47
 70
     1
102
RTVSPost2010Prop48
 90
       50
102
RTVSPost2010PropOp48
 70
     1
102
RTVSPost2010Prop49
280
     0
102
RTVSPost2010PropOp49
 70
     1
102
RTVSPost2010Prop50
 90
       50
102
RTVSPost2010PropOp50
 70
     1
102
RTVSPost2010Prop51ColorIndex
 90
      256
102
RTVSPost2010Prop51ColorRGB
 90
-16777216
102
RTVSPost2010PropOp51
 70
     0
102
RTVSPost2010Prop52
140
1.0
102
RTVSPost2010PropOp52
 70
     0
102
RTVSPost2010Prop53
 90
        2
102
RTVSPost2010PropOp53
 70
     1
102
RTVSPost2010Prop54
  1
strokes_ogs.tif
102
RTVSPost2010PropOp54
 70
     1
102
RTVSPost2010Prop55
280
     0
102
RTVSPost2010PropOp55
 70
     1
102
RTVSPost2010Prop56
140
1.0
102
RTVSPost2010PropOp56
 70
     1
102
RTVSPost2010Prop57
140
1.0
102
RTVSPost2010PropOp57
 70
     1
102
RTVSPropertyOp0
 70
     1
102
RTVSPropertyOp1
 70
     1
102
RTVSPropertyOp2
 70
     1
102
RTVSPropertyOp3
 70
     1
102
RTVSPropertyOp4
 70
     1
102
RTVSPropertyOp5
 70
     1
102
RTVSPropertyOp6
 70
     1
102
RTVSPropertyOp7
 70
     1
102
RTVSPropertyOp8
 70
     1
102
RTVSPropertyOp9
 70
     1
102
RTVSPropertyOp10
 70
     1
102
RTVSPropertyOp11
 70
     1
102
RTVSPropertyOp12
 70
     1
102
RTVSPropertyOp13
 70
     1
102
RTVSPropertyOp14
 70
     1
102
RTVSPropertyOp15
 70
     1
102
RTVSPropertyOp16
 70
     1
102
RTVSPropertyOp17
 70
     1
102
RTVSPropertyOp18
 70
     1
102
RTVSPropertyOp19
 70
     1
102
RTVSPropertyOp20
 70
     1
102
RTVSPropertyOp21
 70
     1
102
RTVSPropertyOp22
 70
     1
102
RTVSPropertyOp23
 70
     1
102
RTVSPropertyOp24
 70
     1
102
RTVSPropertyOp25
 70
     1
102
RTVSPropertyOp26
 70
     1
102
RTVSPropertyOp27
 70
     1
102
RTVSPropertyOp28
 70
     1
102
RTVSPropertyOp29
 70
     1
102
RTVSPropertyOp30
 70
     1
102
RTVSPropertyOp31
 70
     1
102
RTVSPropertyOp32
 70
     1
102
RTVSPropertyOp33
 70
     1
102
RTVSPropertyOp34
 70
     1
102
RTVSPropertyOp35
 70
     1
102
RTVSPropertyOp36
 70
     1
102
RTVSPropertyOp37
 70
     1
102
RTVSPropertyOp38
 70
     1
102
RTVSPropertyOp39
 70
     1
102
RTVSPropertyOp40
 70
     1
102
RTVSPropertyOp41
 70
     1
102
RTVSPropertyOp42
 70
     1
102
RTVSPropertyOp43
 70
     1
102
RTVSPropertyOp44
 70
     1
102
RTVSPropertyOp45
 70
     1
102
RTVSPropertyOp46
 70
     1
102
RTVSPropertyOp47
 70
     1
102
RTVSPropertyOp48
 70
     1
102
RTVSPropertyOp49
 70
     1
102
RTVSPropertyOp50
 70
     1
102
RTVSPropertyOp51
 70
     0
102
RTVSPropertyOp52
 70
     0
102
RTVSPropertyOp53
 70
     1
102
RTVSPropertyOp54
 70
     1
102
RTVSPropertyOp55
 70
     1
102
RTVSPropertyOp56
 70
     1
102
RTVSPropertyOp57
 70
     1
102
RTVSPropertyOp58
 70
     1
102
RTVSPropertyOp59
 70
     1
102
RTVSPropertyOp60
 70
     1
102
RTVSPropertyOp61
 70
     1
102
RTVSPropertyOp62
 70
     1
  0
XRECORD
  5
8AB23
102
{ACAD_REACTORS
330
8AB22
102
}
330
8AB22
100
AcDbXrecord
280
     1
102
RTVSPost2010Prop28
280
     0
102
RTVSPost2010PropOp28
 70
     1
102
RTVSPost2010Prop29
280
     1
102
RTVSPost2010PropOp29
 70
     1
102
RTVSPost2010Prop30
280
     1
102
RTVSPost2010PropOp30
 70
     1
102
RTVSPost2010Prop31
280
     0
102
RTVSPost2010PropOp31
 70
     1
102
RTVSPost2010Prop32
280
     0
102
RTVSPost2010PropOp32
 70
     1
102
RTVSPost2010Prop33
280
     0
102
RTVSPost2010PropOp33
 70
     1
102
RTVSPost2010Prop34
280
     0
102
RTVSPost2010PropOp34
 70
     1
102
RTVSPost2010Prop35
280
     0
102
RTVSPost2010PropOp35
 70
     1
102
RTVSPost2010Prop36
280
     0
102
RTVSPost2010PropOp36
 70
     1
102
RTVSPost2010Prop37
 90
       50
102
RTVSPost2010PropOp37
 70
     1
102
RTVSPost2010Prop38
140
0.0
102
RTVSPost2010PropOp38
 70
     1
102
RTVSPost2010Prop39
140
1.0
102
RTVSPost2010PropOp39
 70
     1
102
RTVSPost2010Prop40
 90
        0
102
RTVSPost2010PropOp40
 70
     1
102
RTVSPost2010Prop41ColorIndex
 90
       18
102
RTVSPost2010Prop41ColorRGB
 90
        0
102
RTVSPost2010PropOp41
 70
     1
102
RTVSPost2010Prop42
 90
       50
102
RTVSPost2010PropOp42
 70
     1
102
RTVSPost2010Prop43
 90
        3
102
RTVSPost2010PropOp43
 70
     1
102
RTVSPost2010Prop44ColorIndex
 90
        5
102
RTVSPost2010Prop44ColorRGB
 90
      255
102
RTVSPost2010PropOp44
 70
     1
102
RTVSPost2010Prop45
280
     0
102
RTVSPost2010PropOp45
 70
     1
102
RTVSPost2010Prop46
 90
       50
102
RTVSPost2010PropOp46
 70
     1
102
RTVSPost2010Prop47
 90
       50
102
RTVSPost2010PropOp47
 70
     1
102
RTVSPost2010Prop48
 90
       50
102
RTVSPost2010PropOp48
 70
     1
102
RTVSPost2010Prop49
280
     0
102
RTVSPost2010PropOp49
 70
     1
102
RTVSPost2010Prop50
 90
       50
102
RTVSPost2010PropOp50
 70
     1
102
RTVSPost2010Prop51ColorIndex
 90
      256
102
RTVSPost2010Prop51ColorRGB
 90
-16777216
102
RTVSPost2010PropOp51
 70
     0
102
RTVSPost2010Prop52
140
1.0
102
RTVSPost2010PropOp52
 70
     0
102
RTVSPost2010Prop53
 90
        2
102
RTVSPost2010PropOp53
 70
     1
102
RTVSPost2010Prop54
  1
strokes_ogs.tif
102
RTVSPost2010PropOp54
 70
     1
102
RTVSPost2010Prop55
280
     0
102
RTVSPost2010PropOp55
 70
     1
102
RTVSPost2010Prop56
140
1.0
102
RTVSPost2010PropOp56
 70
     1
102
RTVSPost2010Prop57
140
1.0
102
RTVSPost2010PropOp57
 70
     1
102
RTVSPropertyOp0
 70
     1
102
RTVSPropertyOp1
 70
     1
102
RTVSPropertyOp2
 70
     1
102
RTVSPropertyOp3
 70
     1
102
RTVSPropertyOp4
 70
     1
102
RTVSPropertyOp5
 70
     1
102
RTVSPropertyOp6
 70
     1
102
RTVSPropertyOp7
 70
     1
102
RTVSPropertyOp8
 70
     1
102
RTVSPropertyOp9
 70
     1
102
RTVSPropertyOp10
 70
     1
102
RTVSPropertyOp11
 70
     1
102
RTVSPropertyOp12
 70
     1
102
RTVSPropertyOp13
 70
     1
102
RTVSPropertyOp14
 70
     1
102
RTVSPropertyOp15
 70
     1
102
RTVSPropertyOp16
 70
     1
102
RTVSPropertyOp17
 70
     1
102
RTVSPropertyOp18
 70
     1
102
RTVSPropertyOp19
 70
     1
102
RTVSPropertyOp20
 70
     1
102
RTVSPropertyOp21
 70
     1
102
RTVSPropertyOp22
 70
     1
102
RTVSPropertyOp23
 70
     1
102
RTVSPropertyOp24
 70
     1
102
RTVSPropertyOp25
 70
     1
102
RTVSPropertyOp26
 70
     1
102
RTVSPropertyOp27
 70
     1
102
RTVSPropertyOp28
 70
     1
102
RTVSPropertyOp29
 70
     1
102
RTVSPropertyOp30
 70
     1
102
RTVSPropertyOp31
 70
     1
102
RTVSPropertyOp32
 70
     1
102
RTVSPropertyOp33
 70
     1
102
RTVSPropertyOp34
 70
     1
102
RTVSPropertyOp35
 70
     1
102
RTVSPropertyOp36
 70
     1
102
RTVSPropertyOp37
 70
     1
102
RTVSPropertyOp38
 70
     1
102
RTVSPropertyOp39
 70
     1
102
RTVSPropertyOp40
 70
     1
102
RTVSPropertyOp41
 70
     1
102
RTVSPropertyOp42
 70
     1
102
RTVSPropertyOp43
 70
     1
102
RTVSPropertyOp44
 70
     1
102
RTVSPropertyOp45
 70
     1
102
RTVSPropertyOp46
 70
     1
102
RTVSPropertyOp47
 70
     1
102
RTVSPropertyOp48
 70
     1
102
RTVSPropertyOp49
 70
     1
102
RTVSPropertyOp50
 70
     1
102
RTVSPropertyOp51
 70
     0
102
RTVSPropertyOp52
 70
     0
102
RTVSPropertyOp53
 70
     1
102
RTVSPropertyOp54
 70
     1
102
RTVSPropertyOp55
 70
     1
102
RTVSPropertyOp56
 70
     1
102
RTVSPropertyOp57
 70
     1
102
RTVSPropertyOp58
 70
     1
102
RTVSPropertyOp59
 70
     1
102
RTVSPropertyOp60
 70
     1
102
RTVSPropertyOp61
 70
     1
102
RTVSPropertyOp62
 70
     1
  0
XRECORD
  5
8AB43
102
{ACAD_REACTORS
330
8AB42
102
}
330
8AB42
100
AcDbXrecord
280
     1
102
RTVSPost2010Prop28
280
     0
102
RTVSPost2010PropOp28
 70
     1
102
RTVSPost2010Prop29
280
     1
102
RTVSPost2010PropOp29
 70
     1
102
RTVSPost2010Prop30
280
     1
102
RTVSPost2010PropOp30
 70
     1
102
RTVSPost2010Prop31
280
     0
102
RTVSPost2010PropOp31
 70
     1
102
RTVSPost2010Prop32
280
     0
102
RTVSPost2010PropOp32
 70
     1
102
RTVSPost2010Prop33
280
     0
102
RTVSPost2010PropOp33
 70
     1
102
RTVSPost2010Prop34
280
     0
102
RTVSPost2010PropOp34
 70
     1
102
RTVSPost2010Prop35
280
     0
102
RTVSPost2010PropOp35
 70
     1
102
RTVSPost2010Prop36
280
     0
102
RTVSPost2010PropOp36
 70
     1
102
RTVSPost2010Prop37
 90
       50
102
RTVSPost2010PropOp37
 70
     1
102
RTVSPost2010Prop38
140
0.0
102
RTVSPost2010PropOp38
 70
     1
102
RTVSPost2010Prop39
140
1.0
102
RTVSPost2010PropOp39
 70
     1
102
RTVSPost2010Prop40
 90
        0
102
RTVSPost2010PropOp40
 70
     1
102
RTVSPost2010Prop41ColorIndex
 90
       18
102
RTVSPost2010Prop41ColorRGB
 90
        0
102
RTVSPost2010PropOp41
 70
     1
102
RTVSPost2010Prop42
 90
       50
102
RTVSPost2010PropOp42
 70
     1
102
RTVSPost2010Prop43
 90
        3
102
RTVSPost2010PropOp43
 70
     1
102
RTVSPost2010Prop44ColorIndex
 90
        5
102
RTVSPost2010Prop44ColorRGB
 90
      255
102
RTVSPost2010PropOp44
 70
     1
102
RTVSPost2010Prop45
280
     0
102
RTVSPost2010PropOp45
 70
     1
102
RTVSPost2010Prop46
 90
       50
102
RTVSPost2010PropOp46
 70
     1
102
RTVSPost2010Prop47
 90
       50
102
RTVSPost2010PropOp47
 70
     1
102
RTVSPost2010Prop48
 90
       50
102
RTVSPost2010PropOp48
 70
     1
102
RTVSPost2010Prop49
280
     0
102
RTVSPost2010PropOp49
 70
     1
102
RTVSPost2010Prop50
 90
       50
102
RTVSPost2010PropOp50
 70
     1
102
RTVSPost2010Prop51ColorIndex
 90
      256
102
RTVSPost2010Prop51ColorRGB
 90
-16777216
102
RTVSPost2010PropOp51
 70
     0
102
RTVSPost2010Prop52
140
1.0
102
RTVSPost2010PropOp52
 70
     0
102
RTVSPost2010Prop53
 90
        2
102
RTVSPost2010PropOp53
 70
     1
102
RTVSPost2010Prop54
  1
strokes_ogs.tif
102
RTVSPost2010PropOp54
 70
     1
102
RTVSPost2010Prop55
280
     0
102
RTVSPost2010PropOp55
 70
     1
102
RTVSPost2010Prop56
140
1.0
102
RTVSPost2010PropOp56
 70
     1
102
RTVSPost2010Prop57
140
1.0
102
RTVSPost2010PropOp57
 70
     1
102
RTVSPropertyOp0
 70
     1
102
RTVSPropertyOp1
 70
     1
102
RTVSPropertyOp2
 70
     1
102
RTVSPropertyOp3
 70
     1
102
RTVSPropertyOp4
 70
     1
102
RTVSPropertyOp5
 70
     1
102
RTVSPropertyOp6
 70
     1
102
RTVSPropertyOp7
 70
     1
102
RTVSPropertyOp8
 70
     1
102
RTVSPropertyOp9
 70
     1
102
RTVSPropertyOp10
 70
     1
102
RTVSPropertyOp11
 70
     1
102
RTVSPropertyOp12
 70
     1
102
RTVSPropertyOp13
 70
     1
102
RTVSPropertyOp14
 70
     1
102
RTVSPropertyOp15
 70
     1
102
RTVSPropertyOp16
 70
     1
102
RTVSPropertyOp17
 70
     1
102
RTVSPropertyOp18
 70
     1
102
RTVSPropertyOp19
 70
     1
102
RTVSPropertyOp20
 70
     1
102
RTVSPropertyOp21
 70
     1
102
RTVSPropertyOp22
 70
     1
102
RTVSPropertyOp23
 70
     1
102
RTVSPropertyOp24
 70
     1
102
RTVSPropertyOp25
 70
     1
102
RTVSPropertyOp26
 70
     1
102
RTVSPropertyOp27
 70
     1
102
RTVSPropertyOp28
 70
     1
102
RTVSPropertyOp29
 70
     1
102
RTVSPropertyOp30
 70
     1
102
RTVSPropertyOp31
 70
     1
102
RTVSPropertyOp32
 70
     1
102
RTVSPropertyOp33
 70
     1
102
RTVSPropertyOp34
 70
     1
102
RTVSPropertyOp35
 70
     1
102
RTVSPropertyOp36
 70
     1
102
RTVSPropertyOp37
 70
     1
102
RTVSPropertyOp38
 70
     1
102
RTVSPropertyOp39
 70
     1
102
RTVSPropertyOp40
 70
     1
102
RTVSPropertyOp41
 70
     1
102
RTVSPropertyOp42
 70
     1
102
RTVSPropertyOp43
 70
     1
102
RTVSPropertyOp44
 70
     1
102
RTVSPropertyOp45
 70
     1
102
RTVSPropertyOp46
 70
     1
102
RTVSPropertyOp47
 70
     1
102
RTVSPropertyOp48
 70
     1
102
RTVSPropertyOp49
 70
     1
102
RTVSPropertyOp50
 70
     1
102
RTVSPropertyOp51
 70
     0
102
RTVSPropertyOp52
 70
     0
102
RTVSPropertyOp53
 70
     1
102
RTVSPropertyOp54
 70
     1
102
RTVSPropertyOp55
 70
     1
102
RTVSPropertyOp56
 70
     1
102
RTVSPropertyOp57
 70
     1
102
RTVSPropertyOp58
 70
     1
102
RTVSPropertyOp59
 70
     1
102
RTVSPropertyOp60
 70
     1
102
RTVSPropertyOp61
 70
     1
102
RTVSPropertyOp62
 70
     1
  0
ENDSEC
  0
EOF
