  0
SECTION
  2
HEADER
  9
$ACADVER
  1
AC1015
  9
$ACADMAINTVER
 70
     6
  9
$DWGCODEPAGE
  3
ANSI_932
  9
$INSBASE
 10
0.0
 20
0.0
 30
0.0
  9
$EXTMIN
 10
1.000000000000000E+20
 20
1.000000000000000E+20
 30
1.000000000000000E+20
  9
$EXTMAX
 10
-1.000000000000000E+20
 20
-1.000000000000000E+20
 30
-1.000000000000000E+20
  9
$LIMMIN
 10
0.0
 20
0.0
  9
$LIMMAX
 10
420.0
 20
297.0
  9
$ORTHOMODE
 70
     0
  9
$REGENMODE
 70
     1
  9
$FILLMODE
 70
     1
  9
$QTEXTMODE
 70
     0
  9
$MIRRTEXT
 70
     0
  9
$LTSCALE
 40
20.0
  9
$ATTMODE
 70
     2
  9
$TEXTSIZE
 40
10.0
  9
$TRACEWID
 40
1.0
  9
$TEXTSTYLE
  7
ｽﾀｲﾙ3
  9
$CLAYER
  8
0
  9
$CELTYPE
  6
BYLAYER
  9
$CECOLOR
 62
   256
  9
$CELTSCALE
 40
1.0
  9
$DISPSILH
 70
     0
  9
$DIMSCALE
 40
1.5
  9
$DIMASZ
 40
2.5
  9
$DIMEXO
 40
0.8
  9
$DIMDLI
 40
0.38
  9
$DIMRND
 40
0.0
  9
$DIMDLE
 40
0.0
  9
$DIMEXE
 40
0.18
  9
$DIMTP
 40
0.0
  9
$DIMTM
 40
0.0
  9
$DIMTXT
 40
3.0
  9
$DIMCEN
 40
0.0
  9
$DIMTSZ
 40
0.0
  9
$DIMTOL
 70
     0
  9
$DIMLIM
 70
     0
  9
$DIMTIH
 70
     0
  9
$DIMTOH
 70
     0
  9
$DIMSE1
 70
     0
  9
$DIMSE2
 70
     0
  9
$DIMTAD
 70
     3
  9
$DIMZIN
 70
     8
  9
$DIMBLK
  1
Open30
  9
$DIMASO
 70
     1
  9
$DIMSHO
 70
     1
  9
$DIMPOST
  1

  9
$DIMAPOST
  1

  9
$DIMALT
 70
     0
  9
$DIMALTD
 70
     2
  9
$DIMALTF
 40
25.4
  9
$DIMLFAC
 40
1.0
  9
$DIMTOFL
 70
     0
  9
$DIMTVP
 40
0.0
  9
$DIMTIX
 70
     0
  9
$DIMSOXD
 70
     0
  9
$DIMSAH
 70
     0
  9
$DIMBLK1
  1

  9
$DIMBLK2
  1

  9
$DIMSTYLE
  2
まこ
  9
$DIMCLRD
 70
     4
  9
$DIMCLRE
 70
     4
  9
$DIMCLRT
 70
   256
  9
$DIMTFAC
 40
1.0
  9
$DIMGAP
 40
0.5
  9
$DIMJUST
 70
     0
  9
$DIMSD1
 70
     0
  9
$DIMSD2
 70
     0
  9
$DIMTOLJ
 70
     1
  9
$DIMTZIN
 70
     0
  9
$DIMALTZ
 70
     0
  9
$DIMALTTZ
 70
     0
  9
$DIMUPT
 70
     0
  9
$DIMDEC
 70
     8
  9
$DIMTDEC
 70
     8
  9
$DIMALTU
 70
     2
  9
$DIMALTTD
 70
     2
  9
$DIMTXSTY
  7
まこ
  9
$DIMAUNIT
 70
     0
  9
$DIMADEC
 70
     0
  9
$DIMALTRND
 40
0.0
  9
$DIMAZIN
 70
     0
  9
$DIMDSEP
 70
    46
  9
$DIMATFIT
 70
     1
  9
$DIMFRAC
 70
     0
  9
$DIMLDRBLK
  1
Open30
  9
$DIMLUNIT
 70
     2
  9
$DIMLWD
 70
    13
  9
$DIMLWE
 70
    13
  9
$DIMTMOVE
 70
     0
  9
$LUNITS
 70
     2
  9
$LUPREC
 70
     4
  9
$SKETCHINC
 40
1.0
  9
$FILLETRAD
 40
2.0
  9
$AUNITS
 70
     0
  9
$AUPREC
 70
     0
  9
$MENU
  1
.
  9
$ELEVATION
 40
0.0
  9
$PELEVATION
 40
0.0
  9
$THICKNESS
 40
0.0
  9
$LIMCHECK
 70
     0
  9
$CHAMFERA
 40
1.0
  9
$CHAMFERB
 40
1.0
  9
$CHAMFERC
 40
20.0
  9
$CHAMFERD
 40
0.0
  9
$SKPOLY
 70
     0
  9
$TDCREATE
 40
2451224.660162384
  9
$TDUCREATE
 40
2451224.285162384
  9
$TDUPDATE
 40
2457472.48292191
  9
$TDUUPDATE
 40
2457472.10792191
  9
$TDINDWG
 40
17.5650049306
  9
$TDUSRTIMER
 40
2457472.10780978
  9
$USRTIMER
 70
     1
  9
$ANGBASE
 50
0.0
  9
$ANGDIR
 70
     0
  9
$PDMODE
 70
     0
  9
$PDSIZE
 40
0.0
  9
$PLINEWID
 40
0.0
  9
$SPLFRAME
 70
     0
  9
$SPLINETYPE
 70
     6
  9
$SPLINESEGS
 70
     8
  9
$HANDSEED
  5
2BCE2
  9
$SURFTAB1
 70
     6
  9
$SURFTAB2
 70
     6
  9
$SURFTYPE
 70
     6
  9
$SURFU
 70
     6
  9
$SURFV
 70
     6
  9
$UCSBASE
  2

  9
$UCSNAME
  2

  9
$UCSORG
 10
0.0
 20
0.0
 30
0.0
  9
$UCSXDIR
 10
1.0
 20
0.0
 30
0.0
  9
$UCSYDIR
 10
0.0
 20
1.0
 30
0.0
  9
$UCSORTHOREF
  2

  9
$UCSORTHOVIEW
 70
     0
  9
$UCSORGTOP
 10
0.0
 20
0.0
 30
0.0
  9
$UCSORGBOTTOM
 10
0.0
 20
0.0
 30
0.0
  9
$UCSORGLEFT
 10
0.0
 20
0.0
 30
0.0
  9
$UCSORGRIGHT
 10
0.0
 20
0.0
 30
0.0
  9
$UCSORGFRONT
 10
0.0
 20
0.0
 30
0.0
  9
$UCSORGBACK
 10
0.0
 20
0.0
 30
0.0
  9
$PUCSBASE
  2

  9
$PUCSNAME
  2

  9
$PUCSORG
 10
0.0
 20
0.0
 30
0.0
  9
$PUCSXDIR
 10
1.0
 20
0.0
 30
0.0
  9
$PUCSYDIR
 10
0.0
 20
1.0
 30
0.0
  9
$PUCSORTHOREF
  2

  9
$PUCSORTHOVIEW
 70
     0
  9
$PUCSORGTOP
 10
0.0
 20
0.0
 30
0.0
  9
$PUCSORGBOTTOM
 10
0.0
 20
0.0
 30
0.0
  9
$PUCSORGLEFT
 10
0.0
 20
0.0
 30
0.0
  9
$PUCSORGRIGHT
 10
0.0
 20
0.0
 30
0.0
  9
$PUCSORGFRONT
 10
0.0
 20
0.0
 30
0.0
  9
$PUCSORGBACK
 10
0.0
 20
0.0
 30
0.0
  9
$USERI1
 70
     0
  9
$USERI2
 70
     0
  9
$USERI3
 70
     0
  9
$USERI4
 70
     0
  9
$USERI5
 70
     0
  9
$USERR1
 40
245.9999999999999
  9
$USERR2
 40
0.0
  9
$USERR3
 40
0.0
  9
$USERR4
 40
0.0
  9
$USERR5
 40
0.0
  9
$WORLDVIEW
 70
     1
  9
$SHADEDGE
 70
     3
  9
$SHADEDIF
 70
    70
  9
$TILEMODE
 70
     0
  9
$MAXACTVP
 70
    48
  9
$PINSBASE
 10
0.0
 20
0.0
 30
0.0
  9
$PLIMCHECK
 70
     0
  9
$PEXTMIN
 10
0.0
 20
0.0
 30
0.0
  9
$PEXTMAX
 10
400.0
 20
288.0
 30
0.0
  9
$PLIMMIN
 10
-5.193323039737265
 20
-3.427438357051055
  9
$PLIMMAX
 10
414.9650021555752
 20
293.6043914769333
  9
$UNITMODE
 70
     0
  9
$VISRETAIN
 70
     1
  9
$PLINEGEN
 70
     0
  9
$PSLTSCALE
 70
     0
  9
$TREEDEPTH
 70
  3020
  9
$CMLSTYLE
  2
STANDARD
  9
$CMLJUST
 70
     0
  9
$CMLSCALE
 40
20.0
  9
$PROXYGRAPHICS
 70
     1
  9
$MEASUREMENT
 70
     0
  9
$CELWEIGHT
370
    -1
  9
$ENDCAPS
280
     0
  9
$JOINSTYLE
280
     0
  9
$LWDISPLAY
290
     0
  9
$INSUNITS
 70
     0
  9
$HYPERLINKBASE
  1

  9
$STYLESHEET
  1
monochrome.ctb
  9
$XEDIT
290
     1
  9
$CEPSNTYPE
380
     0
  9
$PSTYLEMODE
290
     1
  9
$FINGERPRINTGUID
  2
{D14EE3FF-941A-415A-9907-344E0A80D794}
  9
$VERSIONGUID
  2
{1D57C399-0440-4670-8C59-133F1B65D045}
  9
$EXTNAMES
290
     1
  9
$PSVPSCALE
 40
0.0
  9
$OLESTARTUP
290
     0
  0
ENDSEC
  0
SECTION
  2
CLASSES
  0
CLASS
  1
HATCH
  2
AcDbHatch
  3
ObjectDBX Classes
 90
        0
280
     0
281
     1
  0
CLASS
  1
LWPOLYLINE
  2
AcDbPolyline
  3
ObjectDBX Classes
 90
        0
280
     0
281
     1
  0
CLASS
  1
ACDBDICTIONARYWDFLT
  2
AcDbDictionaryWithDefault
  3
ObjectDBX Classes
 90
        0
280
     0
281
     0
  0
CLASS
  1
ACDBPLACEHOLDER
  2
AcDbPlaceHolder
  3
ObjectDBX Classes
 90
        0
280
     0
281
     0
  0
CLASS
  1
LAYOUT
  2
AcDbLayout
  3
ObjectDBX Classes
 90
        0
280
     0
281
     0
  0
CLASS
  1
LONG_TRANSACTION
  2
AcDbLongTransaction
  3
ObjectDBX Classes
 90
        0
280
     0
281
     0
  0
CLASS
  1
LWPOLYLINE
  2
AcDbPolyline
  3
ObjectDBX Classes
 90
        0
280
     0
281
     1
  0
CLASS
  1
HATCH
  2
AcDbHatch
  3
ObjectDBX Classes
 90
        0
280
     0
281
     1
  0
CLASS
  1
XRECORD
  2
AcDbXrecord
  3
ObjectDBX Classes
 90
        0
280
     0
281
     0
  0
CLASS
  1
DICTIONARYVAR
  2
AcDbDictionaryVar
  3
ObjectDBX Classes
 90
        0
280
     0
281
     0
  0
CLASS
  1
VISUALSTYLE
  2
AcDbVisualStyle
  3
ObjectDBX Classes
 90
     4095
280
     0
281
     0
  0
CLASS
  1
SCALE
  2
AcDbScale
  3
ObjectDBX Classes
 90
     1153
280
     0
281
     0
  0
CLASS
  1
MATERIAL
  2
AcDbMaterial
  3
ObjectDBX Classes
 90
     1153
280
     0
281
     0
  0
CLASS
  1
TABLESTYLE
  2
AcDbTableStyle
  3
ObjectDBX Classes
 90
     4095
280
     0
281
     0
  0
CLASS
  1
MLEADERSTYLE
  2
AcDbMLeaderStyle
  3
ACDB_MLEADERSTYLE_CLASS
 90
     4095
280
     0
281
     0
  0
CLASS
  1
SUN
  2
AcDbSun
  3
SCENEOE
 90
     1153
280
     0
281
     0
  0
CLASS
  1
RASTERVARIABLES
  2
AcDbRasterVariables
  3
ISM
 90
        0
280
     0
281
     0
  0
ENDSEC
  0
SECTION
  2
TABLES
  0
TABLE
  2
VPORT
  5
8
330
0
100
AcDbSymbolTable
 70
     1
  0
VPORT
  5
2BB20
330
8
100
AcDbSymbolTableRecord
100
AcDbViewportTableRecord
  2
*Active
 70
     0
 10
0.0
 20
0.0
 11
1.0
 21
1.0
 12
1743.103691638848
 22
-2975.188224067925
 13
0.0
 23
0.0
 14
10.0
 24
10.0
 15
10.0
 25
10.0
 16
0.0
 26
0.0
 36
1.0
 17
0.0
 27
0.0
 37
0.0
 40
160.3093493013277
 41
1.814955640050697
 42
50.0
 43
0.0
 44
0.0
 50
0.0
 51
0.0
 71
    16
 72
   100
 73
     1
 74
     0
 75
     0
 76
     0
 77
     0
 78
     0
281
     0
 65
     1
110
0.0
120
0.0
130
0.0
111
1.0
121
0.0
131
0.0
112
0.0
122
1.0
132
0.0
 79
     0
146
0.0
  0
ENDTAB
  0
TABLE
  2
LTYPE
  5
5
330
0
100
AcDbSymbolTable
 70
     7
  0
LTYPE
  5
12
330
5
100
AcDbSymbolTableRecord
100
AcDbLinetypeTableRecord
  2
BYBLOCK
 70
     0
  3

 72
    65
 73
     0
 40
0.0
  0
LTYPE
  5
13
330
5
100
AcDbSymbolTableRecord
100
AcDbLinetypeTableRecord
  2
BYLAYER
 70
     0
  3

 72
    65
 73
     0
 40
0.0
  0
LTYPE
  5
14
330
5
100
AcDbSymbolTableRecord
100
AcDbLinetypeTableRecord
  2
CONTINUOUS
 70
     0
  3
Solid line
 72
    65
 73
     0
 40
0.0
  0
LTYPE
  5
126C
330
5
100
AcDbSymbolTableRecord
100
AcDbLinetypeTableRecord
  2
CENTER
 70
     0
  3
____ _ ____ _ ____ _ ____ _ ____ _ ____ _ ____
 72
    65
 73
     4
 40
2.0
 49
1.25
 74
     0
 49
-0.25
 74
     0
 49
0.25
 74
     0
 49
-0.25
 74
     0
  0
LTYPE
  5
126E
330
5
100
AcDbSymbolTableRecord
100
AcDbLinetypeTableRecord
  2
DASHDOT
 70
     0
  3
__ . __ . __ . __ . __ . __ . __ . __ . __ . __
 72
    65
 73
     4
 40
1.0
 49
0.5
 74
     0
 49
-0.25
 74
     0
 49
0.0
 74
     0
 49
-0.25
 74
     0
  0
LTYPE
  5
1541F
330
5
100
AcDbSymbolTableRecord
100
AcDbLinetypeTableRecord
  2
HIDDEN
 70
     0
  3
_ _ _ _ _ _ _ _ _ _ _ _ _ _ _ _ _ _ _ _ _ _ _
 72
    65
 73
     2
 40
0.375
 49
0.25
 74
     0
 49
-0.125
 74
     0
  0
LTYPE
  5
15421
330
5
100
AcDbSymbolTableRecord
100
AcDbLinetypeTableRecord
  2
PHANTOM2
 70
     0
  3
Phantom (.5x) ___ _ _ ___ _ _ ___ _ _ ___ _ _
 72
    65
 73
     6
 40
1.25
 49
0.625
 74
     0
 49
-0.125
 74
     0
 49
0.125
 74
     0
 49
-0.125
 74
     0
 49
0.125
 74
     0
 49
-0.125
 74
     0
  0
ENDTAB
  0
TABLE
  2
LAYER
  5
2
102
{ACAD_XDICTIONARY
360
25084
102
}
330
0
100
AcDbSymbolTable
 70
    11
  0
LAYER
  5
E
330
2
100
AcDbSymbolTableRecord
100
AcDbLayerTableRecord
  2
0
 70
     2
 62
     7
  6
CONTINUOUS
370
    35
390
FB5C
  0
LAYER
  5
2C
330
2
100
AcDbSymbolTableRecord
100
AcDbLayerTableRecord
  2
M_VIEW
 70
     4
 62
    -1
  6
CONTINUOUS
370
    -3
390
FB5C
  0
LAYER
  5
30
330
2
100
AcDbSymbolTableRecord
100
AcDbLayerTableRecord
  2
FRAME025
 70
     0
 62
     7
  6
CONTINUOUS
370
    -3
390
FB5C
  0
LAYER
  5
651
330
2
100
AcDbSymbolTableRecord
100
AcDbLayerTableRecord
  2
FRAME020
 70
     0
 62
    -7
  6
CONTINUOUS
370
    -3
390
FB5C
  0
LAYER
  5
A9BB
330
2
100
AcDbSymbolTableRecord
100
AcDbLayerTableRecord
  2
文字
 70
     0
 62
     2
  6
CONTINUOUS
370
    30
390
FB5C
  0
LAYER
  5
122DE
330
2
100
AcDbSymbolTableRecord
100
AcDbLayerTableRecord
  2
dimension
 70
     0
 62
    -4
  6
CONTINUOUS
370
    13
390
FB5C
  0
ENDTAB
  0
TABLE
  2
STYLE
  5
3
330
0
100
AcDbSymbolTable
 70
     8
  0
STYLE
  5
F
330
3
100
AcDbSymbolTableRecord
100
AcDbTextStyleTableRecord
  2
STANDARD
 70
     0
 40
0.0
 41
1.0
 50
0.0
 71
     0
 42
2.5
  3
isocp.shx
  4
bigfont.shx
  0
STYLE
  5
35
330
3
100
AcDbSymbolTableRecord
100
AcDbTextStyleTableRecord
  2
MSｺﾞｼｯｸ
 70
     0
 40
0.0
 41
1.0
 50
0.0
 71
     0
 42
5.0
  3
MS Gothic.ttf
  4

1001
ACAD
1000
MS Gothic
1071
    32817
  0
STYLE
  5
1275
330
3
100
AcDbSymbolTableRecord
100
AcDbTextStyleTableRecord
  2
BIGFONT
 70
     0
 40
2.0
 41
1.0
 50
0.0
 71
     0
 42
2.0
  3
txt.shx
  4
bigfont.shx
  0
STYLE
  5
1A849
330
3
100
AcDbSymbolTableRecord
100
AcDbTextStyleTableRecord
  2
まこ
 70
     0
 40
0.0
 41
1.0
 50
0.0
 71
     0
 42
2.5
  3
simplex.shx
  4
bigfont.shx
  0
STYLE
  5
1A84A
330
3
100
AcDbSymbolTableRecord
100
AcDbTextStyleTableRecord
  2
ｽﾀｲﾙ3
 70
     0
 40
10.0
 41
1.0
 50
0.0
 71
     0
 42
10.0
  3
isocp.shx
  4
extfont.shx
  0
ENDTAB
  0
TABLE
  2
VIEW
  5
6
330
0
100
AcDbSymbolTable
 70
     0
  0
ENDTAB
  0
TABLE
  2
UCS
  5
7
330
0
100
AcDbSymbolTable
 70
     0
  0
ENDTAB
  0
TABLE
  2
APPID
  5
9
330
0
100
AcDbSymbolTable
 70
     5
  0
APPID
  5
10
330
9
100
AcDbSymbolTableRecord
100
AcDbRegAppTableRecord
  2
ACAD
 70
     0
  0
APPID
  5
F013
330
9
100
AcDbSymbolTableRecord
100
AcDbRegAppTableRecord
  2
CONTENTBLOCKDESCRIPTION
 70
     0
  0
APPID
  5
F014
330
9
100
AcDbSymbolTableRecord
100
AcDbRegAppTableRecord
  2
CONTENTBLOCKICON
 70
     0
  0
APPID
  5
1A9A0
330
9
100
AcDbSymbolTableRecord
100
AcDbRegAppTableRecord
  2
DCO15
 70
     0
  0
APPID
  5
2BC3F
330
9
100
AcDbSymbolTableRecord
100
AcDbRegAppTableRecord
  2
PE_CLOUD
 70
     0
  0
ENDTAB
  0
TABLE
  2
DIMSTYLE
  5
A
330
0
100
AcDbSymbolTable
 70
     4
100
AcDbDimStyleTable
  0
DIMSTYLE
105
1D
330
A
100
AcDbSymbolTableRecord
100
AcDbDimStyleTableRecord
  2
STANDARD
 70
     0
178
     0
340
F
  0
DIMSTYLE
105
1A84D
330
A
100
AcDbSymbolTableRecord
100
AcDbDimStyleTableRecord
  2
まこ
 70
     0
 40
1.5
 41
2.5
 42
0.8
 73
     0
 74
     0
 77
     3
 78
     8
140
3.0
141
0.0
147
0.5
176
     4
177
     4
271
     8
178
   256
271
     8
272
     8
289
     1
340
1A849
341
1215D
342
1215D
371
    13
372
    13
  0
ENDTAB
  0
TABLE
  2
BLOCK_RECORD
  5
1
330
0
100
AcDbSymbolTable
 70
     3
  0
BLOCK_RECORD
  5
18
330
1
100
AcDbSymbolTableRecord
100
AcDbBlockTableRecord
  2
*MODEL_SPACE
340
FB5D
  0
BLOCK_RECORD
  5
2A9D8
330
1
100
AcDbSymbolTableRecord
100
AcDbBlockTableRecord
  2
*PAPER_SPACE
340
2AAC9
  0
BLOCK_RECORD
  5
115C
330
1
100
AcDbSymbolTableRecord
100
AcDbBlockTableRecord
  2
機械A4横_LBP
340
0
102
{BLKREFS
331
187D7
331
2AA7F
102
}
  0
BLOCK_RECORD
  5
1215D
330
1
100
AcDbSymbolTableRecord
100
AcDbBlockTableRecord
  2
_Open30
340
0
  0
ENDTAB
  0
ENDSEC
  0
SECTION
  2
BLOCKS
  0
BLOCK
  5
19
330
18
100
AcDbEntity
  8
0
100
AcDbBlockBegin
  2
*MODEL_SPACE
 70
     0
 10
0.0
 20
0.0
 30
0.0
  3
*MODEL_SPACE
  1
*MODEL_SPACE
  0
ENDBLK
  5
1A
330
18
100
AcDbEntity
  8
0
100
AcDbBlockEnd
  0
BLOCK
  5
2AAC7
330
2A9D8
100
AcDbEntity
 67
     1
  8
0
100
AcDbBlockBegin
  2
*PAPER_SPACE
 70
     0
 10
0.0
 20
0.0
 30
0.0
  3
*PAPER_SPACE
  1
*PAPER_SPACE
  0
ENDBLK
  5
2AAC8
330
2A9D8
100
AcDbEntity
 67
     1
  8
0
100
AcDbBlockEnd
  0
BLOCK
  5
115D
330
115C
100
AcDbEntity
  8
0
100
AcDbBlockBegin
  2
機械A4横_LBP
 70
     0
 10
0.0
 20
0.0
 30
0.0
  3
機械A4横_LBP
  1
機械A4横_LBP
  0
ENDBLK
  5
115E
330
115C
100
AcDbEntity
  8
0
100
AcDbBlockEnd
  0
BLOCK
  5
12161
330
1215D
100
AcDbEntity
  8
0
100
AcDbBlockBegin
  2
_Open30
 70
     0
 10
0.0
 20
0.0
 30
0.0
  3
_Open30
  1
_Open30
  0
LINE
  5
1215E
330
1215D
100
AcDbEntity
  8
0
  6
ByBlock
 62
     0
370
    -2
100
AcDbLine
 10
-1.0
 20
0.26794919
 30
0.0
 11
0.0
 21
0.0
 31
0.0
  0
LINE
  5
1215F
330
1215D
100
AcDbEntity
  8
0
  6
ByBlock
 62
     0
370
    -2
100
AcDbLine
 10
0.0
 20
0.0
 30
0.0
 11
-1.0
 21
-0.26794919
 31
0.0
  0
LINE
  5
12160
330
1215D
100
AcDbEntity
  8
0
  6
ByBlock
 62
     0
370
    -2
100
AcDbLine
 10
0.0
 20
0.0
 30
0.0
 11
-1.0
 21
0.0
 31
0.0
  0
ENDBLK
  5
12162
330
1215D
100
AcDbEntity
  8
0
100
AcDbBlockEnd
  0
ENDSEC
  0
SECTION
  2
ENTITIES
  0
MTEXT
  5
176FC
330
18
100
AcDbEntity
  8
dimension
 62
     2
100
AcDbMText
 10
-100.7823601383244
 20
171.6213144128391
 30
0.0
 40
8.0
 41
0.0
 71
     4
 72
     1
  1

 73
     1
 44
1.0
  0
MTEXT
  5
187CB
330
18
100
AcDbEntity
  8
0
  6
ByBlock
100
AcDbMText
 10
325.4874764241681
 20
2232.511722574347
 30
0.0
 40
2.0
 41
0.0
 71
     4
 72
     5
  1

 11
-2.000000000000000E-16
 21
-1.0
 31
0.0
 73
     1
 44
1.0
  0
MTEXT
  5
187CC
330
18
100
AcDbEntity
  8
0
  6
ByBlock
100
AcDbMText
 10
360.9528647873209
 20
2221.718414215929
 30
0.0
 40
2.0
 41
0.0
 71
     7
 72
     5
  1

 11
1.000000000000000E-16
 21
1.0
 31
0.0
 73
     1
 44
1.0
  0
MTEXT
  5
187CD
330
18
100
AcDbEntity
  8
0
100
AcDbMText
 10
325.1733668026533
 20
2146.93890367364
 30
0.0
 40
2.0
 41
10.1453
 71
     1
 72
     5
  1

 11
-2.000000000000000E-16
 21
-1.0
 31
0.0
 73
     1
 44
1.0
  0
MTEXT
  5
187CE
330
18
100
AcDbEntity
  8
0
100
AcDbMText
 10
280.7738750495033
 20
2115.30742008065
 30
0.0
 40
2.0
 41
0.0
 71
     1
 72
     5
  1

 73
     1
 44
1.0
  0
MTEXT
  5
187CF
330
18
100
AcDbEntity
  8
0
  6
CENTER
100
AcDbMText
 10
606.3621522332663
 20
2216.239946825076
 30
0.0
 40
2.0
 41
15.6417
 71
     1
 72
     5
  1

  7
BIGFONT
 73
     1
 44
1.0
  0
MTEXT
  5
187D0
330
18
100
AcDbEntity
  8
0
  6
DASHDOT
100
AcDbMText
 10
368.6842112890945
 20
2323.029441652852
 30
0.0
 40
1.0
 41
2.0
 71
     1
 72
     5
  1

  7
BIGFONT
 73
     1
 44
1.0
  0
MTEXT
  5
187D1
330
18
100
AcDbEntity
  8
0
  6
ByBlock
100
AcDbMText
 10
325.4873894192178
 20
2232.511722574347
 30
0.0
 40
2.0
 41
0.0
 71
     4
 72
     5
  1

 11
-2.000000000000000E-16
 21
-1.0
 31
0.0
 73
     1
 44
1.0
  0
MTEXT
  5
187D2
330
18
100
AcDbEntity
  8
0
  6
ByBlock
100
AcDbMText
 10
360.9527777823707
 20
2221.718414215929
 30
0.0
 40
2.0
 41
0.0
 71
     7
 72
     5
  1

 11
1.000000000000000E-16
 21
1.0
 31
0.0
 73
     1
 44
1.0
  0
MTEXT
  5
187D3
330
18
100
AcDbEntity
  8
0
100
AcDbMText
 10
325.1732797977029
 20
2146.93890367364
 30
0.0
 40
2.0
 41
10.1453
 71
     1
 72
     5
  1

 11
-2.000000000000000E-16
 21
-1.0
 31
0.0
 73
     1
 44
1.0
  0
MTEXT
  5
187D4
330
18
100
AcDbEntity
  8
0
100
AcDbMText
 10
280.773788044553
 20
2115.30742008065
 30
0.0
 40
2.0
 41
0.0
 71
     1
 72
     5
  1

 73
     1
 44
1.0
  0
MTEXT
  5
187D5
330
18
100
AcDbEntity
  8
0
  6
CENTER
100
AcDbMText
 10
606.3620652283159
 20
2216.239946825076
 30
0.0
 40
2.0
 41
15.6417
 71
     1
 72
     5
  1

  7
BIGFONT
 73
     1
 44
1.0
  0
MTEXT
  5
187D6
330
18
100
AcDbEntity
  8
0
  6
DASHDOT
100
AcDbMText
 10
368.6841242841443
 20
2323.029441652852
 30
0.0
 40
1.0
 41
2.0
 71
     1
 72
     5
  1

  7
BIGFONT
 73
     1
 44
1.0
  0
INSERT
  5
187D7
330
18
100
AcDbEntity
  8
FRAME025
100
AcDbBlockReference
  2
機械A4横_LBP
 10
271.0019941658661
 20
2006.88884056487
 30
0.0
  0
TEXT
  5
216E7
330
18
100
AcDbEntity
  8
FRAME020
  6
Continuous
100
AcDbText
 10
1272.84444499335
 20
-2736.187561819854
 30
0.0
 40
3.0
  1

 50
270.0
100
AcDbText
  0
MTEXT
  5
21ACC
330
18
100
AcDbEntity
  8
0
100
AcDbMText
 10
62.91095225984049
 20
-1280.130762802908
 30
0.0
 40
2.5
 41
0.625
 71
     9
 72
     1
  1

 73
     1
 44
1.0
  0
LINE
  5
2A2BC
330
18
100
AcDbEntity
  8
0
 48
0.3
370
    30
100
AcDbLine
 10
1624.262866506024
 20
-3027.105209704529
 30
0.0
 11
1686.262866506024
 21
-3027.105209704529
 31
0.0
  0
LINE
  5
2A2BD
330
18
100
AcDbEntity
  8
0
 48
0.3
370
    30
100
AcDbLine
 10
1624.262866506024
 20
-2897.105209704529
 30
0.0
 11
1686.262866506024
 21
-2897.105209704529
 31
0.0
  0
LINE
  5
2A2C3
330
18
100
AcDbEntity
  8
0
 48
0.3
370
    30
100
AcDbLine
 10
1623.391312318064
 20
-3011.975427617288
 30
0.0
 11
1624.263932639928
 21
-2961.983042859469
 31
0.0
  0
LINE
  5
2A2C4
330
18
100
AcDbEntity
  8
0
 48
0.3
370
    30
100
AcDbLine
 10
1638.261800372118
 20
-2962.227376549591
 30
0.0
 11
1637.389180050253
 21
-3012.21976130741
 31
0.0
  0
LINE
  5
2A2C5
330
18
100
AcDbEntity
  8
0
 48
0.3
370
    30
100
AcDbLine
 10
1639.391312318064
 20
-3011.975427617288
 30
0.0
 11
1640.263932639928
 21
-2961.983042859469
 31
0.0
  0
LINE
  5
2A2C6
330
18
100
AcDbEntity
  8
0
 48
0.3
370
    30
100
AcDbLine
 10
1654.261800372118
 20
-2962.227376549591
 30
0.0
 11
1653.389180050253
 21
-3012.21976130741
 31
0.0
  0
LINE
  5
2A2C7
330
18
100
AcDbEntity
  8
0
 48
0.3
370
    30
100
AcDbLine
 10
1655.391312318064
 20
-3011.975427617288
 30
0.0
 11
1656.263932639928
 21
-2961.983042859469
 31
0.0
  0
LINE
  5
2A2C8
330
18
100
AcDbEntity
  8
0
 48
0.3
370
    30
100
AcDbLine
 10
1670.261800372118
 20
-2962.227376549591
 30
0.0
 11
1669.389180050253
 21
-3012.21976130741
 31
0.0
  0
LINE
  5
2A2C9
330
18
100
AcDbEntity
  8
0
 48
0.3
370
    30
100
AcDbLine
 10
1671.391312318064
 20
-3011.975427617288
 30
0.0
 11
1672.263932639928
 21
-2961.983042859469
 31
0.0
  0
LINE
  5
2A2CA
330
18
100
AcDbEntity
  8
0
 48
0.3
370
    30
100
AcDbLine
 10
1686.261800372118
 20
-2962.227376549591
 30
0.0
 11
1685.389180050253
 21
-3012.21976130741
 31
0.0
  0
LINE
  5
2A2D2
330
18
100
AcDbEntity
  8
0
 48
0.3
370
    30
100
AcDbLine
 10
1623.262866506024
 20
-2898.105209704529
 30
0.0
 11
1623.262866506024
 21
-3026.105209704529
 31
0.0
  0
LINE
  5
2A2D4
330
18
100
AcDbEntity
  8
0
 48
0.3
370
    30
100
AcDbLine
 10
1669.389180050253
 20
-3012.21976130741
 30
0.0
 11
1655.391312318064
 21
-3011.975427617288
 31
0.0
  0
LINE
  5
2A2D6
330
18
100
AcDbEntity
  8
0
 48
0.3
370
    30
100
AcDbLine
 10
1637.389180050253
 20
-3012.21976130741
 30
0.0
 11
1623.391312318064
 21
-3011.975427617288
 31
0.0
  0
LINE
  5
2A2D7
330
18
100
AcDbEntity
  8
0
 48
0.3
370
    30
100
AcDbLine
 10
1623.262866506024
 20
-3026.105209704529
 30
0.0
 11
1624.262866506024
 21
-3027.105209704529
 31
0.0
  0
LINE
  5
2A2D8
330
18
100
AcDbEntity
  8
0
 48
0.3
370
    30
100
AcDbLine
 10
1653.389180050253
 20
-3012.21976130741
 30
0.0
 11
1639.391312318064
 21
-3011.975427617288
 31
0.0
  0
LINE
  5
2A2D9
330
18
100
AcDbEntity
  8
0
  6
CENTER
 48
0.3
370
    13
100
AcDbLine
 10
1655.262866506024
 20
-3011.605209704529
 30
0.0
 11
1655.262866506024
 21
-3027.605209704529
 31
0.0
  0
ARC
  5
2A2DA
330
18
100
AcDbEntity
  8
0
 48
0.3
370
    30
100
AcDbCircle
 10
1654.762866506024
 20
-3019.605209704529
 30
0.0
 40
3.0
100
AcDbArc
 50
90.0
 51
270.0
  0
ARC
  5
2A2DB
330
18
100
AcDbEntity
  8
0
 48
0.3
370
    30
100
AcDbCircle
 10
1655.762866506024
 20
-3019.605209704529
 30
0.0
 40
3.0
100
AcDbArc
 50
270.0
 51
90.0
  0
LINE
  5
2A2DC
330
18
100
AcDbEntity
  8
0
 48
0.3
370
    30
100
AcDbLine
 10
1654.762866506024
 20
-3016.605209704529
 30
0.0
 11
1655.762866506024
 21
-3016.605209704529
 31
0.0
  0
LINE
  5
2A2DD
330
18
100
AcDbEntity
  8
0
 48
0.3
370
    30
100
AcDbLine
 10
1654.762866506024
 20
-3022.605209704529
 30
0.0
 11
1655.762866506024
 21
-3022.605209704529
 31
0.0
  0
LINE
  5
2A2DE
330
18
100
AcDbEntity
  8
0
  6
CENTER
 48
0.3
370
    13
100
AcDbLine
 10
1646.762866506024
 20
-3019.605209704529
 30
0.0
 11
1663.762866506024
 21
-3019.605209704529
 31
0.0
  0
LINE
  5
2A2E6
330
18
100
AcDbEntity
  8
0
 48
0.3
370
    30
100
AcDbLine
 10
1685.389180050253
 20
-3012.21976130741
 30
0.0
 11
1671.391312318064
 21
-3011.975427617288
 31
0.0
  0
LINE
  5
2A318
330
18
100
AcDbEntity
  8
0
 48
0.3
370
    30
100
AcDbLine
 10
1657.136552961793
 20
-2911.99065810165
 30
0.0
 11
1671.134420693982
 21
-2912.234991791771
 31
0.0
  0
LINE
  5
2A31A
330
18
100
AcDbEntity
  8
0
 48
0.3
370
    30
100
AcDbLine
 10
1624.263932639928
 20
-2961.983042859469
 30
0.0
 11
1625.136552961793
 21
-2911.99065810165
 31
0.0
  0
LINE
  5
2A31B
330
18
100
AcDbEntity
  8
0
 48
0.3
370
    30
100
AcDbLine
 10
1639.134420693982
 20
-2912.234991791771
 30
0.0
 11
1638.261800372118
 21
-2962.227376549591
 31
0.0
  0
LINE
  5
2A31C
330
18
100
AcDbEntity
  8
0
 48
0.3
370
    30
100
AcDbLine
 10
1640.263932639928
 20
-2961.983042859469
 30
0.0
 11
1641.136552961793
 21
-2911.99065810165
 31
0.0
  0
LINE
  5
2A31D
330
18
100
AcDbEntity
  8
0
 48
0.3
370
    30
100
AcDbLine
 10
1655.134420693982
 20
-2912.234991791771
 30
0.0
 11
1654.261800372118
 21
-2962.227376549591
 31
0.0
  0
LINE
  5
2A31E
330
18
100
AcDbEntity
  8
0
 48
0.3
370
    30
100
AcDbLine
 10
1656.263932639928
 20
-2961.983042859469
 30
0.0
 11
1657.136552961793
 21
-2911.99065810165
 31
0.0
  0
LINE
  5
2A31F
330
18
100
AcDbEntity
  8
0
 48
0.3
370
    30
100
AcDbLine
 10
1625.136552961793
 20
-2911.99065810165
 30
0.0
 11
1639.134420693982
 21
-2912.234991791771
 31
0.0
  0
LINE
  5
2A320
330
18
100
AcDbEntity
  8
0
 48
0.3
370
    30
100
AcDbLine
 10
1624.262866506024
 20
-2897.105209704529
 30
0.0
 11
1623.262866506024
 21
-2898.105209704529
 31
0.0
  0
LINE
  5
2A321
330
18
100
AcDbEntity
  8
0
 48
0.3
370
    30
100
AcDbLine
 10
1641.136552961793
 20
-2911.99065810165
 30
0.0
 11
1655.134420693982
 21
-2912.234991791771
 31
0.0
  0
ARC
  5
2A322
330
18
100
AcDbEntity
  8
0
 48
0.3
370
    30
100
AcDbCircle
 10
1654.762866506024
 20
-2904.605209704529
 30
0.0
 40
3.0
100
AcDbArc
 50
90.0
 51
270.0
  0
LINE
  5
2A323
330
18
100
AcDbEntity
  8
0
  6
CENTER
 48
0.3
370
    13
100
AcDbLine
 10
1655.262866506024
 20
-2896.605209704529
 30
0.0
 11
1655.262866506024
 21
-2912.605209704529
 31
0.0
  0
LINE
  5
2A324
330
18
100
AcDbEntity
  8
0
 48
0.3
370
    30
100
AcDbLine
 10
1654.762866506024
 20
-2907.605209704529
 30
0.0
 11
1655.762866506024
 21
-2907.605209704529
 31
0.0
  0
LINE
  5
2A325
330
18
100
AcDbEntity
  8
0
 48
0.3
370
    30
100
AcDbLine
 10
1654.762866506024
 20
-2901.605209704529
 30
0.0
 11
1655.762866506024
 21
-2901.605209704529
 31
0.0
  0
ARC
  5
2A326
330
18
100
AcDbEntity
  8
0
 48
0.3
370
    30
100
AcDbCircle
 10
1655.762866506024
 20
-2904.605209704529
 30
0.0
 40
3.0
100
AcDbArc
 50
270.0
 51
90.0
  0
LINE
  5
2A327
330
18
100
AcDbEntity
  8
0
  6
CENTER
 48
0.3
370
    13
100
AcDbLine
 10
1646.762866506024
 20
-2904.605209704529
 30
0.0
 11
1663.762866506024
 21
-2904.605209704529
 31
0.0
  0
LINE
  5
2A329
330
18
100
AcDbEntity
  8
0
 48
0.3
370
    30
100
AcDbLine
 10
1671.134420693982
 20
-2912.234991791771
 30
0.0
 11
1670.261800372118
 21
-2962.227376549591
 31
0.0
  0
LINE
  5
2A32A
330
18
100
AcDbEntity
  8
0
 48
0.3
370
    30
100
AcDbLine
 10
1672.263932639928
 20
-2961.983042859469
 30
0.0
 11
1673.136552961793
 21
-2911.99065810165
 31
0.0
  0
LINE
  5
2A32B
330
18
100
AcDbEntity
  8
0
 48
0.3
370
    30
100
AcDbLine
 10
1687.134420693982
 20
-2912.234991791771
 30
0.0
 11
1686.261800372118
 21
-2962.227376549591
 31
0.0
  0
LINE
  5
2A334
330
18
100
AcDbEntity
  8
0
 48
0.3
370
    18
100
AcDbLine
 10
1625.045625254619
 20
-2974.498591455361
 30
0.0
 11
1624.452243435751
 21
-3008.493413090679
 31
0.0
  0
LINE
  5
2A335
330
18
100
AcDbEntity
  8
0
 48
0.3
370
    18
100
AcDbLine
 10
1636.450415777627
 20
-3008.702841967926
 30
0.0
 11
1637.043797596496
 21
-2974.708020332609
 31
0.0
  0
LINE
  5
2A337
330
18
100
AcDbEntity
  8
0
 48
0.3
370
    18
100
AcDbLine
 10
1630.05358993362
 20
-2974.085929639969
 30
0.0
 11
1629.442755708314
 21
-3009.080598970445
 31
0.0
  0
LINE
  5
2A338
330
18
100
AcDbEntity
  8
0
 48
0.3
370
    30
100
AcDbLine
 10
1673.136552961793
 20
-2911.99065810165
 30
0.0
 11
1687.134420693982
 21
-2912.234991791771
 31
0.0
  0
LINE
  5
2A339
330
18
100
AcDbEntity
  8
0
 48
0.3
370
    18
100
AcDbLine
 10
1624.94344108011
 20
-3009.002063141475
 30
0.0
 11
1635.94176572683
 21
-3009.194039612285
 31
0.0
  0
ARC
  5
2A33A
330
18
100
AcDbEntity
  8
0
 48
0.3
370
    18
100
AcDbCircle
 10
1635.950491930048
 20
-3008.694115764708
 30
0.0
 40
0.5
100
AcDbArc
 50
268.9999999999993
 51
358.9999999999993
  0
ARC
  5
2A33B
330
18
100
AcDbEntity
  8
0
 48
0.3
370
    18
100
AcDbCircle
 10
1624.952167283328
 20
-3008.502139293897
 30
0.0
 40
0.5
100
AcDbArc
 50
178.9999999999992
 51
268.9999999999993
  0
LINE
  5
2A340
330
18
100
AcDbEntity
  8
0
 48
0.3
370
    18
100
AcDbLine
 10
1636.552599952136
 20
-2974.199370281812
 30
0.0
 11
1625.554275305416
 21
-2974.007393811002
 31
0.0
  0
ARC
  5
2A341
330
18
100
AcDbEntity
  8
0
 48
0.3
370
    18
100
AcDbCircle
 10
1636.543873748916
 20
-2974.699294129391
 30
0.0
 40
0.5
100
AcDbArc
 50
358.9999999999993
 51
88.99999999999926
  0
ARC
  5
2A342
330
18
100
AcDbEntity
  8
0
 48
0.3
370
    18
100
AcDbCircle
 10
1625.545549102196
 20
-2974.50731765858
 30
0.0
 40
0.5
100
AcDbArc
 50
88.99999999999926
 51
178.9999999999992
  0
LINE
  5
2A39F
330
18
100
AcDbEntity
  8
0
  6
CENTER
 48
0.3
370
    13
100
AcDbLine
 10
1823.944516771671
 20
-3010.738804201197
 30
0.0
 11
1823.944516771671
 21
-3022.218804201197
 31
0.0
  0
LINE
  5
2A3A0
330
18
100
AcDbEntity
  8
0
 48
0.3
370
    30
100
AcDbLine
 10
1857.944516771671
 20
-2898.105209704529
 30
0.0
 11
1857.944516771671
 21
-3027.105209704529
 31
0.0
  0
LINE
  5
2A3A1
330
18
100
AcDbEntity
  8
0
 48
0.3
370
    30
100
AcDbLine
 10
1850.144516771671
 20
-2898.105209704529
 30
0.0
 11
1850.144516771671
 21
-3027.105209704529
 31
0.0
  0
LINE
  5
2A3A2
330
18
100
AcDbEntity
  8
0
  6
PHANTOM2
 48
0.3
370
     5
100
AcDbLine
 10
1805.943807987145
 20
-2901.031709704529
 30
0.0
 11
1805.943807987145
 21
-3023.031709704529
 31
0.0
  0
LINE
  5
2A3A3
330
18
100
AcDbEntity
  8
0
  6
PHANTOM2
 48
0.3
370
     5
100
AcDbLine
 10
1817.943807987145
 20
-3023.031709704529
 30
0.0
 11
1817.943807987145
 21
-2901.031709704529
 31
0.0
  0
LINE
  5
2A3A4
330
18
100
AcDbEntity
  8
0
  6
CENTER
 48
0.3
370
    13
100
AcDbLine
 10
1811.944516765526
 20
-3027.104896164743
 30
0.0
 11
1811.943811302726
 21
-2972.44659170769
 31
0.0
  0
LINE
  5
2A3A5
330
18
100
AcDbEntity
  8
0
  6
PHANTOM2
 48
0.3
370
     5
100
AcDbLine
 10
1803.944516771671
 20
-3027.105209704529
 30
0.0
 11
1803.94381130887
 21
-3009.105253568784
 31
0.0
  0
CIRCLE
  5
2A3A6
330
18
100
AcDbEntity
  8
0
  6
PHANTOM2
 48
0.3
370
     5
100
AcDbCircle
 10
1811.944356828237
 20
-3010.105209684609
 30
0.0
 40
2.0
  0
CIRCLE
  5
2A3A7
330
18
100
AcDbEntity
  8
0
  6
PHANTOM2
 48
0.3
370
     5
100
AcDbCircle
 10
1811.944356828237
 20
-3010.105209684609
 30
0.0
 40
1.6
  0
LINE
  5
2A3A8
330
18
100
AcDbEntity
  8
0
  6
PHANTOM2
 48
0.3
370
     5
100
AcDbLine
 10
1843.944516771671
 20
-2897.105253568784
 30
0.0
 11
1843.944516771671
 21
-3027.105253568784
 31
0.0
  0
LWPOLYLINE
  5
2A3A9
330
18
100
AcDbEntity
  8
0
 48
0.3
370
    30
100
AcDbPolyline
 90
        4
 70
     1
 43
0.0
 10
1845.144516771671
 20
-2911.99065810165
 10
1850.144516771671
 20
-2911.99065810165
 10
1850.144516771671
 20
-3012.21976130741
 10
1845.144516771671
 20
-3012.21976130741
  0
LINE
  5
2A3AB
330
18
100
AcDbEntity
  8
0
 48
0.3
370
    30
100
AcDbLine
 10
1687.262866506024
 20
-2898.105209704529
 30
0.0
 11
1687.262866506024
 21
-3026.105209704529
 31
0.0
  0
LINE
  5
2A3AC
330
18
100
AcDbEntity
  8
0
 48
0.3
370
    30
100
AcDbLine
 10
1687.262866506024
 20
-3026.105209704529
 30
0.0
 11
1686.262866506024
 21
-3027.105209704529
 31
0.0
  0
LINE
  5
2A3AD
330
18
100
AcDbEntity
  8
0
  6
PHANTOM2
 48
0.3
370
     5
100
AcDbLine
 10
1843.944516771671
 20
-3027.105209704529
 30
0.0
 11
1803.944516771671
 21
-3027.105209704529
 31
0.0
  0
LINE
  5
2A3AE
330
18
100
AcDbEntity
  8
0
  6
CENTER
 48
0.3
370
    13
100
AcDbLine
 10
1818.205908782905
 20
-3016.605209704529
 30
0.0
 11
1829.683124760436
 21
-3016.605209704529
 31
0.0
  0
LINE
  5
2A3AF
330
18
100
AcDbEntity
  8
0
  6
PHANTOM2
 48
0.3
370
     5
100
AcDbLine
 10
1823.944516771671
 20
-3016.605209704529
 30
0.0
 11
1826.651543536425
 21
-3013.898182939775
 31
0.0
  0
LINE
  5
2A3B0
330
18
100
AcDbEntity
  8
0
  6
PHANTOM2
 48
0.3
370
     5
100
AcDbLine
 10
1824.828400248153
 20
-3016.605209704529
 30
0.0
 11
1827.0455482091
 21
-3014.388061743583
 31
0.0
  0
LINE
  5
2A3B1
330
18
100
AcDbEntity
  8
0
  6
PHANTOM2
 48
0.3
370
     5
100
AcDbLine
 10
1825.712283724637
 20
-3016.605209704529
 30
0.0
 11
1827.360778505216
 21
-3014.956714923949
 31
0.0
  0
LINE
  5
2A3B2
330
18
100
AcDbEntity
  8
0
  6
PHANTOM2
 48
0.3
370
     5
100
AcDbLine
 10
1826.596167201121
 20
-3016.605209704529
 30
0.0
 11
1827.583967211417
 21
-3015.617409694233
 31
0.0
  0
LINE
  5
2A3B3
330
18
100
AcDbEntity
  8
0
  6
PHANTOM2
 48
0.3
370
     5
100
AcDbLine
 10
1823.944516771671
 20
-3015.721326228047
 30
0.0
 11
1826.183096409193
 21
-3013.482746590524
 31
0.0
  0
LINE
  5
2A3B4
330
18
100
AcDbEntity
  8
0
  6
PHANTOM2
 48
0.3
370
     5
100
AcDbLine
 10
1823.944516771671
 20
-3014.837442751563
 30
0.0
 11
1825.637853379313
 21
-3013.144106143919
 31
0.0
  0
LINE
  5
2A3B5
330
18
100
AcDbEntity
  8
0
  6
PHANTOM2
 48
0.3
370
     5
100
AcDbLine
 10
1823.944516771671
 20
-3013.953559275079
 30
0.0
 11
1825.005594916646
 21
-3012.892481130104
 31
0.0
  0
LINE
  5
2A3B6
330
18
100
AcDbEntity
  8
0
  6
PHANTOM2
 48
0.3
370
     5
100
AcDbLine
 10
1823.944516771671
 20
-3013.069675798596
 30
0.0
 11
1824.261897397422
 21
-3012.752295172844
 31
0.0
  0
LINE
  5
2A3B7
330
18
100
AcDbEntity
  8
0
  6
PHANTOM2
 48
0.3
370
     5
100
AcDbLine
 10
1822.422427494423
 20
-3019.895065934743
 30
0.0
 11
1823.944516771671
 21
-3018.372976657496
 31
0.0
  0
LINE
  5
2A3B8
330
18
100
AcDbEntity
  8
0
  6
PHANTOM2
 48
0.3
370
     5
100
AcDbLine
 10
1821.853774314056
 20
-3019.579835638627
 30
0.0
 11
1823.944516771671
 21
-3017.489093181013
 31
0.0
  0
LINE
  5
2A3B9
330
18
100
AcDbEntity
  8
0
  6
PHANTOM2
 48
0.3
370
     5
100
AcDbLine
 10
1821.363895510248
 20
-3019.185830965951
 30
0.0
 11
1823.944516771671
 21
-3016.605209704529
 31
0.0
  0
LINE
  5
2A3BA
330
18
100
AcDbEntity
  8
0
  6
PHANTOM2
 48
0.3
370
     5
100
AcDbLine
 10
1827.480050677605
 20
-3016.605209704529
 30
0.0
 11
1827.683718626938
 21
-3016.401541755195
 31
0.0
  0
CIRCLE
  5
2A3BB
330
18
100
AcDbEntity
  8
0
  6
PHANTOM2
 48
0.3
370
     5
100
AcDbCircle
 10
1811.943436581003
 20
-3017.015836743357
 30
0.0
 40
4.0
  0
LINE
  5
2A3BC
330
18
100
AcDbEntity
  8
0
  6
PHANTOM2
 48
0.3
370
     5
100
AcDbLine
 10
1805.943807987145
 20
-3023.031709704529
 30
0.0
 11
1817.943807987145
 21
-3023.031709704529
 31
0.0
  0
CIRCLE
  5
2A3BD
330
18
100
AcDbEntity
  8
0
  6
PHANTOM2
 48
0.3
370
     5
100
AcDbCircle
 10
1823.944516771671
 20
-3016.478804201197
 30
0.0
 40
3.74
  0
LINE
  5
2A3BE
330
18
100
AcDbEntity
  8
0
  6
PHANTOM2
 48
0.3
370
     5
100
AcDbLine
 10
1820.948459160997
 20
-3018.71738383872
 30
0.0
 11
1823.060633295188
 21
-3016.605209704529
 31
0.0
  0
LINE
  5
2A3BF
330
18
100
AcDbEntity
  8
0
  6
PHANTOM2
 48
0.3
370
     5
100
AcDbLine
 10
1820.609818714392
 20
-3018.172140808841
 30
0.0
 11
1822.176749818705
 21
-3016.605209704529
 31
0.0
  0
LINE
  5
2A3C0
330
18
100
AcDbEntity
  8
0
 48
0.3
370
    30
100
AcDbLine
 10
1850.144516771671
 20
-3027.105209704529
 30
0.0
 11
1857.944516771671
 21
-3027.105209704529
 31
0.0
  0
LINE
  5
2A3C1
330
18
100
AcDbEntity
  8
0
  6
HIDDEN
 48
0.3
370
    13
100
AcDbLine
 10
1850.144516771671
 20
-3016.605209704529
 30
0.0
 11
1857.944516771671
 21
-3016.605209704529
 31
0.0
  0
LINE
  5
2A3C2
330
18
100
AcDbEntity
  8
0
  6
HIDDEN
 48
0.3
370
    13
100
AcDbLine
 10
1850.144516771671
 20
-3022.605209704529
 30
0.0
 11
1857.944516771671
 21
-3022.605209704529
 31
0.0
  0
LINE
  5
2A3C3
330
18
100
AcDbEntity
  8
0
  6
CENTER
 48
0.3
370
    13
100
AcDbLine
 10
1845.144516771671
 20
-3019.605209704529
 30
0.0
 11
1862.944516771671
 21
-3019.605209704529
 31
0.0
  0
LINE
  5
2A3C5
330
18
100
AcDbEntity
  8
0
 48
0.3
370
    30
100
AcDbLine
 10
1686.262866506024
 20
-2897.105209704529
 30
0.0
 11
1687.262866506024
 21
-2898.105209704529
 31
0.0
  0
LINE
  5
2A3C6
330
18
100
AcDbEntity
  8
0
  6
PHANTOM2
 48
0.3
370
     5
100
AcDbLine
 10
1804.444516771671
 20
-2915.105253568784
 30
0.0
 11
1804.444516771671
 21
-3009.105209704529
 31
0.0
  0
CIRCLE
  5
2A3C7
330
18
100
AcDbEntity
  8
0
  6
PHANTOM2
 48
0.3
370
     5
100
AcDbCircle
 10
1811.944355879589
 20
-2986.105209684609
 30
0.0
 40
2.0
  0
LINE
  5
2A3C8
330
18
100
AcDbEntity
  8
0
  6
CENTER
 48
0.3
370
    13
100
AcDbLine
 10
1805.943807987145
 20
-2986.105209704529
 30
0.0
 11
1817.943807987145
 21
-2986.105209704529
 31
0.0
  0
LINE
  5
2A3C9
330
18
100
AcDbEntity
  8
0
  6
CENTER
 48
0.3
370
    13
100
AcDbLine
 10
1805.943808935793
 20
-3010.105209704529
 30
0.0
 11
1817.943808935793
 21
-3010.105209704529
 31
0.0
  0
LINE
  5
2A3CA
330
18
100
AcDbEntity
  8
0
  6
PHANTOM2
 48
0.3
370
     5
100
AcDbLine
 10
1804.444516771671
 20
-3009.105209704529
 30
0.0
 11
1803.944516771671
 21
-3009.105209704529
 31
0.0
  0
CIRCLE
  5
2A3CB
330
18
100
AcDbEntity
  8
0
  6
PHANTOM2
 48
0.3
370
     5
100
AcDbCircle
 10
1811.944355879589
 20
-2986.105209684609
 30
0.0
 40
1.6
  0
LINE
  5
2A3CC
330
18
100
AcDbEntity
  8
0
  6
PHANTOM2
 48
0.3
370
     5
100
AcDbLine
 10
1803.944516771671
 20
-2897.105209704529
 30
0.0
 11
1843.944516771671
 21
-2897.105209704529
 31
0.0
  0
LINE
  5
2A3CD
330
18
100
AcDbEntity
  8
0
  6
PHANTOM2
 48
0.3
370
     5
100
AcDbLine
 10
1817.943807987145
 20
-2901.031709704529
 30
0.0
 11
1805.943807987145
 21
-2901.031709704529
 31
0.0
  0
CIRCLE
  5
2A3CE
330
18
100
AcDbEntity
  8
0
  6
PHANTOM2
 48
0.3
370
     5
100
AcDbCircle
 10
1811.943436581002
 20
-2907.015836743357
 30
0.0
 40
4.0
  0
LINE
  5
2A3CF
330
18
100
AcDbEntity
  8
0
  6
PHANTOM2
 48
0.3
370
     5
100
AcDbLine
 10
1803.944516771671
 20
-2915.105253568784
 30
0.0
 11
1803.944516771671
 21
-2897.105253568784
 31
0.0
  0
LINE
  5
2A3D0
330
18
100
AcDbEntity
  8
0
  6
PHANTOM2
 48
0.3
370
     5
100
AcDbLine
 10
1803.944516771671
 20
-2915.105253568784
 30
0.0
 11
1804.444516771671
 21
-2915.105253568784
 31
0.0
  0
LINE
  5
2A3D3
330
18
100
AcDbEntity
  8
0
 48
0.3
370
    30
100
AcDbLine
 10
1856.944516771671
 20
-2897.105209704529
 30
0.0
 11
1857.944516771671
 21
-2898.105209704529
 31
0.0
  0
LINE
  5
2A3D4
330
18
100
AcDbEntity
  8
0
 48
0.3
370
    30
100
AcDbLine
 10
1850.144516771671
 20
-2898.105209704529
 30
0.0
 11
1851.144516771671
 21
-2897.105209704529
 31
0.0
  0
LINE
  5
2A3D5
330
18
100
AcDbEntity
  8
0
 48
0.3
370
    30
100
AcDbLine
 10
1851.144516771671
 20
-2897.105209704529
 30
0.0
 11
1856.944516771671
 21
-2897.105209704529
 31
0.0
  0
LINE
  5
2A3D6
330
18
100
AcDbEntity
  8
0
  6
HIDDEN
 48
0.3
370
    13
100
AcDbLine
 10
1850.144516771671
 20
-2901.605209704529
 30
0.0
 11
1857.944516771671
 21
-2901.605209704529
 31
0.0
  0
LINE
  5
2A3D7
330
18
100
AcDbEntity
  8
0
  6
HIDDEN
 48
0.3
370
    13
100
AcDbLine
 10
1850.144516771671
 20
-2907.605209704529
 30
0.0
 11
1857.944516771671
 21
-2907.605209704529
 31
0.0
  0
LINE
  5
2A3D9
330
18
100
AcDbEntity
  8
0
  6
CENTER
 48
0.3
370
    13
100
AcDbLine
 10
1845.144516771671
 20
-2904.605209704529
 30
0.0
 11
1862.944516771671
 21
-2904.605209704529
 31
0.0
  0
LINE
  5
2A897
330
18
100
AcDbEntity
  8
0
 48
0.3
370
    18
100
AcDbLine
 10
1668.131419187206
 20
-3018.952081598976
 30
0.0
 11
1683.131419187206
 21
-3018.952081598976
 31
0.0
  0
LWPOLYLINE
  5
2A89D
330
18
100
AcDbEntity
  8
0
 48
0.3
370
    18
100
AcDbPolyline
 90
        8
 70
     1
 43
0.0
 10
1668.631419187206
 20
-3024.952081598976
 10
1682.631419187206
 20
-3024.952081598977
 42
0.414213562373095
 10
1683.131419187206
 20
-3024.452081598977
 10
1683.131419187206
 20
-3015.452081598977
 42
0.414213562373095
 10
1682.631419187206
 20
-3014.952081598977
 10
1668.631419187206
 20
-3014.952081598977
 42
0.4142135623730996
 10
1668.131419187206
 20
-3015.452081598977
 10
1668.131419187206
 20
-3024.452081598976
 42
0.4142135623730904
  0
LINE
  5
2BC84
330
18
100
AcDbEntity
  8
0
 48
0.3
370
    18
100
AcDbLine
 10
1645.872866506024
 20
-3022.577909704529
 30
0.0
 11
1625.872866506024
 21
-3022.577909704529
 31
0.0
  0
LINE
  5
2BC85
330
18
100
AcDbEntity
  8
0
 48
0.3
370
    18
100
AcDbLine
 10
1645.872866506024
 20
-3016.577909704529
 30
0.0
 11
1645.872866506024
 21
-3022.577909704529
 31
0.0
  0
LINE
  5
2BC86
330
18
100
AcDbEntity
  8
0
 48
0.3
370
    18
100
AcDbLine
 10
1625.872866506024
 20
-3022.577909704529
 30
0.0
 11
1625.872866506024
 21
-3016.577909704529
 31
0.0
  0
LINE
  5
2BC89
330
18
100
AcDbEntity
  8
0
 48
0.3
370
    18
100
AcDbLine
 10
1625.872866506024
 20
-3016.577909704529
 30
0.0
 11
1645.872866506024
 21
-3016.577909704529
 31
0.0
  0
MTEXT
  5
2BCDE
330
18
100
AcDbEntity
  8
0
 48
0.3
370
    18
100
AcDbMText
 10
1809.314858342633
 20
-3045.927488431321
 30
0.0
 40
3.0
 41
54.91562098859316
 71
     1
 72
     5
  1
{ＮＬＡシリーズ ＭＢＮＡ６４Ａ\PSE-55390C}
  7
ｽﾀｲﾙ3
 73
     1
 44
1.0
1001
ACAD
1000
ACAD_MTEXT_DEFINED_HEIGHT_BEGIN
1070
    46
1040
8.0
1000
ACAD_MTEXT_DEFINED_HEIGHT_END
  0
VIEWPORT
  5
2A9D9
330
2A9D8
100
AcDbEntity
 67
     1
  8
0
100
AcDbViewport
 10
0.0
 20
0.0
 30
0.0
 40
533.1613688212927
 41
293.76
 68
     1
 69
     1
 12
200.0
 22
144.0
 13
0.0
 23
0.0
 14
10.0
 24
10.0
 15
10.0
 25
10.0
 16
0.0
 26
0.0
 36
1.0
 17
0.0
 27
0.0
 37
0.0
 42
50.0
 43
0.0
 44
0.0
 45
293.76
 50
0.0
 51
0.0
 72
   100
 90
    32784
  1

281
     0
 71
     1
 74
     0
110
0.0
120
0.0
130
0.0
111
1.0
121
0.0
131
0.0
112
0.0
122
1.0
132
0.0
 79
     0
146
0.0
  0
VIEWPORT
  5
2A9DA
330
2A9D8
100
AcDbEntity
 67
     1
  8
M_VIEW
100
AcDbViewport
 10
200.0
 20
144.0
 30
0.0
 40
400.0
 41
288.0
 68
     2
 69
     2
 12
1750.188104412673
 22
-2970.340120473373
 13
0.0
 23
0.0
 14
10.0
 24
10.0
 15
10.0
 25
10.0
 16
0.0
 26
0.0
 36
1.0
 17
0.0
 27
0.0
 37
0.0
 42
50.0
 43
0.0
 44
0.0
 45
288.0000030108894
 50
0.0
 51
0.0
 72
   100
 90
    32768
  1

281
     0
 71
     1
 74
     0
110
0.0
120
0.0
130
0.0
111
1.0
121
0.0
131
0.0
112
0.0
122
1.0
132
0.0
 79
     0
146
0.0
  0
TEXT
  5
2AA50
330
2A9D8
100
AcDbEntity
 67
     1
  8
FRAME020
  6
Continuous
 62
     0
100
AcDbText
 10
235.0371299708803
 20
39.45424892526989
 30
0.0
 40
3.0
  1
File name／SE-37961.dwg
 41
0.8
100
AcDbText
  0
INSERT
  5
2AA7F
330
2A9D8
100
AcDbEntity
 67
     1
  8
FRAME025
100
AcDbBlockReference
  2
機械A4横_LBP
 10
82.74908858651452
 20
152.0309590792271
 30
0.0
  0
TEXT
  5
2AA80
330
2A9D8
100
AcDbEntity
 67
     1
  8
文字
  6
ByBlock
 62
     0
100
AcDbText
 10
32.81885892396519
 20
73.01882819621747
 30
0.0
 40
3.2
  1

 50
90.0
 41
0.625
  7
MSｺﾞｼｯｸ
100
AcDbText
  0
TEXT
  5
2AA81
330
2A9D8
100
AcDbEntity
 67
     1
  8
文字
  6
ByBlock
 62
     0
100
AcDbText
 10
37.25020936743055
 20
73.01882819621747
 30
0.0
 40
3.2
  1

 50
90.0
 41
0.625
  7
MSｺﾞｼｯｸ
100
AcDbText
  0
TEXT
  5
2AA82
330
2A9D8
100
AcDbEntity
 67
     1
  8
FRAME020
  6
Continuous
100
AcDbText
 10
126.6213117262079
 20
29.63926951973459
 30
0.0
 40
2.5
  1

 41
0.625
  7
MSｺﾞｼｯｸ
100
AcDbText
  0
ENDSEC
  0
SECTION
  2
OBJECTS
  0
DICTIONARY
  5
C
330
0
100
AcDbDictionary
281
     1
  3
ACAD_DETAILVIEWSTYLE
350
2BCA8
  3
ACAD_GROUP
350
D
  3
ACAD_IMAGE_VARS
350
2BBEC
  3
ACAD_LAYOUT
350
DB2
  3
ACAD_MLINESTYLE
350
1B
  3
ACAD_PLOTSETTINGS
350
DB3
  3
ACAD_PLOTSTYLENAME
350
FB5B
  3
ACAD_SCALELIST
350
2BBC0
  3
ACAD_SECTIONVIEWSTYLE
350
2BCA9
  3
AcadDim
350
2A25C
  3
AcDbVariableDictionary
350
106A6
  3
APPDATA
350
2BBEA
  3
ASE_INDEX_DICTIONARY
350
1A99F
  3
DWGPROPS
350
2BCE1
  3
FX_DICT_DIMENSION_PALETTE
350
2BCAB
1001
ACAD
1000
TREAT_AS_HARD
1070
     0
  0
DICTIONARY
  5
25084
330
2
100
AcDbDictionary
280
     1
281
     1
  3
ACAD_LAYERFILTERS
360
25085
  3
ACAD_LAYERSTATES
360
25092
  0
DICTIONARY
  5
2BCA8
102
{ACAD_REACTORS
330
C
102
}
330
C
100
AcDbDictionary
281
     1
  0
DICTIONARY
  5
D
102
{ACAD_REACTORS
330
C
102
}
330
C
100
AcDbDictionary
281
     1
1001
ACAD
1000
TREAT_AS_HARD
1070
     0
  0
RASTERVARIABLES
  5
2BBEC
102
{ACAD_REACTORS
330
C
102
}
330
C
100
AcDbRasterVariables
 90
        0
 70
     1
 71
     1
 72
     0
  0
DICTIONARY
  5
DB2
102
{ACAD_REACTORS
330
C
102
}
330
C
100
AcDbDictionary
281
     1
  3
Model
350
FB5D
  3
Sheet1
350
2AAC9
1001
ACAD
1000
TREAT_AS_HARD
1070
     0
  0
DICTIONARY
  5
1B
102
{ACAD_REACTORS
330
C
102
}
330
C
100
AcDbDictionary
281
     1
  3
STANDARD
350
1C
1001
ACAD
1000
TREAT_AS_HARD
1070
     0
  0
DICTIONARY
  5
DB3
102
{ACAD_REACTORS
330
C
102
}
330
C
100
AcDbDictionary
281
     1
1001
ACAD
1000
TREAT_AS_HARD
1070
     0
  0
ACDBDICTIONARYWDFLT
  5
FB5B
102
{ACAD_REACTORS
330
C
102
}
330
C
100
AcDbDictionary
281
     1
  3
Normal
350
FB5C
100
AcDbDictionaryWithDefault
340
FB5C
  0
DICTIONARY
  5
2BBC0
102
{ACAD_REACTORS
330
C
102
}
330
C
100
AcDbDictionary
281
     1
  3
A0
350
2BBC1
  3
A1
350
2BBC2
  3
A2
350
2BBC3
  3
A3
350
2BBC4
  3
A4
350
2BBC5
  3
A5
350
2BBC6
  3
A6
350
2BBC7
  3
A7
350
2BBC8
  3
A8
350
2BBC9
  3
A9
350
2BBCA
  3
B0
350
2BBCB
  3
B1
350
2BBCC
  3
B2
350
2BBCD
  3
B3
350
2BBCE
  3
B4
350
2BBCF
  3
B5
350
2BBD0
  3
B6
350
2BBD1
  3
B7
350
2BBD2
  3
B8
350
2BBD3
  3
B9
350
2BBD4
  3
C0
350
2BBD5
  3
C1
350
2BBD6
  3
C2
350
2BBD7
  3
C3
350
2BBD8
  3
C4
350
2BBD9
  3
C5
350
2BBDA
  3
C6
350
2BBDB
  3
C7
350
2BBDC
  3
C8
350
2BBDD
  3
C9
350
2BBDE
  3
D0
350
2BBDF
  3
D1
350
2BBE0
  3
D2
350
2BBE1
  0
DICTIONARY
  5
2BCA9
102
{ACAD_REACTORS
330
C
102
}
330
C
100
AcDbDictionary
281
     1
  0
XRECORD
  5
2A25C
102
{ACAD_REACTORS
330
C
102
}
330
C
100
AcDbXrecord
280
     1
 90
   990106
  3

 60
     0
 61
     0
 62
     4
 63
     4
 64
     1
 65
     0
 66
     0
 67
     3
 68
     1
 69
     0
 70
     0
 71
     0
 72
     0
 40
0.0
170
     2
340
0
  0
DICTIONARY
  5
106A6
102
{ACAD_REACTORS
330
C
102
}
330
C
100
AcDbDictionary
281
     1
  3
SORTENTS
350
106A7
  0
DICTIONARY
  5
2BBEA
102
{ACAD_REACTORS
330
C
102
}
330
C
100
AcDbDictionary
281
     1
  0
DICTIONARY
  5
1A99F
102
{ACAD_REACTORS
330
C
102
}
330
C
100
AcDbDictionary
281
     1
  3
ASEBlockHierarchyIndexRecord
350
1A9A1
1001
DCO15
1040
1464612067.17
  0
XRECORD
  5
2BCE1
102
{ACAD_REACTORS
330
C
102
}
330
C
100
AcDbXrecord
280
     1
  1
DWGPROPS COOKIE
  2

  3

  4

  6

  7

  8
nishikawa
  9

300
=
301
=
302
=
303
=
304
=
305
=
306
=
307
=
308
=
309
=
 40
0.0
 41
2451224.285162384
 42
2457472.10792191
  1

 90
        0
  0
DICTIONARY
  5
2BCAB
102
{ACAD_REACTORS
330
C
102
}
330
C
100
AcDbDictionary
281
     1
  0
DICTIONARY
  5
25085
102
{ACAD_REACTORS
330
25084
102
}
330
25084
100
AcDbDictionary
280
     1
281
     1
  3
0
360
2BB21
  3
11
360
2BB22
  3
150_
360
2BB23
  3
160_
360
2BB24
  3
170_
360
2BB25
  3
171_
360
2BB26
  3
350_
360
2BB27
  3
4
360
2BB28
  3
5
360
2BB29
  3
7
360
2BB2A
  3
kiseki
360
2BB2B
  0
DICTIONARY
  5
25092
102
{ACAD_REACTORS
330
25084
102
}
330
25084
100
AcDbDictionary
281
     1
  3
ARGON_LAYERP_1
350
2BCAC
  0
LAYOUT
  5
FB5D
102
{ACAD_REACTORS
330
DB2
102
}
330
DB2
100
AcDbPlotSettings
  1

  2
\\HONAMI\LBP-910
  4
A3
  6

 40
5.873749732971191
 41
5.873747825622559
 42
5.873748779296875
 43
5.873748779296875
 44
296.9259948730469
 45
419.9466552734375
 46
0.0
 47
0.0
 48
-134.0496161171159
 49
-116.2294073187234
140
1105.745250909008
141
633.2284101676228
142
1.0
143
2.866823569012709
 70
 11952
 72
     1
 73
     1
 74
     1
  7
monochrome.ctb
 75
     0
147
0.3488181173089717
148
98.7130430422485
149
74.96499340265336
100
AcDbLayout
  1
Model
 70
     1
 71
     0
 10
0.0
 20
0.0
 11
12.0
 21
9.0
 12
0.0
 22
0.0
 32
0.0
 14
1.000000000000000E+20
 24
1.000000000000000E+20
 34
1.000000000000000E+20
 15
-1.000000000000000E+20
 25
-1.000000000000000E+20
 35
-1.000000000000000E+20
146
0.0
 13
0.0
 23
0.0
 33
0.0
 16
1.0
 26
0.0
 36
0.0
 17
0.0
 27
1.0
 37
0.0
 76
     0
330
18
331
2BB20
  0
LAYOUT
  5
2AAC9
102
{ACAD_REACTORS
330
DB2
102
}
330
DB2
100
AcDbPlotSettings
  1

  2
Adobe PDF.pc3
  4
A3
  6

 40
3.174999952316284
 41
3.174999952316284
 42
3.17498779296875
 43
3.17498779296875
 44
420.1583251953125
 45
297.0318298339844
 46
2.0
 47
-1.27
 48
0.0
 49
0.0
140
0.0
141
0.0
142
1.0
143
1.0
 70
   688
 72
     1
 73
     0
 74
     1
  7
monochrome.ctb
 75
    16
147
1.0
148
0.0183230874209812
149
1.522438404734771
100
AcDbLayout
  1
Sheet1
 70
     0
 71
     1
 10
-5.193323039737265
 20
-3.427438357051055
 11
414.9650021555752
 21
293.6043914769333
 12
0.0
 22
0.0
 32
0.0
 14
0.0
 24
0.0
 34
0.0
 15
400.0
 25
288.0
 35
0.0
146
0.0
 13
0.0
 23
0.0
 33
0.0
 16
1.0
 26
0.0
 36
0.0
 17
0.0
 27
1.0
 37
0.0
 76
     0
330
2A9D8
331
2A9D9
  0
MLINESTYLE
  5
1C
102
{ACAD_REACTORS
330
1B
102
}
330
1B
100
AcDbMlineStyle
  2
STANDARD
 70
     0
  3

 62
   256
 51
90.0
 52
90.0
 71
     2
 49
0.5
 62
   256
  6
BYLAYER
 49
-0.5
 62
   256
  6
BYLAYER
  0
ACDBPLACEHOLDER
  5
FB5C
102
{ACAD_REACTORS
330
FB5B
102
}
330
FB5B
  0
SCALE
  5
2BBC1
102
{ACAD_REACTORS
330
2BBC0
102
}
330
2BBC0
100
AcDbScale
 70
     0
300
1:1
140
1.0
141
1.0
290
     1
  0
SCALE
  5
2BBC2
102
{ACAD_REACTORS
330
2BBC0
102
}
330
2BBC0
100
AcDbScale
 70
     0
300
1:2
140
1.0
141
2.0
290
     0
  0
SCALE
  5
2BBC3
102
{ACAD_REACTORS
330
2BBC0
102
}
330
2BBC0
100
AcDbScale
 70
     0
300
1:4
140
1.0
141
4.0
290
     0
  0
SCALE
  5
2BBC4
102
{ACAD_REACTORS
330
2BBC0
102
}
330
2BBC0
100
AcDbScale
 70
     0
300
1:5
140
1.0
141
5.0
290
     0
  0
SCALE
  5
2BBC5
102
{ACAD_REACTORS
330
2BBC0
102
}
330
2BBC0
100
AcDbScale
 70
     0
300
1:8
140
1.0
141
8.0
290
     0
  0
SCALE
  5
2BBC6
102
{ACAD_REACTORS
330
2BBC0
102
}
330
2BBC0
100
AcDbScale
 70
     0
300
1:10
140
1.0
141
10.0
290
     0
  0
SCALE
  5
2BBC7
102
{ACAD_REACTORS
330
2BBC0
102
}
330
2BBC0
100
AcDbScale
 70
     0
300
1:16
140
1.0
141
16.0
290
     0
  0
SCALE
  5
2BBC8
102
{ACAD_REACTORS
330
2BBC0
102
}
330
2BBC0
100
AcDbScale
 70
     0
300
1:20
140
1.0
141
20.0
290
     0
  0
SCALE
  5
2BBC9
102
{ACAD_REACTORS
330
2BBC0
102
}
330
2BBC0
100
AcDbScale
 70
     0
300
1:30
140
1.0
141
30.0
290
     0
  0
SCALE
  5
2BBCA
102
{ACAD_REACTORS
330
2BBC0
102
}
330
2BBC0
100
AcDbScale
 70
     0
300
1:40
140
1.0
141
40.0
290
     0
  0
SCALE
  5
2BBCB
102
{ACAD_REACTORS
330
2BBC0
102
}
330
2BBC0
100
AcDbScale
 70
     0
300
1:50
140
1.0
141
50.0
290
     0
  0
SCALE
  5
2BBCC
102
{ACAD_REACTORS
330
2BBC0
102
}
330
2BBC0
100
AcDbScale
 70
     0
300
1:100
140
1.0
141
100.0
290
     0
  0
SCALE
  5
2BBCD
102
{ACAD_REACTORS
330
2BBC0
102
}
330
2BBC0
100
AcDbScale
 70
     0
300
2:1
140
2.0
141
1.0
290
     0
  0
SCALE
  5
2BBCE
102
{ACAD_REACTORS
330
2BBC0
102
}
330
2BBC0
100
AcDbScale
 70
     0
300
4:1
140
4.0
141
1.0
290
     0
  0
SCALE
  5
2BBCF
102
{ACAD_REACTORS
330
2BBC0
102
}
330
2BBC0
100
AcDbScale
 70
     0
300
8:1
140
8.0
141
1.0
290
     0
  0
SCALE
  5
2BBD0
102
{ACAD_REACTORS
330
2BBC0
102
}
330
2BBC0
100
AcDbScale
 70
     0
300
10:1
140
10.0
141
1.0
290
     0
  0
SCALE
  5
2BBD1
102
{ACAD_REACTORS
330
2BBC0
102
}
330
2BBC0
100
AcDbScale
 70
     0
300
100:1
140
100.0
141
1.0
290
     0
  0
SCALE
  5
2BBD2
102
{ACAD_REACTORS
330
2BBC0
102
}
330
2BBC0
100
AcDbScale
 70
     0
300
1/128" = 1'-0"
140
0.0078125
141
12.0
290
     0
  0
SCALE
  5
2BBD3
102
{ACAD_REACTORS
330
2BBC0
102
}
330
2BBC0
100
AcDbScale
 70
     0
300
1/64" = 1'-0"
140
0.015625
141
12.0
290
     0
  0
SCALE
  5
2BBD4
102
{ACAD_REACTORS
330
2BBC0
102
}
330
2BBC0
100
AcDbScale
 70
     0
300
1/32" = 1'-0"
140
0.03125
141
12.0
290
     0
  0
SCALE
  5
2BBD5
102
{ACAD_REACTORS
330
2BBC0
102
}
330
2BBC0
100
AcDbScale
 70
     0
300
1/16" = 1'-0"
140
0.0625
141
12.0
290
     0
  0
SCALE
  5
2BBD6
102
{ACAD_REACTORS
330
2BBC0
102
}
330
2BBC0
100
AcDbScale
 70
     0
300
3/32" = 1'-0"
140
0.09375
141
12.0
290
     0
  0
SCALE
  5
2BBD7
102
{ACAD_REACTORS
330
2BBC0
102
}
330
2BBC0
100
AcDbScale
 70
     0
300
1/8" = 1'-0"
140
0.125
141
12.0
290
     0
  0
SCALE
  5
2BBD8
102
{ACAD_REACTORS
330
2BBC0
102
}
330
2BBC0
100
AcDbScale
 70
     0
300
3/16" = 1'-0"
140
0.1875
141
12.0
290
     0
  0
SCALE
  5
2BBD9
102
{ACAD_REACTORS
330
2BBC0
102
}
330
2BBC0
100
AcDbScale
 70
     0
300
1/4" = 1'-0"
140
0.25
141
12.0
290
     0
  0
SCALE
  5
2BBDA
102
{ACAD_REACTORS
330
2BBC0
102
}
330
2BBC0
100
AcDbScale
 70
     0
300
3/8" = 1'-0"
140
0.375
141
12.0
290
     0
  0
SCALE
  5
2BBDB
102
{ACAD_REACTORS
330
2BBC0
102
}
330
2BBC0
100
AcDbScale
 70
     0
300
1/2" = 1'-0"
140
0.5
141
12.0
290
     0
  0
SCALE
  5
2BBDC
102
{ACAD_REACTORS
330
2BBC0
102
}
330
2BBC0
100
AcDbScale
 70
     0
300
3/4" = 1'-0"
140
0.75
141
12.0
290
     0
  0
SCALE
  5
2BBDD
102
{ACAD_REACTORS
330
2BBC0
102
}
330
2BBC0
100
AcDbScale
 70
     0
300
1" = 1'-0"
140
1.0
141
12.0
290
     0
  0
SCALE
  5
2BBDE
102
{ACAD_REACTORS
330
2BBC0
102
}
330
2BBC0
100
AcDbScale
 70
     0
300
1-1/2" = 1'-0"
140
1.5
141
12.0
290
     0
  0
SCALE
  5
2BBDF
102
{ACAD_REACTORS
330
2BBC0
102
}
330
2BBC0
100
AcDbScale
 70
     0
300
3" = 1'-0"
140
3.0
141
12.0
290
     0
  0
SCALE
  5
2BBE0
102
{ACAD_REACTORS
330
2BBC0
102
}
330
2BBC0
100
AcDbScale
 70
     0
300
6" = 1'-0"
140
6.0
141
12.0
290
     0
  0
SCALE
  5
2BBE1
102
{ACAD_REACTORS
330
2BBC0
102
}
330
2BBC0
100
AcDbScale
 70
     0
300
1'-0" = 1'-0"
140
12.0
141
12.0
290
     0
  0
DICTIONARYVAR
  5
106A7
102
{ACAD_REACTORS
330
106A6
102
}
330
106A6
100
DictionaryVariables
280
     0
  1
96
  0
XRECORD
  5
1A9A1
102
{ACAD_REACTORS
330
1A99F
102
}
330
1A99F
100
AcDbXrecord
280
     1
330
187D7
330
0
330
0
330
0
330
0
330
0
330
0
330
0
330
0
330
0
330
0
330
0
330
0
330
0
330
0
330
0
330
0
330
0
330
0
330
0
330
0
330
0
330
0
330
0
330
0
330
0
330
0
330
0
330
0
330
0
330
0
330
0
330
0
330
0
330
0
330
0
330
0
330
0
330
0
330
0
330
0
330
0
330
0
330
0
  0
XRECORD
  5
2BB21
102
{ACAD_REACTORS
330
25085
102
}
330
25085
100
AcDbXrecord
280
     1
  1
0
  1
*0
  1
*
  1
*
 70
     0
  1
*
  1
*
  0
XRECORD
  5
2BB22
102
{ACAD_REACTORS
330
25085
102
}
330
25085
100
AcDbXrecord
280
     1
  1
11
  1
*11
  1
*
  1
*
 70
     0
  1
*
  1
*
  0
XRECORD
  5
2BB23
102
{ACAD_REACTORS
330
25085
102
}
330
25085
100
AcDbXrecord
280
     1
  1
150_
  1
150_*
  1
*
  1
*
 70
     0
  1
*
  1
*
  0
XRECORD
  5
2BB24
102
{ACAD_REACTORS
330
25085
102
}
330
25085
100
AcDbXrecord
280
     1
  1
160_
  1
160_*
  1
*
  1
*
 70
     0
  1
*
  1
*
  0
XRECORD
  5
2BB25
102
{ACAD_REACTORS
330
25085
102
}
330
25085
100
AcDbXrecord
280
     1
  1
170_
  1
170_*
  1
*
  1
*
 70
     0
  1
*
  1
*
  0
XRECORD
  5
2BB26
102
{ACAD_REACTORS
330
25085
102
}
330
25085
100
AcDbXrecord
280
     1
  1
171_
  1
171_*
  1
*
  1
*
 70
     0
  1
*
  1
*
  0
XRECORD
  5
2BB27
102
{ACAD_REACTORS
330
25085
102
}
330
25085
100
AcDbXrecord
280
     1
  1
350_
  1
350_*
  1
*
  1
*
 70
     0
  1
*
  1
*
  0
XRECORD
  5
2BB28
102
{ACAD_REACTORS
330
25085
102
}
330
25085
100
AcDbXrecord
280
     1
  1
4
  1
*4
  1
*
  1
*
 70
     0
  1
*
  1
*
  0
XRECORD
  5
2BB29
102
{ACAD_REACTORS
330
25085
102
}
330
25085
100
AcDbXrecord
280
     1
  1
5
  1
*5
  1
*
  1
*
 70
     0
  1
*
  1
*
  0
XRECORD
  5
2BB2A
102
{ACAD_REACTORS
330
25085
102
}
330
25085
100
AcDbXrecord
280
     1
  1
7
  1
*7
  1
*
  1
*
 70
     0
  1
*
  1
*
  0
XRECORD
  5
2BB2B
102
{ACAD_REACTORS
330
25085
102
}
330
25085
100
AcDbXrecord
280
     1
  1
kiseki
  1
kiseki*
  1
*
  1
*
 70
     0
  1
*
  1
*
  0
XRECORD
  5
2BCAC
102
{ACAD_REACTORS
330
25092
102
}
330
25092
100
AcDbXrecord
280
     1
 91
     1023
301

290
     0
302
A
330
E
 90
       24
 62
     7
370
    35
331
14
  1
Color_7
330
2C
 90
       13
 62
     1
370
    -3
331
14
  1
Color_1
330
30
 90
        8
 62
     7
370
    -3
331
14
  1
Color_7
330
0
 90
        8
 62
     7
370
    -3
331
14
  1
Color_7
330
0
 90
        8
 62
     7
370
    -3
331
14
  1
Color_7
330
0
 90
        5
 62
     7
370
    -3
331
14
  1
Color_7
330
651
 90
        9
 62
     7
370
    -3
331
14
  1
Color_7
330
0
 90
        8
 62
     7
370
    -3
331
14
  1
Color_7
330
A9BB
 90
        8
 62
     2
370
    30
331
14
  1
Color_2
330
122DE
 90
        9
 62
     4
370
    13
331
14
  1
Color_4
330
0
 90
        8
 62
     4
370
    13
331
14
  1
Color_4
330
0
 90
        8
 62
    13
370
    13
331
0
  1
Color_13
330
0
 90
        8
 62
     5
370
     9
331
15421
  1
Color_5
330
0
 90
        8
 62
     3
370
    40
331
14
  1
Color_3
330
0
 90
        8
 62
   231
370
     5
331
14
  1
Color_231
330
0
 90
        8
 62
     7
370
    -3
331
14
  1
Color_7
330
0
 90
        8
 62
     7
370
    -3
331
14
  1
Color_7
330
0
 90
        8
 62
     8
370
    13
331
1541F
  1
Color_8
330
0
 90
        8
 62
     3
370
    15
331
14
  1
Color_3
  0
ENDSEC
  0
EOF
