  0
SECTION
  2
HEADER
  9
$ACADVER
  1
AC1014
  9
$ACADMAINTVER
 70
     9
  9
$DWGCODEPAGE
  3
ANSI_932
  9
$INSBASE
 10
0.0
 20
0.0
 30
0.0
  9
$EXTMIN
 10
-433.3896145029402
 20
-1145.950413739188
 30
0.0
  9
$EXTMAX
 10
-77.24993064345993
 20
-1031.299045837229
 30
0.0
  9
$LIMMIN
 10
0.0
 20
0.0
  9
$LIMMAX
 10
420.0
 20
297.0
  9
$ORTHOMODE
 70
     1
  9
$REGENMODE
 70
     1
  9
$FILLMODE
 70
     1
  9
$QTEXTMODE
 70
     0
  9
$MIRRTEXT
 70
     0
  9
$DRAGMODE
 70
     2
  9
$LTSCALE
 40
1.0
  9
$OSMODE
 70
   959
  9
$ATTMODE
 70
     1
  9
$TEXTSIZE
 40
2.5
  9
$TRACEWID
 40
1.0
  9
$TEXTSTYLE
  7
STANDARD
  9
$CLAYER
  8
細線
  9
$CELTYPE
  6
BYLAYER
  9
$CECOLOR
 62
   256
  9
$CELTSCALE
 40
10.0
  9
$DELOBJ
 70
     1
  9
$DISPSILH
 70
     0
  9
$DIMSCALE
 40
1.0
  9
$DIMASZ
 40
1.5
  9
$DIMEXO
 40
0.8
  9
$DIMDLI
 40
9.0
  9
$DIMRND
 40
0.0
  9
$DIMDLE
 40
0.0
  9
$DIMEXE
 40
0.5
  9
$DIMTP
 40
0.0
  9
$DIMTM
 40
0.0
  9
$DIMTXT
 40
1.5
  9
$DIMCEN
 40
0.0
  9
$DIMTSZ
 40
0.0
  9
$DIMTOL
 70
     0
  9
$DIMLIM
 70
     0
  9
$DIMTIH
 70
     0
  9
$DIMTOH
 70
     0
  9
$DIMSE1
 70
     0
  9
$DIMSE2
 70
     0
  9
$DIMTAD
 70
     3
  9
$DIMZIN
 70
     8
  9
$DIMBLK
  1
OPEN30
  9
$DIMASO
 70
     1
  9
$DIMSHO
 70
     1
  9
$DIMPOST
  1

  9
$DIMAPOST
  1

  9
$DIMALT
 70
     0
  9
$DIMALTD
 70
     2
  9
$DIMALTF
 40
25.4
  9
$DIMLFAC
 40
1.0
  9
$DIMTOFL
 70
     1
  9
$DIMTVP
 40
0.0
  9
$DIMTIX
 70
     0
  9
$DIMSOXD
 70
     0
  9
$DIMSAH
 70
     0
  9
$DIMBLK1
  1

  9
$DIMBLK2
  1

  9
$DIMSTYLE
  2
まこ
  9
$DIMCLRD
 70
     4
  9
$DIMCLRE
 70
     4
  9
$DIMCLRT
 70
   256
  9
$DIMTFAC
 40
1.0
  9
$DIMGAP
 40
0.8
  9
$DIMJUST
 70
     0
  9
$DIMSD1
 70
     0
  9
$DIMSD2
 70
     0
  9
$DIMTOLJ
 70
     1
  9
$DIMTZIN
 70
     0
  9
$DIMALTZ
 70
     0
  9
$DIMALTTZ
 70
     0
  9
$DIMFIT
 70
     3
  9
$DIMUPT
 70
     0
  9
$DIMUNIT
 70
     2
  9
$DIMDEC
 70
     6
  9
$DIMTDEC
 70
     6
  9
$DIMALTU
 70
     2
  9
$DIMALTTD
 70
     2
  9
$DIMTXSTY
  7
まこ
  9
$DIMAUNIT
 70
     0
  9
$LUNITS
 70
     2
  9
$LUPREC
 70
     4
  9
$SKETCHINC
 40
1.0
  9
$FILLETRAD
 40
2.0
  9
$AUNITS
 70
     0
  9
$AUPREC
 70
     3
  9
$MENU
  1
.
  9
$ELEVATION
 40
0.0
  9
$PELEVATION
 40
0.0
  9
$THICKNESS
 40
0.0
  9
$LIMCHECK
 70
     0
  9
$BLIPMODE
 70
     0
  9
$CHAMFERA
 40
1.0
  9
$CHAMFERB
 40
1.0
  9
$CHAMFERC
 40
20.0
  9
$CHAMFERD
 40
0.0
  9
$SKPOLY
 70
     0
  9
$TDCREATE
 40
2452479.723123183
  9
$TDUPDATE
 40
2455601.482624953
  9
$TDINDWG
 40
5.9989516319
  9
$TDUSRTIMER
 40
5.9989492824
  9
$USRTIMER
 70
     1
  9
$ANGBASE
 50
0.0
  9
$ANGDIR
 70
     0
  9
$PDMODE
 70
     0
  9
$PDSIZE
 40
0.0
  9
$PLINEWID
 40
0.0
  9
$COORDS
 70
     1
  9
$SPLFRAME
 70
     0
  9
$SPLINETYPE
 70
     6
  9
$SPLINESEGS
 70
     8
  9
$ATTDIA
 70
     0
  9
$ATTREQ
 70
     1
  9
$HANDLING
 70
-16383
  9
$HANDSEED
  5
15171
  9
$SURFTAB1
 70
     6
  9
$SURFTAB2
 70
     6
  9
$SURFTYPE
 70
     6
  9
$SURFU
 70
     6
  9
$SURFV
 70
     6
  9
$UCSNAME
  2

  9
$UCSORG
 10
0.0
 20
0.0
 30
0.0
  9
$UCSXDIR
 10
1.0
 20
0.0
 30
0.0
  9
$UCSYDIR
 10
0.0
 20
1.0
 30
0.0
  9
$PUCSNAME
  2

  9
$PUCSORG
 10
0.0
 20
0.0
 30
0.0
  9
$PUCSXDIR
 10
1.0
 20
0.0
 30
0.0
  9
$PUCSYDIR
 10
0.0
 20
1.0
 30
0.0
  9
$USERI1
 70
     0
  9
$USERI2
 70
     0
  9
$USERI3
 70
     0
  9
$USERI4
 70
     0
  9
$USERI5
 70
     0
  9
$USERR1
 40
0.0
  9
$USERR2
 40
0.0
  9
$USERR3
 40
0.0
  9
$USERR4
 40
0.0
  9
$USERR5
 40
0.0
  9
$WORLDVIEW
 70
     1
  9
$SHADEDGE
 70
     3
  9
$SHADEDIF
 70
    70
  9
$TILEMODE
 70
     0
  9
$MAXACTVP
 70
    48
  9
$PINSBASE
 10
0.0
 20
0.0
 30
0.0
  9
$PLIMCHECK
 70
     0
  9
$PEXTMIN
 10
-0.000017866925873
 20
-0.0023737427478636
 30
-0.0015258207003583
  9
$PEXTMAX
 10
400.0117306975796
 20
288.0162037322277
 30
0.0000000349246037
  9
$PLIMMIN
 10
-9.983491892750819
 20
-3.391361317987616
  9
$PLIMMAX
 10
409.9631633806867
 20
293.5346335550592
  9
$UNITMODE
 70
     0
  9
$VISRETAIN
 70
     1
  9
$PLINEGEN
 70
     0
  9
$PSLTSCALE
 70
     0
  9
$TREEDEPTH
 70
  3020
  9
$PICKSTYLE
 70
     0
  9
$CMLSTYLE
  2
STANDARD
  9
$CMLJUST
 70
     0
  9
$CMLSCALE
 40
20.0
  9
$PROXYGRAPHICS
 70
     1
  9
$MEASUREMENT
 70
     0
  0
ENDSEC
  0
SECTION
  2
CLASSES
  0
CLASS
  1
HATCH
  2
AcDbHatch
  3
AutoCAD 2000
 90
        0
280
     0
281
     1
  0
CLASS
  1
LWPOLYLINE
  2
AcDbPolyline
  3
AutoCAD 2000
 90
        0
280
     0
281
     1
  0
CLASS
  1
ACDBDICTIONARYWDFLT
  2
AcDbDictionaryWithDefault
  3
AutoCAD 2000
 90
        0
280
     0
281
     0
  0
CLASS
  1
ACDBPLACEHOLDER
  2
AcDbPlaceHolder
  3
AutoCAD 2000
 90
        0
280
     0
281
     0
  0
CLASS
  1
LAYOUT
  2
AcDbLayout
  3
AutoCAD 2000
 90
        0
280
     0
281
     0
  0
CLASS
  1
DICTIONARYVAR
  2
AcDbDictionaryVar
  3
AutoCAD 2000
 90
        0
280
     0
281
     0
  0
CLASS
  1
LONG_TRANSACTION
  2
AcDbLongTransaction
  3
AutoCAD 2000
 90
        0
280
     0
281
     0
  0
CLASS
  1
LWPOLYLINE
  2
AcDbPolyline
  3
AutoCAD 2000
 90
        0
280
     0
281
     1
  0
CLASS
  1
HATCH
  2
AcDbHatch
  3
AutoCAD 2000
 90
        0
280
     0
281
     1
  0
CLASS
  1
XRECORD
  2
AcDbXrecord
  3
AutoCAD 2000
 90
        0
280
     0
281
     0
  0
ENDSEC
  0
SECTION
  2
TABLES
  0
TABLE
  2
VPORT
  5
8
330
0
100
AcDbSymbolTable
 70
     3
  0
VPORT
  5
1514B
330
8
100
AcDbSymbolTableRecord
100
AcDbViewportTableRecord
  2
*ACTIVE
 70
     0
 10
0.0
 20
0.0
 11
1.0
 21
1.0
 12
-255.3286388836409
 22
-1088.613514866836
 13
0.0
 23
0.0
 14
10.0
 24
10.0
 15
10.0
 25
10.0
 16
0.0
 26
0.0
 36
1.0
 17
0.0
 27
0.0
 37
0.0
 40
163.5488180043041
 41
2.184834123222748
 42
50.0
 43
0.0
 44
0.0
 50
0.0
 51
0.0
 71
     0
 72
   100
 73
     1
 74
     0
 75
     0
 76
     0
 77
     0
 78
     2
  0
ENDTAB
  0
TABLE
  2
LTYPE
  5
5
330
0
100
AcDbSymbolTable
 70
     4
  0
LTYPE
  5
12
330
5
100
AcDbSymbolTableRecord
100
AcDbLinetypeTableRecord
  2
BYBLOCK
 70
     0
  3

 72
    65
 73
     0
 40
0.0
  0
LTYPE
  5
13
330
5
100
AcDbSymbolTableRecord
100
AcDbLinetypeTableRecord
  2
BYLAYER
 70
     0
  3

 72
    65
 73
     0
 40
0.0
  0
LTYPE
  5
14
330
5
100
AcDbSymbolTableRecord
100
AcDbLinetypeTableRecord
  2
CONTINUOUS
 70
     0
  3
Solid line
 72
    65
 73
     0
 40
0.0
  0
LTYPE
  5
3306
330
5
100
AcDbSymbolTableRecord
100
AcDbLinetypeTableRecord
  2
CENTER
 70
     0
  3
Center ____ _ ____ _ ____ _ ____ _ ____ _ ____
 72
    65
 73
     4
 40
2.0
 49
1.25
 74
     0
 49
-0.25
 74
     0
 49
0.25
 74
     0
 49
-0.25
 74
     0
  0
LTYPE
  5
B567
330
5
100
AcDbSymbolTableRecord
100
AcDbLinetypeTableRecord
  2
HIDDEN
 70
     0
  3
Hidden __ __ __ __ __ __ __ __ __ __ __ __ __ _
 72
    65
 73
     2
 40
0.375
 49
0.25
 74
     0
 49
-0.125
 74
     0
  0
LTYPE
  5
B56B
330
5
100
AcDbSymbolTableRecord
100
AcDbLinetypeTableRecord
  2
PHANTOM
 70
     0
  3
Phantom ______  __  __  ______  __  __  ______
 72
    65
 73
     6
 40
2.5
 49
1.25
 74
     0
 49
-0.25
 74
     0
 49
0.25
 74
     0
 49
-0.25
 74
     0
 49
0.25
 74
     0
 49
-0.25
 74
     0
  0
ENDTAB
  0
TABLE
  2
LAYER
  5
2
102
{ACAD_XDICTIONARY
360
11C1F
102
}
330
0
100
AcDbSymbolTable
 70
    11
  0
LAYER
  5
E
330
2
100
AcDbSymbolTableRecord
100
AcDbLayerTableRecord
  2
0
 70
     2
 62
     7
  6
CONTINUOUS
  0
LAYER
  5
2C
330
2
100
AcDbSymbolTableRecord
100
AcDbLayerTableRecord
  2
M_VIEW
 70
     0
 62
    -1
  6
CONTINUOUS
  0
LAYER
  5
12B
330
2
100
AcDbSymbolTableRecord
100
AcDbLayerTableRecord
  2
DEFPOINTS
 70
     0
 62
    -7
  6
CONTINUOUS
  0
LAYER
  5
8C6
330
2
100
AcDbSymbolTableRecord
100
AcDbLayerTableRecord
  2
文字
 70
     0
 62
     7
  6
CONTINUOUS
  0
LAYER
  5
1523
330
2
100
AcDbSymbolTableRecord
100
AcDbLayerTableRecord
  2
細線
 70
     0
 62
     7
  6
CONTINUOUS
  0
LAYER
  5
A51A
330
2
100
AcDbSymbolTableRecord
100
AcDbLayerTableRecord
  2
中心線
 70
     0
 62
     7
  6
CENTER
  0
LAYER
  5
B010
330
2
100
AcDbSymbolTableRecord
100
AcDbLayerTableRecord
  2
実線
 70
     0
 62
     7
  6
CONTINUOUS
  0
LAYER
  5
B570
330
2
100
AcDbSymbolTableRecord
100
AcDbLayerTableRecord
  2
破線
 70
     0
 62
     7
  6
HIDDEN
  0
LAYER
  5
124D4
330
2
100
AcDbSymbolTableRecord
100
AcDbLayerTableRecord
  2
MG
 70
     0
 62
     7
  6
CONTINUOUS
  0
LAYER
  5
13031
330
2
100
AcDbSymbolTableRecord
100
AcDbLayerTableRecord
  2
２点鎖線
 70
     0
 62
     7
  6
PHANTOM
  0
ENDTAB
  0
TABLE
  2
STYLE
  5
3
330
0
100
AcDbSymbolTable
 70
     7
  0
STYLE
  5
F
330
3
100
AcDbSymbolTableRecord
100
AcDbTextStyleTableRecord
  2
STANDARD
 70
     0
 40
0.0
 41
1.0
 50
0.0
 71
     0
 42
2.5
  3
isocp.shx
  4
bigfont.shx
  0
STYLE
  5
8D7
330
3
100
AcDbSymbolTableRecord
100
AcDbTextStyleTableRecord
  2
MSｺ_ｼｯｸ-0
 70
     0
 40
0.0
 41
1.0
 50
0.0
 71
     0
 42
4.0
  3
simplex.shx
  4
bigfont.shx
  0
STYLE
  5
1529
330
3
100
AcDbSymbolTableRecord
100
AcDbTextStyleTableRecord
  2
まこ
 70
     0
 40
0.0
 41
1.0
 50
0.0
 71
     0
 42
2.5
  3
simplex.shx
  4
bigfont.shx
  0
ENDTAB
  0
TABLE
  2
VIEW
  5
6
330
0
100
AcDbSymbolTable
 70
     0
  0
ENDTAB
  0
TABLE
  2
UCS
  5
7
330
0
100
AcDbSymbolTable
 70
     0
  0
ENDTAB
  0
TABLE
  2
APPID
  5
9
330
0
100
AcDbSymbolTable
 70
     1
  0
APPID
  5
10
330
9
100
AcDbSymbolTableRecord
100
AcDbRegAppTableRecord
  2
ACAD
 70
     0
  0
ENDTAB
  0
TABLE
  2
DIMSTYLE
  5
A
330
0
100
AcDbSymbolTable
 70
     3
  0
DIMSTYLE
105
1D
330
A
100
AcDbSymbolTableRecord
100
AcDbDimStyleTableRecord
  2
STANDARD
 70
     0
  3

  4

  5
OPEN30
  6

  7

 40
1.0
 41
3.0
 42
0.8
 43
0.38
 44
0.8
 45
0.0
 46
0.0
 47
0.0
 48
0.0
140
3.0
141
0.0
142
0.0
143
25.4
144
1.0
145
0.0
146
1.0
147
0.5
 71
     0
 72
     0
 73
     0
 74
     0
 75
     0
 76
     0
 77
     3
 78
     8
170
     0
171
     2
172
     0
173
     0
174
     0
175
     0
176
     4
177
     4
178
   256
270
     2
271
     4
272
     4
273
     2
274
     2
340
8D7
275
     0
280
     0
281
     0
282
     0
283
     1
284
     0
285
     0
286
     0
287
     3
288
     0
  0
DIMSTYLE
105
152B
330
A
100
AcDbSymbolTableRecord
100
AcDbDimStyleTableRecord
  2
まこ
 70
     0
  3

  4

  5
OPEN30
  6

  7

 40
1.0
 41
1.5
 42
0.8
 43
9.0
 44
0.5
 45
0.0
 46
0.0
 47
0.0
 48
0.0
140
1.5
141
0.0
142
0.0
143
25.4
144
1.0
145
0.0
146
1.0
147
0.8
 71
     0
 72
     0
 73
     0
 74
     0
 75
     0
 76
     0
 77
     3
 78
     8
170
     0
171
     2
172
     1
173
     0
174
     0
175
     0
176
     4
177
     4
178
   256
270
     2
271
     6
272
     6
273
     2
274
     2
340
1529
275
     0
280
     0
281
     0
282
     0
283
     1
284
     0
285
     0
286
     0
287
     3
288
     0
  0
ENDTAB
  0
TABLE
  2
BLOCK_RECORD
  5
1
330
0
100
AcDbSymbolTable
 70
    15
  0
BLOCK_RECORD
  5
18
102
{ACAD_XDICTIONARY
360
1516F
102
}
330
1
100
AcDbSymbolTableRecord
100
AcDbBlockTableRecord
  2
*MODEL_SPACE
  0
BLOCK_RECORD
  5
15
102
{ACAD_XDICTIONARY
360
1516D
102
}
330
1
100
AcDbSymbolTableRecord
100
AcDbBlockTableRecord
  2
*PAPER_SPACE
  0
BLOCK_RECORD
  5
89E
330
1
100
AcDbSymbolTableRecord
100
AcDbBlockTableRecord
  2
_OPEN30
  0
ENDTAB
  0
ENDSEC
  0
SECTION
  2
BLOCKS
  0
BLOCK
  5
19
330
18
100
AcDbEntity
  8
0
100
AcDbBlockBegin
  2
*MODEL_SPACE
 70
     0
 10
0.0
 20
0.0
 30
0.0
  3
*MODEL_SPACE
  1

  0
ENDBLK
  5
1A
330
18
100
AcDbEntity
  8
0
100
AcDbBlockEnd
  0
BLOCK
  5
16
330
15
100
AcDbEntity
 67
     1
  8
0
100
AcDbBlockBegin
  2
*PAPER_SPACE
 70
     0
 10
0.0
 20
0.0
 30
0.0
  3
*PAPER_SPACE
  1

  0
ENDBLK
  5
17
330
15
100
AcDbEntity
 67
     1
  8
0
100
AcDbBlockEnd
  0
BLOCK
  5
8A2
330
89E
100
AcDbEntity
  8
0
100
AcDbBlockBegin
  2
_OPEN30
 70
     0
 10
0.0
 20
0.0
 30
0.0
  3
_OPEN30
  1

  0
LINE
  5
89F
330
89E
100
AcDbEntity
  8
0
  6
BYBLOCK
 62
     0
100
AcDbLine
 10
-1.0
 20
0.26794919
 30
0.0
 11
0.0
 21
0.0
 31
0.0
  0
LINE
  5
8A0
330
89E
100
AcDbEntity
  8
0
  6
BYBLOCK
 62
     0
100
AcDbLine
 10
0.0
 20
0.0
 30
0.0
 11
-1.0
 21
-0.26794919
 31
0.0
  0
LINE
  5
8A1
330
89E
100
AcDbEntity
  8
0
  6
BYBLOCK
 62
     0
100
AcDbLine
 10
0.0
 20
0.0
 30
0.0
 11
-1.0
 21
0.0
 31
0.0
  0
ENDBLK
  5
8A3
330
89E
100
AcDbEntity
  8
0
100
AcDbBlockEnd
  0
ENDSEC
  0
SECTION
  2
ENTITIES
  0
MTEXT
  5
E5E2
330
18
100
AcDbEntity
  8
実線
 48
10.0
100
AcDbMText
 10
163.1784009551904
 20
-361.9146226558881
 30
0.0
 40
3.0
 41
0.0
 71
     9
 72
     1
  1

  7
まこ
1001
ACAD
1000
MTEXTBEGIN
1070
    73
1070
     1
1070
    44
1040
1.0
1070
    74
1070
     0
1000
MTEXTEND
  0
MTEXT
  5
E8EF
330
18
100
AcDbEntity
  8
文字
 48
10.0
100
AcDbMText
 10
312.0475895584313
 20
-320.8822905760681
 30
0.0
 40
2.0
 41
12.8899
 71
     9
 72
     1
  1

  7
まこ
1001
ACAD
1000
MTEXTBEGIN
1070
    73
1070
     1
1070
    44
1040
1.0
1070
    74
1070
     0
1000
MTEXTEND
  0
LINE
  5
14996
330
18
100
AcDbEntity
  8
中心線
100
AcDbLine
 10
-77.24993064345993
 20
-1039.713259399603
 30
0.0
 11
-108.2499306434604
 21
-1039.713259399603
 31
0.0
  0
LINE
  5
14997
330
18
100
AcDbEntity
  8
破線
 48
10.0
100
AcDbLine
 10
-83.74993064345995
 20
-1042.713259399602
 30
0.0
 11
-101.7499306434607
 21
-1042.713259399602
 31
0.0
  0
LINE
  5
14998
330
18
100
AcDbEntity
  8
破線
 48
10.0
100
AcDbLine
 10
-83.74993064345995
 20
-1036.713259399603
 30
0.0
 11
-101.7499306434607
 21
-1036.713259399603
 31
0.0
  0
LINE
  5
14999
330
18
100
AcDbEntity
  8
実線
100
AcDbLine
 10
-83.74993064346041
 20
-1032.113259399603
 30
0.0
 11
-101.7499306434612
 21
-1032.113259399603
 31
0.0
  0
LINE
  5
1499A
330
18
100
AcDbEntity
  8
実線
100
AcDbLine
 10
-88.6499306434605
 20
-1046.113259399602
 30
0.0
 11
-96.84993064346031
 21
-1046.113259399602
 31
0.0
  0
LINE
  5
1499B
330
18
100
AcDbEntity
  8
２点鎖線
 48
5.0
100
AcDbLine
 10
-89.59993064345983
 20
-1048.213259399602
 30
0.0
 11
-95.89993064346003
 21
-1048.213259399602
 31
0.0
  0
LINE
  5
1499D
330
18
100
AcDbEntity
  8
２点鎖線
 48
5.0
100
AcDbLine
 10
-88.69993064346067
 20
-1134.213259399603
 30
0.0
 11
-96.79993064346014
 21
-1134.213259399603
 31
0.0
  0
LINE
  5
1499E
330
18
100
AcDbEntity
  8
２点鎖線
 48
5.0
100
AcDbLine
 10
-80.24993064346039
 20
-1140.713259399602
 30
0.0
 11
-105.2499306434601
 21
-1140.713259399602
 31
0.0
  0
LINE
  5
1499F
330
18
100
AcDbEntity
  8
中心線
100
AcDbLine
 10
-78.2499306434604
 20
-1134.713259399602
 30
0.0
 11
-107.2499306434607
 21
-1134.713259399602
 31
0.0
  0
LINE
  5
149A7
102
{ACAD_REACTORS
330
14BC8
102
}
330
18
100
AcDbEntity
  8
実線
100
AcDbLine
 10
-314.4754009405671
 20
-1040.579284789603
 30
0.0
 11
-312.9754009674881
 21
-1041.445310199603
 31
0.0
  0
LINE
  5
149A8
102
{ACAD_REACTORS
330
14BC8
102
}
330
18
100
AcDbEntity
  8
実線
100
AcDbLine
 10
-312.9754009674881
 20
-1037.981208599602
 30
0.0
 11
-314.4754009405671
 21
-1038.847234009603
 31
0.0
  0
CIRCLE
  5
149A9
102
{ACAD_REACTORS
330
14BC8
102
}
330
18
100
AcDbEntity
  8
実線
100
AcDbCircle
 10
-312.9754009405671
 20
-1039.713259399603
 30
0.0
 40
5.0
  0
LINE
  5
149AA
330
18
100
AcDbEntity
  8
中心線
 48
5.0
100
AcDbLine
 10
-195.975400940567
 20
-1039.713259399603
 30
0.0
 11
-429.975400940567
 21
-1039.713259399603
 31
0.0
  0
LINE
  5
149AB
330
18
100
AcDbEntity
  8
破線
 48
10.0
100
AcDbLine
 10
-431.4754009405671
 20
-1032.113259399602
 30
0.0
 11
-194.475400940567
 21
-1032.113259399602
 31
0.0
  0
LINE
  5
149AC
330
18
100
AcDbEntity
  8
破線
 48
10.0
100
AcDbLine
 10
-431.4754009405671
 20
-1058.113259399602
 30
0.0
 11
-194.475400940567
 21
-1058.113259399602
 31
0.0
  0
CIRCLE
  5
149AF
330
18
100
AcDbEntity
  8
実線
 48
10.0
100
AcDbCircle
 10
-312.9754009405671
 20
-1039.713259399603
 30
0.0
 40
5.5
  0
LINE
  5
149B1
330
18
100
AcDbEntity
  8
破線
 48
10.0
100
AcDbLine
 10
-432.4754009405672
 20
-1057.113259399602
 30
0.0
 11
-432.4754009405672
 21
-1033.113259399603
 31
0.0
  0
LINE
  5
149B3
330
18
100
AcDbEntity
  8
0
100
AcDbLine
 10
-412.9754009405669
 20
-1061.213259399603
 30
0.0
 11
-412.9754009405669
 21
-1052.213259399602
 31
0.0
  0
LINE
  5
149B4
330
18
100
AcDbEntity
  8
0
100
AcDbLine
 10
-427.9754009405666
 20
-1052.213259399602
 30
0.0
 11
-427.9754009405666
 21
-1061.213259399603
 31
0.0
  0
LINE
  5
149B7
330
18
100
AcDbEntity
  8
0
100
AcDbLine
 10
-367.4754009405667
 20
-1062.213259399602
 30
0.0
 11
-367.4754009405667
 21
-1051.213259399603
 31
0.0
  0
LINE
  5
149B8
330
18
100
AcDbEntity
  8
0
100
AcDbLine
 10
-402.4754009405667
 20
-1051.213259399603
 30
0.0
 11
-402.4754009405667
 21
-1062.213259399602
 31
0.0
  0
LINE
  5
149BC
330
18
100
AcDbEntity
  8
0
100
AcDbLine
 10
-402.4754009405667
 20
-1057.713259399603
 30
0.0
 11
-367.4754009405667
 21
-1057.713259399603
 31
0.0
  0
LINE
  5
149BD
330
18
100
AcDbEntity
  8
0
100
AcDbLine
 10
-401.9754009405668
 20
-1062.713259399603
 30
0.0
 11
-367.9754009405669
 21
-1062.713259399603
 31
0.0
  0
LINE
  5
149C2
330
18
100
AcDbEntity
  8
0
100
AcDbLine
 10
-427.9754009405666
 20
-1055.713259399603
 30
0.0
 11
-412.9754009405669
 21
-1055.713259399603
 31
0.0
  0
LINE
  5
149C3
330
18
100
AcDbEntity
  8
0
100
AcDbLine
 10
-427.4754009405667
 20
-1061.713259399603
 30
0.0
 11
-413.4754009405669
 21
-1061.713259399603
 31
0.0
  0
LINE
  5
149C4
330
18
100
AcDbEntity
  8
破線
 48
10.0
100
AcDbLine
 10
-432.4754009405672
 20
-1057.113259399602
 30
0.0
 11
-431.4754009405671
 21
-1058.113259399602
 31
0.0
  0
ARC
  5
149CA
330
18
100
AcDbEntity
  8
0
100
AcDbCircle
 10
-427.4754009405667
 20
-1061.213259399603
 30
0.0
 40
0.5
100
AcDbArc
 50
180.0
 51
270.0
  0
ARC
  5
149D0
330
18
100
AcDbEntity
  8
0
100
AcDbCircle
 10
-413.4754009405669
 20
-1061.213259399603
 30
0.0
 40
0.5
100
AcDbArc
 50
270.0
 51
0.0
  0
ARC
  5
149DB
330
18
100
AcDbEntity
  8
0
100
AcDbCircle
 10
-401.9754009405668
 20
-1062.213259399602
 30
0.0
 40
0.5
100
AcDbArc
 50
180.0
 51
270.0
  0
ARC
  5
149DE
330
18
100
AcDbEntity
  8
0
100
AcDbCircle
 10
-367.9754009405669
 20
-1062.213259399602
 30
0.0
 40
0.5
100
AcDbArc
 50
270.0
 51
0.0
  0
LINE
  5
149E1
330
18
100
AcDbEntity
  8
0
100
AcDbLine
 10
-367.9754009405669
 20
-1050.713259399602
 30
0.0
 11
-401.9754009405668
 21
-1050.713259399602
 31
0.0
  0
CIRCLE
  5
149E2
102
{ACAD_REACTORS
330
14BC6
102
}
330
18
100
AcDbEntity
  8
実線
100
AcDbCircle
 10
-422.9754009405671
 20
-1039.713259399603
 30
0.0
 40
5.0
  0
LINE
  5
149E4
330
18
100
AcDbEntity
  8
0
100
AcDbLine
 10
-413.4754009405669
 20
-1051.713259399603
 30
0.0
 11
-427.4754009405667
 21
-1051.713259399603
 31
0.0
  0
CIRCLE
  5
149E5
330
18
100
AcDbEntity
  8
実線
 48
10.0
100
AcDbCircle
 10
-422.9754009405671
 20
-1039.713259399603
 30
0.0
 40
5.5
  0
LINE
  5
149E6
330
18
100
AcDbEntity
  8
中心線
 48
4.0
100
AcDbLine
 10
-418.9754009405671
 20
-1039.713259399603
 30
0.0
 11
-426.9754009405671
 21
-1039.713259399603
 31
0.0
  0
LINE
  5
149E8
330
18
100
AcDbEntity
  8
中心線
 48
3.0
100
AcDbLine
 10
-422.9754009405671
 20
-1032.713259399603
 30
0.0
 11
-422.9754009405671
 21
-1046.713259399603
 31
0.0
  0
LINE
  5
149E9
102
{ACAD_REACTORS
330
14BC6
102
}
330
18
100
AcDbEntity
  8
実線
100
AcDbLine
 10
-421.4754009405671
 20
-1040.579284789602
 30
0.0
 11
-421.4754009405671
 21
-1038.847234009602
 31
0.0
  0
LINE
  5
149EA
102
{ACAD_REACTORS
330
14BC6
102
}
330
18
100
AcDbEntity
  8
実線
100
AcDbLine
 10
-424.4754009405672
 20
-1038.847234009602
 30
0.0
 11
-424.4754009405672
 21
-1040.579284789602
 31
0.0
  0
LINE
  5
149EB
102
{ACAD_REACTORS
330
14BC6
102
}
330
18
100
AcDbEntity
  8
実線
100
AcDbLine
 10
-424.4754009405672
 20
-1040.579284789602
 30
0.0
 11
-422.9754009674882
 21
-1041.445310199602
 31
0.0
  0
LINE
  5
149EC
102
{ACAD_REACTORS
330
14BC6
102
}
330
18
100
AcDbEntity
  8
実線
100
AcDbLine
 10
-421.4754009405671
 20
-1038.847234009602
 30
0.0
 11
-422.9754009136388
 21
-1037.981208599602
 31
0.0
  0
LINE
  5
149ED
102
{ACAD_REACTORS
330
14BC6
102
}
330
18
100
AcDbEntity
  8
実線
100
AcDbLine
 10
-422.9754009674882
 20
-1037.981208599602
 30
0.0
 11
-424.4754009405672
 21
-1038.847234009602
 31
0.0
  0
LINE
  5
149EE
102
{ACAD_REACTORS
330
14BC6
102
}
330
18
100
AcDbEntity
  8
実線
100
AcDbLine
 10
-422.9754009136388
 20
-1041.445310199602
 30
0.0
 11
-421.4754009405671
 21
-1040.579284789602
 31
0.0
  0
ARC
  5
149EF
330
18
100
AcDbEntity
  8
0
100
AcDbCircle
 10
-427.4754009405667
 20
-1052.213259399602
 30
0.0
 40
0.5
100
AcDbArc
 50
90.0
 51
180.0
  0
LINE
  5
149F0
330
18
100
AcDbEntity
  8
破線
 48
10.0
100
AcDbLine
 10
-431.4754009405671
 20
-1032.113259399602
 30
0.0
 11
-432.4754009405672
 21
-1033.113259399603
 31
0.0
  0
CIRCLE
  5
149F1
330
18
100
AcDbEntity
  8
実線
 48
10.0
100
AcDbCircle
 10
-402.9754009405671
 20
-1039.713259399603
 30
0.0
 40
3.0
  0
CIRCLE
  5
149F2
330
18
100
AcDbEntity
  8
実線
 48
10.0
100
AcDbCircle
 10
-402.9754009405671
 20
-1039.713259399603
 30
0.0
 40
5.0
  0
LINE
  5
149F3
330
18
100
AcDbEntity
  8
中心線
 48
3.0
100
AcDbLine
 10
-402.9754009405671
 20
-1032.713259399603
 30
0.0
 11
-402.9754009405671
 21
-1046.713259399603
 31
0.0
  0
LINE
  5
149F4
330
18
100
AcDbEntity
  8
中心線
 48
4.0
100
AcDbLine
 10
-408.4754009405672
 20
-1046.713259399603
 30
0.0
 11
-417.475400940567
 21
-1046.713259399603
 31
0.0
  0
CIRCLE
  5
149F5
330
18
100
AcDbEntity
  8
実線
 48
10.0
100
AcDbCircle
 10
-412.9754009405671
 20
-1046.713259399603
 30
0.0
 40
2.5
  0
ARC
  5
149F6
330
18
100
AcDbEntity
  8
0
100
AcDbCircle
 10
-413.4754009405669
 20
-1052.213259399602
 30
0.0
 40
0.5
100
AcDbArc
 50
0.0
 51
90.0
  0
LINE
  5
149F7
330
18
100
AcDbEntity
  8
中心線
 48
4.0
100
AcDbLine
 10
-412.9754009405671
 20
-1051.213259399603
 30
0.0
 11
-412.9754009405671
 21
-1042.213259399603
 31
0.0
  0
ARC
  5
149F8
330
18
100
AcDbEntity
  8
0
100
AcDbCircle
 10
-401.9754009405668
 20
-1051.213259399603
 30
0.0
 40
0.5
100
AcDbArc
 50
90.0
 51
180.0
  0
ARC
  5
149F9
330
18
100
AcDbEntity
  8
0
100
AcDbCircle
 10
-367.9754009405669
 20
-1051.213259399603
 30
0.0
 40
0.5
100
AcDbArc
 50
0.0
 51
90.0
  0
CIRCLE
  5
149FA
102
{ACAD_REACTORS
330
14BC7
102
}
330
18
100
AcDbEntity
  8
実線
100
AcDbCircle
 10
-372.9754009405671
 20
-1039.713259399603
 30
0.0
 40
5.0
  0
LINE
  5
149FB
330
18
100
AcDbEntity
  8
中心線
 48
3.0
100
AcDbLine
 10
-372.9754009405671
 20
-1032.713259399603
 30
0.0
 11
-372.9754009405671
 21
-1046.713259399603
 31
0.0
  0
CIRCLE
  5
149FC
330
18
100
AcDbEntity
  8
実線
 48
10.0
100
AcDbCircle
 10
-372.9754009405671
 20
-1039.713259399603
 30
0.0
 40
5.5
  0
LINE
  5
149FD
102
{ACAD_REACTORS
330
14BC7
102
}
330
18
100
AcDbEntity
  8
実線
100
AcDbLine
 10
-372.9754009136388
 20
-1041.445310199602
 30
0.0
 11
-371.4754009405671
 21
-1040.579284789602
 31
0.0
  0
LINE
  5
149FE
102
{ACAD_REACTORS
330
14BC7
102
}
330
18
100
AcDbEntity
  8
実線
100
AcDbLine
 10
-371.4754009405671
 20
-1040.579284789602
 30
0.0
 11
-371.4754009405671
 21
-1038.847234009602
 31
0.0
  0
LINE
  5
149FF
102
{ACAD_REACTORS
330
14BC7
102
}
330
18
100
AcDbEntity
  8
実線
100
AcDbLine
 10
-374.4754009405671
 20
-1040.579284789602
 30
0.0
 11
-372.9754009674881
 21
-1041.445310199602
 31
0.0
  0
LINE
  5
14A00
102
{ACAD_REACTORS
330
14BC7
102
}
330
18
100
AcDbEntity
  8
実線
100
AcDbLine
 10
-371.4754009405671
 20
-1038.847234009602
 30
0.0
 11
-372.9754009136388
 21
-1037.981208599602
 31
0.0
  0
LINE
  5
14A01
102
{ACAD_REACTORS
330
14BC7
102
}
330
18
100
AcDbEntity
  8
実線
100
AcDbLine
 10
-372.9754009674881
 20
-1037.981208599602
 30
0.0
 11
-374.4754009405671
 21
-1038.847234009602
 31
0.0
  0
LINE
  5
14A02
102
{ACAD_REACTORS
330
14BC7
102
}
330
18
100
AcDbEntity
  8
実線
100
AcDbLine
 10
-374.4754009405671
 20
-1038.847234009602
 30
0.0
 11
-374.4754009405671
 21
-1040.579284789602
 31
0.0
  0
CIRCLE
  5
14A03
330
18
100
AcDbEntity
  8
実線
 48
10.0
100
AcDbCircle
 10
-342.9754009405671
 20
-1039.713259399603
 30
0.0
 40
3.0
  0
LINE
  5
14A04
330
18
100
AcDbEntity
  8
中心線
 48
3.0
100
AcDbLine
 10
-342.9754009405671
 20
-1032.713259399603
 30
0.0
 11
-342.9754009405671
 21
-1046.713259399603
 31
0.0
  0
CIRCLE
  5
14A05
330
18
100
AcDbEntity
  8
実線
 48
10.0
100
AcDbCircle
 10
-342.9754009405671
 20
-1039.713259399603
 30
0.0
 40
5.0
  0
LINE
  5
14A06
102
{ACAD_REACTORS
330
14BC8
102
}
330
18
100
AcDbEntity
  8
実線
100
AcDbLine
 10
-314.4754009405671
 20
-1038.847234009603
 30
0.0
 11
-314.4754009405671
 21
-1040.579284789603
 31
0.0
  0
LINE
  5
14A08
330
18
100
AcDbEntity
  8
実線
100
AcDbLine
 10
-96.84993064346031
 20
-1046.113259399602
 30
0.0
 11
-96.84993064345986
 21
-1058.113259399603
 31
0.0
  0
LINE
  5
14A09
330
18
100
AcDbEntity
  8
２点鎖線
 48
5.0
100
AcDbLine
 10
-95.89993064346051
 20
-1048.213259399602
 30
0.0
 11
-95.89993064346051
 21
-1113.713259399603
 31
0.0
  0
LINE
  5
14A0A
330
18
100
AcDbEntity
  8
実線
100
AcDbLine
 10
-106.2499306434601
 20
-1113.713259399603
 30
0.0
 11
-106.2499306434601
 21
-1031.713259399603
 31
0.0
  0
LINE
  5
14A0F
330
18
100
AcDbEntity
  8
２点鎖線
 48
5.0
100
AcDbLine
 10
-105.2499306434601
 20
-1115.713259399603
 30
0.0
 11
-105.2499306434601
 21
-1140.713259399602
 31
0.0
  0
LINE
  5
14A10
330
18
100
AcDbEntity
  8
２点鎖線
 48
5.0
100
AcDbLine
 10
-96.79993064346014
 20
-1115.713259399603
 30
0.0
 11
-96.79993064346014
 21
-1134.213259399603
 31
0.0
  0
LINE
  5
14A11
330
18
100
AcDbEntity
  8
中心線
100
AcDbLine
 10
-101.2499306434594
 20
-1115.413259399603
 30
0.0
 11
-101.2499306434594
 21
-1130.994582945503
 31
0.0
  0
LINE
  5
14A12
330
18
100
AcDbEntity
  8
２点鎖線
 48
5.0
100
AcDbLine
 10
-98.42369107416402
 20
-1133.113259399602
 30
0.0
 11
-105.2499306434601
 21
-1133.113259399603
 31
0.0
  0
LINE
  5
14A13
330
18
100
AcDbEntity
  8
２点鎖線
 48
5.0
100
AcDbLine
 10
-99.2499306434604
 20
-1132.713259399602
 30
0.0
 11
-105.2499306434601
 21
-1132.713259399602
 31
0.0
  0
LINE
  5
14A14
330
18
100
AcDbEntity
  8
２点鎖線
 48
5.0
100
AcDbLine
 10
-98.42369107416402
 20
-1136.313259399603
 30
0.0
 11
-105.2499306434601
 21
-1136.313259399603
 31
0.0
  0
LINE
  5
14A15
330
18
100
AcDbEntity
  8
２点鎖線
 48
5.0
100
AcDbLine
 10
-99.2499306434604
 20
-1136.713259399603
 30
0.0
 11
-105.2499306434601
 21
-1136.713259399603
 31
0.0
  0
LINE
  5
14A16
330
18
100
AcDbEntity
  8
２点鎖線
 48
5.0
100
AcDbLine
 10
-98.42369107416402
 20
-1133.113259399602
 30
0.0
 11
-98.42369107416402
 21
-1136.313259399603
 31
0.0
  0
LINE
  5
14A17
330
18
100
AcDbEntity
  8
２点鎖線
 48
5.0
100
AcDbLine
 10
-97.49993064346041
 20
-1134.713259399602
 30
0.0
 11
-98.42369107416402
 21
-1133.113259399602
 31
0.0
  0
LINE
  5
14A18
330
18
100
AcDbEntity
  8
２点鎖線
 48
5.0
100
AcDbLine
 10
-99.2499306434604
 20
-1132.713259399602
 30
0.0
 11
-99.2499306434604
 21
-1136.713259399603
 31
0.0
  0
LINE
  5
14A19
330
18
100
AcDbEntity
  8
２点鎖線
 48
5.0
100
AcDbLine
 10
-97.49993064346041
 20
-1134.713259399602
 30
0.0
 11
-98.42369107416358
 21
-1136.313259399603
 31
0.0
  0
LINE
  5
14A1A
330
18
100
AcDbEntity
  8
中心線
100
AcDbLine
 10
-103.7645850657687
 20
-1129.213259399602
 30
0.0
 11
-98.70780503085441
 21
-1129.213259399602
 31
0.0
  0
CIRCLE
  5
14A1B
330
18
100
AcDbEntity
  8
２点鎖線
 48
5.0
100
AcDbCircle
 10
-101.2499306434594
 20
-1129.213259399602
 30
0.0
 40
1.5
  0
CIRCLE
  5
14A1C
330
18
100
AcDbEntity
  8
２点鎖線
 48
5.0
100
AcDbCircle
 10
-101.2499306434594
 20
-1129.213259399602
 30
0.0
 40
1.0
  0
LINE
  5
14A1E
330
18
100
AcDbEntity
  8
実線
100
AcDbLine
 10
-101.7499306434604
 20
-1113.713259399603
 30
0.0
 11
-101.7499306434607
 21
-1058.113259399603
 31
0.0
  0
LINE
  5
14A1F
330
18
100
AcDbEntity
  8
MG
100
AcDbLine
 10
-101.7499306434604
 20
-1063.213259399603
 30
0.0
 11
-101.7499306434604
 21
-1113.213259399602
 31
0.0
  0
LINE
  5
14A20
330
18
100
AcDbEntity
  8
MG
100
AcDbLine
 10
-96.69993064346069
 20
-1063.013259399602
 30
0.0
 11
-96.69993064345932
 21
-1113.413259399602
 31
0.0
  0
LINE
  5
14A21
330
18
100
AcDbEntity
  8
実線
100
AcDbLine
 10
-106.2499306434601
 20
-1113.713259399603
 30
0.0
 11
-101.7499306434604
 21
-1113.713259399603
 31
0.0
  0
LINE
  5
14A22
330
18
100
AcDbEntity
  8
２点鎖線
 48
5.0
100
AcDbLine
 10
-96.79993064346014
 20
-1115.713259399603
 30
0.0
 11
-105.2499306434601
 21
-1115.713259399603
 31
0.0
  0
LINE
  5
14A23
330
18
100
AcDbEntity
  8
MG
100
AcDbLine
 10
-96.69993064345932
 20
-1113.413259399602
 30
0.0
 11
-101.7499306434604
 21
-1113.413259399602
 31
0.0
  0
LINE
  5
14A24
330
18
100
AcDbEntity
  8
２点鎖線
 48
5.0
100
AcDbLine
 10
-97.89993064346049
 20
-1115.713259399602
 30
0.0
 11
-95.89993064346051
 21
-1113.713259399602
 31
0.0
  0
CIRCLE
  5
14A25
330
18
100
AcDbEntity
  8
２点鎖線
 48
5.0
100
AcDbCircle
 10
-101.2499306434594
 20
-1119.213259399603
 30
0.0
 40
1.5
  0
LINE
  5
14A26
330
18
100
AcDbEntity
  8
中心線
100
AcDbLine
 10
-103.7645850657687
 20
-1119.213259399603
 30
0.0
 11
-98.70780503085441
 21
-1119.213259399603
 31
0.0
  0
CIRCLE
  5
14A27
330
18
100
AcDbEntity
  8
２点鎖線
 48
5.0
100
AcDbCircle
 10
-101.2499306434594
 20
-1119.213259399603
 30
0.0
 40
1.0
  0
LINE
  5
14A28
330
18
100
AcDbEntity
  8
MG
100
AcDbLine
 10
-96.69993064346069
 20
-1063.013259399602
 30
0.0
 11
-101.7499306434604
 21
-1063.013259399602
 31
0.0
  0
LINE
  5
14A29
330
18
100
AcDbEntity
  8
実線
100
AcDbLine
 10
-96.84993064345986
 20
-1058.113259399603
 30
0.0
 11
-101.7499306434607
 21
-1058.113259399603
 31
0.0
  0
CIRCLE
  5
14A2F
330
18
100
AcDbEntity
  8
実線
 48
10.0
100
AcDbCircle
 10
-282.9754009405671
 20
-1039.713259399603
 30
0.0
 40
5.0
  0
LINE
  5
14A30
330
18
100
AcDbEntity
  8
中心線
 48
3.0
100
AcDbLine
 10
-312.9754009405671
 20
-1032.713259399603
 30
0.0
 11
-312.9754009405671
 21
-1046.713259399603
 31
0.0
  0
LINE
  5
14A31
102
{ACAD_REACTORS
330
14BC8
102
}
330
18
100
AcDbEntity
  8
実線
100
AcDbLine
 10
-312.9754009136386
 20
-1041.445310199603
 30
0.0
 11
-311.4754009405671
 21
-1040.579284789603
 31
0.0
  0
LINE
  5
14A32
102
{ACAD_REACTORS
330
14BC8
102
}
330
18
100
AcDbEntity
  8
実線
100
AcDbLine
 10
-311.4754009405671
 20
-1038.847234009603
 30
0.0
 11
-312.9754009136386
 21
-1037.981208599602
 31
0.0
  0
LINE
  5
14A33
102
{ACAD_REACTORS
330
14BC8
102
}
330
18
100
AcDbEntity
  8
実線
100
AcDbLine
 10
-311.4754009405671
 20
-1040.579284789603
 30
0.0
 11
-311.4754009405671
 21
-1038.847234009603
 31
0.0
  0
CIRCLE
  5
14A34
330
18
100
AcDbEntity
  8
実線
 48
10.0
100
AcDbCircle
 10
-282.9754009405671
 20
-1039.713259399603
 30
0.0
 40
3.0
  0
LINE
  5
14A35
330
18
100
AcDbEntity
  8
中心線
 48
3.0
100
AcDbLine
 10
-282.9754009405671
 20
-1032.713259399603
 30
0.0
 11
-282.9754009405671
 21
-1046.713259399603
 31
0.0
  0
CIRCLE
  5
14A36
102
{ACAD_REACTORS
330
14BC9
102
}
330
18
100
AcDbEntity
  8
実線
100
AcDbCircle
 10
-252.975400940567
 20
-1039.713259399603
 30
0.0
 40
5.0
  0
LINE
  5
14A37
330
18
100
AcDbEntity
  8
中心線
 48
3.0
100
AcDbLine
 10
-252.975400940567
 20
-1032.713259399603
 30
0.0
 11
-252.975400940567
 21
-1046.713259399603
 31
0.0
  0
CIRCLE
  5
14A38
330
18
100
AcDbEntity
  8
実線
 48
10.0
100
AcDbCircle
 10
-252.975400940567
 20
-1039.713259399603
 30
0.0
 40
5.5
  0
LINE
  5
14A39
102
{ACAD_REACTORS
330
14BC9
102
}
330
18
100
AcDbEntity
  8
実線
100
AcDbLine
 10
-252.9754009136389
 20
-1041.445310199603
 30
0.0
 11
-251.475400940567
 21
-1040.579284789603
 31
0.0
  0
LINE
  5
14A3A
102
{ACAD_REACTORS
330
14BC9
102
}
330
18
100
AcDbEntity
  8
実線
100
AcDbLine
 10
-251.475400940567
 20
-1038.847234009603
 30
0.0
 11
-252.9754009136389
 21
-1037.981208599602
 31
0.0
  0
LINE
  5
14A3B
102
{ACAD_REACTORS
330
14BC9
102
}
330
18
100
AcDbEntity
  8
実線
100
AcDbLine
 10
-254.4754009405671
 20
-1038.847234009603
 30
0.0
 11
-254.4754009405671
 21
-1040.579284789603
 31
0.0
  0
LINE
  5
14A3C
102
{ACAD_REACTORS
330
14BC9
102
}
330
18
100
AcDbEntity
  8
実線
100
AcDbLine
 10
-254.4754009405671
 20
-1040.579284789603
 30
0.0
 11
-252.975400967488
 21
-1041.445310199603
 31
0.0
  0
LINE
  5
14A3D
102
{ACAD_REACTORS
330
14BC9
102
}
330
18
100
AcDbEntity
  8
実線
100
AcDbLine
 10
-252.975400967488
 20
-1037.981208599602
 30
0.0
 11
-254.4754009405671
 21
-1038.847234009603
 31
0.0
  0
LINE
  5
14A3E
102
{ACAD_REACTORS
330
14BC9
102
}
330
18
100
AcDbEntity
  8
実線
100
AcDbLine
 10
-251.475400940567
 20
-1040.579284789603
 30
0.0
 11
-251.475400940567
 21
-1038.847234009603
 31
0.0
  0
CIRCLE
  5
14A3F
330
18
100
AcDbEntity
  8
実線
 48
10.0
100
AcDbCircle
 10
-222.975400940567
 20
-1039.713259399603
 30
0.0
 40
5.0
  0
CIRCLE
  5
14A40
330
18
100
AcDbEntity
  8
実線
 48
10.0
100
AcDbCircle
 10
-222.975400940567
 20
-1039.713259399603
 30
0.0
 40
3.0
  0
LINE
  5
14A41
330
18
100
AcDbEntity
  8
中心線
 48
3.0
100
AcDbLine
 10
-222.975400940567
 20
-1032.713259399603
 30
0.0
 11
-222.975400940567
 21
-1046.713259399603
 31
0.0
  0
LINE
  5
14A44
330
18
100
AcDbEntity
  8
中心線
 48
3.0
100
AcDbLine
 10
-202.975400940567
 20
-1031.713259399603
 30
0.0
 11
-202.975400940567
 21
-1046.713259399603
 31
0.0
  0
LINE
  5
14A67
330
18
100
AcDbEntity
  8
破線
 48
10.0
100
AcDbLine
 10
-101.7499306434604
 20
-1044.713259399602
 30
0.0
 11
-101.7499306434604
 21
-1034.713259399602
 31
0.0
  0
LINE
  5
14A68
330
18
100
AcDbEntity
  8
破線
 48
10.0
100
AcDbLine
 10
-101.7499306434604
 20
-1044.713259399602
 30
0.0
 11
-106.2499306434599
 21
-1044.713259399602
 31
0.0
  0
LINE
  5
14A69
330
18
100
AcDbEntity
  8
破線
 48
10.0
100
AcDbLine
 10
-101.7499306434604
 20
-1034.713259399602
 30
0.0
 11
-106.2499306434599
 21
-1034.713259399602
 31
0.0
  0
LINE
  5
14A6A
330
18
100
AcDbEntity
  8
実線
100
AcDbLine
 10
-101.7499306434607
 20
-1031.713259399603
 30
0.0
 11
-106.2499306434601
 21
-1031.713259399603
 31
0.0
  0
LINE
  5
14A6B
330
18
100
AcDbEntity
  8
実線
100
AcDbLine
 10
-101.7499306434607
 20
-1031.713259399603
 30
0.0
 11
-101.7499306434612
 21
-1032.113259399603
 31
0.0
  0
LINE
  5
14A6E
330
18
100
AcDbEntity
  8
実線
100
AcDbLine
 10
-88.6499306434605
 20
-1046.113259399602
 30
0.0
 11
-88.6499306434605
 21
-1058.113259399603
 31
0.0
  0
LINE
  5
14A6F
330
18
100
AcDbEntity
  8
２点鎖線
 48
5.0
100
AcDbLine
 10
-89.59993064346031
 20
-1048.213259399602
 30
0.0
 11
-89.59993064346031
 21
-1113.713259399602
 31
0.0
  0
LINE
  5
14A70
330
18
100
AcDbEntity
  8
中心線
100
AcDbLine
 10
-92.74993064346039
 20
-1044.502026172654
 30
0.0
 11
-92.74993064346039
 21
-1145.950413739188
 31
0.0
  0
LINE
  5
14A72
330
18
100
AcDbEntity
  8
実線
100
AcDbLine
 10
-79.2499306434604
 20
-1113.713259399603
 30
0.0
 11
-79.2499306434604
 21
-1031.713259399603
 31
0.0
  0
LINE
  5
14A75
330
18
100
AcDbEntity
  8
２点鎖線
 48
5.0
100
AcDbLine
 10
-80.24993064346039
 20
-1115.713259399603
 30
0.0
 11
-80.24993064346039
 21
-1140.713259399602
 31
0.0
  0
LINE
  5
14A76
330
18
100
AcDbEntity
  8
２点鎖線
 48
5.0
100
AcDbLine
 10
-88.69993064346067
 20
-1115.713259399603
 30
0.0
 11
-88.69993064346067
 21
-1134.213259399603
 31
0.0
  0
LINE
  5
14A79
330
18
100
AcDbEntity
  8
２点鎖線
 48
5.0
100
AcDbLine
 10
-80.24993064346039
 20
-1133.113259399602
 30
0.0
 11
-87.07617021275678
 21
-1133.113259399602
 31
0.0
  0
LINE
  5
14A7A
330
18
100
AcDbEntity
  8
２点鎖線
 48
5.0
100
AcDbLine
 10
-80.24993064346039
 20
-1136.313259399603
 30
0.0
 11
-87.07617021275678
 21
-1136.313259399603
 31
0.0
  0
LINE
  5
14A7B
330
18
100
AcDbEntity
  8
２点鎖線
 48
5.0
100
AcDbLine
 10
-87.07617021275678
 20
-1136.313259399603
 30
0.0
 11
-87.07617021275678
 21
-1133.113259399602
 31
0.0
  0
LINE
  5
14A7C
330
18
100
AcDbEntity
  8
２点鎖線
 48
5.0
100
AcDbLine
 10
-87.9999306434604
 20
-1134.713259399602
 30
0.0
 11
-87.07617021275678
 21
-1133.113259399602
 31
0.0
  0
LINE
  5
14A7D
330
18
100
AcDbEntity
  8
２点鎖線
 48
5.0
100
AcDbLine
 10
-87.9999306434604
 20
-1134.713259399602
 30
0.0
 11
-87.07617021275678
 21
-1136.313259399603
 31
0.0
  0
LINE
  5
14A7E
330
18
100
AcDbEntity
  8
２点鎖線
 48
5.0
100
AcDbLine
 10
-80.24993064346039
 20
-1132.713259399602
 30
0.0
 11
-86.24993064346041
 21
-1132.713259399602
 31
0.0
  0
LINE
  5
14A7F
330
18
100
AcDbEntity
  8
２点鎖線
 48
5.0
100
AcDbLine
 10
-80.24993064346039
 20
-1136.713259399602
 30
0.0
 11
-86.24993064346041
 21
-1136.713259399603
 31
0.0
  0
LINE
  5
14A80
330
18
100
AcDbEntity
  8
２点鎖線
 48
5.0
100
AcDbLine
 10
-86.24993064346041
 20
-1132.713259399602
 30
0.0
 11
-86.24993064346041
 21
-1136.713259399603
 31
0.0
  0
LINE
  5
14A82
330
18
100
AcDbEntity
  8
実線
100
AcDbLine
 10
-83.74993064346041
 20
-1113.713259399603
 30
0.0
 11
-83.74993064346041
 21
-1058.113259399603
 31
0.0
  0
LINE
  5
14A83
330
18
100
AcDbEntity
  8
MG
100
AcDbLine
 10
-83.74993064346041
 20
-1063.213259399603
 30
0.0
 11
-83.74993064346041
 21
-1113.213259399602
 31
0.0
  0
LINE
  5
14A84
330
18
100
AcDbEntity
  8
MG
100
AcDbLine
 10
-88.7999306434601
 20
-1063.013259399602
 30
0.0
 11
-88.79993064346106
 21
-1113.413259399602
 31
0.0
  0
LINE
  5
14A86
330
18
100
AcDbEntity
  8
２点鎖線
 48
5.0
100
AcDbLine
 10
-80.24993064346039
 20
-1115.713259399603
 30
0.0
 11
-88.69993064346067
 21
-1115.713259399603
 31
0.0
  0
LINE
  5
14A87
330
18
100
AcDbEntity
  8
MG
100
AcDbLine
 10
-88.79993064346106
 20
-1113.413259399602
 30
0.0
 11
-83.74993064346041
 21
-1113.413259399602
 31
0.0
  0
LINE
  5
14A88
330
18
100
AcDbEntity
  8
２点鎖線
 48
5.0
100
AcDbLine
 10
-87.59993064346032
 20
-1115.713259399602
 30
0.0
 11
-89.59993064346031
 21
-1113.713259399602
 31
0.0
  0
LINE
  5
14A89
330
18
100
AcDbEntity
  8
実線
100
AcDbLine
 10
-79.2499306434604
 20
-1113.713259399603
 30
0.0
 11
-83.74993064346041
 21
-1113.713259399603
 31
0.0
  0
LINE
  5
14A8A
330
18
100
AcDbEntity
  8
MG
100
AcDbLine
 10
-88.7999306434601
 20
-1063.013259399602
 30
0.0
 11
-83.74993064346041
 21
-1063.013259399602
 31
0.0
  0
LINE
  5
14A8B
330
18
100
AcDbEntity
  8
実線
100
AcDbLine
 10
-83.74993064346131
 20
-1058.113259399603
 30
0.0
 11
-88.6499306434605
 21
-1058.113259399603
 31
0.0
  0
LINE
  5
14A8D
330
18
100
AcDbEntity
  8
破線
 48
10.0
100
AcDbLine
 10
-83.74993064345995
 20
-1044.713259399602
 30
0.0
 11
-83.74993064345995
 21
-1034.713259399602
 31
0.0
  0
LINE
  5
14A8E
330
18
100
AcDbEntity
  8
破線
 48
10.0
100
AcDbLine
 10
-79.2499306434604
 20
-1044.713259399602
 30
0.0
 11
-83.74993064346041
 21
-1044.713259399602
 31
0.0
  0
LINE
  5
14A8F
330
18
100
AcDbEntity
  8
破線
 48
10.0
100
AcDbLine
 10
-79.2499306434604
 20
-1034.713259399602
 30
0.0
 11
-83.74993064346041
 21
-1034.713259399602
 31
0.0
  0
LINE
  5
14A90
330
18
100
AcDbEntity
  8
実線
100
AcDbLine
 10
-79.2499306434604
 20
-1031.713259399603
 30
0.0
 11
-83.74993064346041
 21
-1031.713259399603
 31
0.0
  0
LINE
  5
14A91
330
18
100
AcDbEntity
  8
実線
100
AcDbLine
 10
-83.74993064346041
 20
-1031.713259399603
 30
0.0
 11
-83.74993064346041
 21
-1032.113259399603
 31
0.0
  0
CIRCLE
  5
14E63
330
18
100
AcDbEntity
  8
実線
 48
10.0
100
AcDbCircle
 10
-202.975400940567
 20
-1039.713259399603
 30
0.0
 40
5.5
  0
CIRCLE
  5
14E64
102
{ACAD_REACTORS
330
14E6B
102
}
330
18
100
AcDbEntity
  8
実線
100
AcDbCircle
 10
-202.975400940567
 20
-1039.713259399603
 30
0.0
 40
5.0
  0
LINE
  5
14E65
102
{ACAD_REACTORS
330
14E6B
102
}
330
18
100
AcDbEntity
  8
実線
100
AcDbLine
 10
-202.975400967488
 20
-1037.981208599602
 30
0.0
 11
-204.4754009405671
 21
-1038.847234009603
 31
0.0
  0
LINE
  5
14E66
102
{ACAD_REACTORS
330
14E6B
102
}
330
18
100
AcDbEntity
  8
実線
100
AcDbLine
 10
-201.475400940567
 20
-1038.847234009603
 30
0.0
 11
-202.9754009136389
 21
-1037.981208599602
 31
0.0
  0
LINE
  5
14E67
102
{ACAD_REACTORS
330
14E6B
102
}
330
18
100
AcDbEntity
  8
実線
100
AcDbLine
 10
-204.4754009405671
 20
-1040.579284789603
 30
0.0
 11
-202.975400967488
 21
-1041.445310199603
 31
0.0
  0
LINE
  5
14E68
102
{ACAD_REACTORS
330
14E6B
102
}
330
18
100
AcDbEntity
  8
実線
100
AcDbLine
 10
-204.4754009405671
 20
-1038.847234009603
 30
0.0
 11
-204.4754009405671
 21
-1040.579284789603
 31
0.0
  0
LINE
  5
14E69
102
{ACAD_REACTORS
330
14E6B
102
}
330
18
100
AcDbEntity
  8
実線
100
AcDbLine
 10
-201.475400940567
 20
-1040.579284789603
 30
0.0
 11
-201.475400940567
 21
-1038.847234009603
 31
0.0
  0
LINE
  5
14E6A
102
{ACAD_REACTORS
330
14E6B
102
}
330
18
100
AcDbEntity
  8
実線
100
AcDbLine
 10
-202.9754009136389
 20
-1041.445310199603
 30
0.0
 11
-201.475400940567
 21
-1040.579284789603
 31
0.0
  0
LINE
  5
14E93
330
18
100
AcDbEntity
  8
破線
 48
10.0
100
AcDbLine
 10
-193.475400940567
 20
-1033.113259399603
 30
0.0
 11
-193.475400940567
 21
-1057.113259399602
 31
0.0
  0
LINE
  5
14E94
330
18
100
AcDbEntity
  8
破線
 48
10.0
100
AcDbLine
 10
-194.475400940567
 20
-1032.113259399602
 30
0.0
 11
-193.475400940567
 21
-1033.113259399603
 31
0.0
  0
LINE
  5
14E95
330
18
100
AcDbEntity
  8
破線
 48
10.0
100
AcDbLine
 10
-193.475400940567
 20
-1057.113259399602
 30
0.0
 11
-194.475400940567
 21
-1058.113259399602
 31
0.0
  0
LINE
  5
14E96
330
18
100
AcDbEntity
  8
実線
 48
10.0
100
AcDbLine
 10
-194.975400940567
 20
-1113.713259399602
 30
0.0
 11
-430.9754009405671
 21
-1113.713259399603
 31
0.0
  0
ARC
  5
14E97
330
18
100
AcDbEntity
  8
実線
 48
10.0
100
AcDbCircle
 10
-430.9754009405671
 20
-1111.713259399603
 30
0.0
 40
2.0
100
AcDbArc
 50
180.0
 51
270.0
  0
LINE
  5
14E98
330
18
100
AcDbEntity
  8
実線
 48
10.0
100
AcDbLine
 10
-432.9754009405672
 20
-1111.713259399603
 30
0.0
 11
-432.9754009405672
 21
-1033.713259399603
 31
0.0
  0
ARC
  5
14E99
330
18
100
AcDbEntity
  8
実線
 48
10.0
100
AcDbCircle
 10
-430.9754009405671
 20
-1033.713259399603
 30
0.0
 40
2.0
100
AcDbArc
 50
90.0
 51
180.0
  0
LINE
  5
14E9A
330
18
100
AcDbEntity
  8
実線
 48
10.0
100
AcDbLine
 10
-430.9754009405671
 20
-1031.713259399603
 30
0.0
 11
-194.975400940567
 21
-1031.713259399603
 31
0.0
  0
ARC
  5
14E9B
330
18
100
AcDbEntity
  8
実線
 48
10.0
100
AcDbCircle
 10
-194.975400940567
 20
-1033.713259399603
 30
0.0
 40
2.0
100
AcDbArc
 50
0.0
 51
90.0
  0
LINE
  5
14E9C
330
18
100
AcDbEntity
  8
実線
 48
10.0
100
AcDbLine
 10
-192.975400940567
 20
-1033.713259399603
 30
0.0
 11
-192.975400940567
 21
-1111.713259399601
 31
0.0
  0
ARC
  5
14E9D
330
18
100
AcDbEntity
  8
実線
 48
10.0
100
AcDbCircle
 10
-194.975400940567
 20
-1111.713259399601
 30
0.0
 40
2.0
100
AcDbArc
 50
270.0
 51
0.0
  0
CIRCLE
  5
14F12
330
18
100
AcDbEntity
  8
実線
 48
10.0
100
AcDbCircle
 10
-212.975400940567
 20
-1046.713259399603
 30
0.0
 40
2.5
  0
LINE
  5
14F13
330
18
100
AcDbEntity
  8
中心線
 48
4.0
100
AcDbLine
 10
-217.475400940567
 20
-1046.713259399603
 30
0.0
 11
-208.475400940567
 21
-1046.713259399603
 31
0.0
  0
LINE
  5
14F14
330
18
100
AcDbEntity
  8
中心線
 48
4.0
100
AcDbLine
 10
-212.975400940567
 20
-1051.213259399603
 30
0.0
 11
-212.975400940567
 21
-1042.213259399603
 31
0.0
  0
LINE
  5
15109
102
{ACAD_REACTORS
330
15115
102
}
330
18
100
AcDbEntity
  8
0
 48
10.0
100
AcDbLine
 10
-367.4754009405667
 20
-1079.213259399603
 30
0.0
 11
-367.4754009405667
 21
-1068.213259399602
 31
0.0
  0
LINE
  5
1510A
102
{ACAD_REACTORS
330
15115
102
}
330
18
100
AcDbEntity
  8
0
 48
10.0
100
AcDbLine
 10
-402.4754009405667
 20
-1068.213259399602
 30
0.0
 11
-402.4754009405667
 21
-1079.213259399603
 31
0.0
  0
LINE
  5
1510C
102
{ACAD_REACTORS
330
15115
102
}
330
18
100
AcDbEntity
  8
0
 48
10.0
100
AcDbLine
 10
-401.9754009405668
 20
-1079.713259399603
 30
0.0
 11
-367.9754009405669
 21
-1079.713259399603
 31
0.0
  0
ARC
  5
1510D
102
{ACAD_REACTORS
330
15115
102
}
330
18
100
AcDbEntity
  8
0
 48
10.0
100
AcDbCircle
 10
-401.9754009405668
 20
-1079.213259399603
 30
0.0
 40
0.5
100
AcDbArc
 50
180.0
 51
270.0
  0
ARC
  5
1510E
102
{ACAD_REACTORS
330
15115
102
}
330
18
100
AcDbEntity
  8
0
 48
10.0
100
AcDbCircle
 10
-367.9754009405669
 20
-1079.213259399603
 30
0.0
 40
0.5
100
AcDbArc
 50
270.0
 51
0.0
  0
LINE
  5
1510F
102
{ACAD_REACTORS
330
15115
102
}
330
18
100
AcDbEntity
  8
0
 48
10.0
100
AcDbLine
 10
-367.9754009405669
 20
-1067.713259399603
 30
0.0
 11
-401.9754009405668
 21
-1067.713259399603
 31
0.0
  0
LINE
  5
15111
102
{ACAD_REACTORS
330
15115
102
}
330
18
100
AcDbEntity
  8
0
 48
10.0
100
AcDbLine
 10
-367.4754009405667
 20
-1072.713259399603
 30
0.0
 11
-402.4754009405687
 21
-1072.713259399603
 31
0.0
  0
ARC
  5
15113
102
{ACAD_REACTORS
330
15115
102
}
330
18
100
AcDbEntity
  8
0
 48
10.0
100
AcDbCircle
 10
-401.9754009405668
 20
-1068.213259399602
 30
0.0
 40
0.5
100
AcDbArc
 50
90.0
 51
180.0
  0
ARC
  5
15114
102
{ACAD_REACTORS
330
15115
102
}
330
18
100
AcDbEntity
  8
0
 48
10.0
100
AcDbCircle
 10
-367.9754009405669
 20
-1068.213259399602
 30
0.0
 40
0.5
100
AcDbArc
 50
0.0
 51
90.0
  0
VIEWPORT
  5
23
330
15
100
AcDbEntity
 67
     1
  8
0
100
AcDbViewport
 10
199.9898357439679
 20
145.0716361185357
 30
0.0
 40
653.3404412610553
 41
299.0343451325003
 68
     1
 69
     1
1001
ACAD
1000
MVIEW
1002
{
1070
    16
1010
0.0
1020
0.0
1030
0.0
1010
0.0
1020
0.0
1030
1.0
1040
0.0
1040
299.0343451325003
1040
199.9898357439679
1040
145.0716361185357
1040
50.0
1040
0.0
1040
0.0
1070
     0
1070
   100
1070
     1
1070
     0
1070
     0
1070
     0
1070
     0
1070
     1
1040
0.0
1040
0.0
1040
0.0
1040
10.0
1040
10.0
1040
10.0
1040
10.0
1070
     0
1002
{
1002
}
1002
}
  0
VIEWPORT
  5
2E
330
15
100
AcDbEntity
 67
     1
  8
M_VIEW
100
AcDbViewport
 10
200.0
 20
144.0
 30
0.0
 40
400.0
 41
288.0
 68
     2
 69
     2
1001
ACAD
1000
MVIEW
1002
{
1070
    16
1010
0.0
1020
0.0
1030
0.0
1010
0.0
1020
0.0
1030
1.0
1040
0.0
1040
432.0000009766705
1040
-243.9088763088998
1040
-1097.463196820207
1040
50.0
1040
0.0
1040
0.0
1070
     0
1070
   100
1070
     1
1070
     0
1070
     0
1070
     0
1070
     0
1070
     0
1040
0.0
1040
0.0
1040
0.0
1040
1.0
1040
1.0
1040
10.0
1040
10.0
1070
     0
1002
{
1002
}
1002
}
  0
TEXT
  5
2442
330
15
100
AcDbEntity
 67
     1
  8
文字
100
AcDbText
 10
324.1164138233838
 20
6.706161883767662
 30
0.0
 40
6.5
  1
ＳＥ-５５８２０
  7
まこ
100
AcDbText
  0
TEXT
  5
B6F4
330
15
100
AcDbEntity
 67
     1
  8
実線
100
AcDbText
 10
292.9247407785627
 20
50.22828969396096
 30
0.0
 40
2.5
  1
%%
100
AcDbText
  0
MTEXT
  5
1513E
330
15
100
AcDbEntity
 67
     1
  8
細線
 48
10.0
100
AcDbMText
 10
164.6785483061683
 20
24.83370535961489
 30
0.0
 40
6.0
 41
223.0036
 71
     1
 72
     5
  1
τﾘﾆｱﾓｰﾀ ｺｱﾚｽｽﾀﾝﾀﾞｰﾄﾞ NLD-AM MGﾍﾞｰｽ MBD-AM24SA (240mm)
1001
ACAD
1000
MTEXTBEGIN
1070
    73
1070
     1
1070
    44
1040
1.0
1070
    74
1070
     0
1000
MTEXTEND
  0
ENDSEC
  0
SECTION
  2
OBJECTS
  0
DICTIONARY
  5
C
330
0
100
AcDbDictionary
  3
ACAD_GROUP
350
D
  3
ACAD_LAYOUT
350
73F
  3
ACAD_MLINESTYLE
350
1B
  3
ACAD_PLOTSETTINGS
350
740
  3
ACAD_PLOTSTYLENAME
350
73D
  3
ACADDIM
350
ED50
  3
ACDBHEADERROUNDTRIPXREC
350
1514C
  3
ACDBVARIABLEDICTIONARY
350
11AC
  0
DICTIONARY
  5
11C1F
330
2
100
AcDbDictionary
280
     1
  3
ACAD_LAYERFILTERS
360
11C20
  3
ACAD_LAYERSTATES
360
11C38
  0
DICTIONARY
  5
1516F
330
18
100
AcDbDictionary
280
     1
  3
ACAD_LAYOUTSELFREF
360
15170
  0
DICTIONARY
  5
1516D
330
15
100
AcDbDictionary
280
     1
  3
ACAD_LAYOUTSELFREF
360
1516E
  0
DICTIONARY
  5
D
102
{ACAD_REACTORS
330
C
102
}
330
C
100
AcDbDictionary
  3
*A1
350
DCF
  3
*A10
350
5CA6
  3
*A100
350
499E
  3
*A101
350
5E34
  3
*A102
350
64A5
  3
*A103
350
7AF2
  3
*A104
350
499B
  3
*A105
350
81E1
  3
*A106
350
B346
  3
*A107
350
7AC6
  3
*A108
350
339E
  3
*A109
350
1119
  3
*A11
350
5C9F
  3
*A110
350
820E
  3
*A111
350
115EC
  3
*A112
350
498F
  3
*A113
350
122DB
  3
*A114
350
805E
  3
*A115
350
2FF7
  3
*A116
350
E70D
  3
*A117
350
4ABC
  3
*A118
350
1107
  3
*A119
350
3286
  3
*A12
350
A37B
  3
*A120
350
9656
  3
*A121
350
12C01
  3
*A122
350
A9D2
  3
*A123
350
12B9A
  3
*A124
350
57BB
  3
*A125
350
2FE2
  3
*A126
350
7AD2
  3
*A127
350
A3C5
  3
*A128
350
1080
  3
*A129
350
8823
  3
*A13
350
14196
  3
*A130
350
E710
  3
*A131
350
5E29
  3
*A132
350
2A28
  3
*A133
350
2CA6
  3
*A134
350
10B6
  3
*A135
350
7555
  3
*A136
350
5E68
  3
*A137
350
2FF1
  3
*A138
350
4992
  3
*A139
350
A38F
  3
*A14
350
10EC
  3
*A140
350
7C28
  3
*A141
350
A38B
  3
*A142
350
116A
  3
*A143
350
E02F
  3
*A144
350
4A97
  3
*A145
350
7AE5
  3
*A146
350
5E3F
  3
*A147
350
5E62
  3
*A148
350
5E4A
  3
*A149
350
7556
  3
*A15
350
5E6E
  3
*A150
350
8218
  3
*A151
350
7C2A
  3
*A152
350
B340
  3
*A153
350
4F1E
  3
*A154
350
A37F
  3
*A155
350
8804
  3
*A156
350
13E2B
  3
*A157
350
1077
  3
*A158
350
B343
  3
*A159
350
31CE
  3
*A16
350
121C7
  3
*A160
350
1089
  3
*A161
350
822C
  3
*A162
350
8818
  3
*A163
350
8813
  3
*A164
350
1065
  3
*A165
350
10C8
  3
*A166
350
2FE8
  3
*A167
350
980D
  3
*A168
350
4989
  3
*A169
350
A383
  3
*A17
350
9650
  3
*A170
350
83DB
  3
*A171
350
8212
  3
*A172
350
1415D
  3
*A173
350
121BF
  3
*A174
350
10A4
  3
*A175
350
A628
  3
*A176
350
512A
  3
*A177
350
8217
  3
*A178
350
49DE
  3
*A179
350
141A6
  3
*A18
350
4F1D
  3
*A180
350
A3BD
  3
*A181
350
5D44
  3
*A182
350
8805
  3
*A183
350
4A96
  3
*A184
350
3398
  3
*A185
350
A3EA
  3
*A186
350
A397
  3
*A187
350
8221
  3
*A188
350
8822
  3
*A189
350
A3C1
  3
*A19
350
A3CD
  3
*A190
350
1158
  3
*A191
350
A637
  3
*A192
350
4AA4
  3
*A193
350
5E5F
  3
*A194
350
818B
  3
*A195
350
49C4
  3
*A196
350
6F77
  3
*A197
350
E70E
  3
*A198
350
4214
  3
*A199
350
11C13
  3
*A2
350
13387
  3
*A20
350
3305
  3
*A200
350
10BF
  3
*A201
350
4AB4
  3
*A202
350
9655
  3
*A203
350
64AD
  3
*A204
350
880A
  3
*A205
350
512B
  3
*A206
350
57B9
  3
*A207
350
818A
  3
*A208
350
42BF
  3
*A209
350
49CA
  3
*A21
350
880F
  3
*A210
350
65A8
  3
*A211
350
12C00
  3
*A212
350
965C
  3
*A213
350
42D2
  3
*A214
350
57BF
  3
*A215
350
8226
  3
*A216
350
2FE3
  3
*A217
350
1218C
  3
*A218
350
880E
  3
*A219
350
3522
  3
*A22
350
A635
  3
*A220
350
49C1
  3
*A221
350
822B
  3
*A222
350
820D
  3
*A223
350
317C
  3
*A224
350
141AE
  3
*A225
350
F198
  3
*A226
350
E719
  3
*A227
350
1146
  3
*A228
350
8043
  3
*A229
350
77D2
  3
*A23
350
818C
  3
*A230
350
83B1
  3
*A231
350
11BF8
  3
*A232
350
B307
  3
*A233
350
2FF6
  3
*A234
350
B355
  3
*A235
350
121F4
  3
*A236
350
8189
  3
*A237
350
5DF8
  3
*A238
350
BA00
  3
*A239
350
4AAE
  3
*A24
350
1419E
  3
*A240
350
FEDD
  3
*A241
350
A636
  3
*A242
350
821D
  3
*A243
350
1092
  3
*A244
350
64A1
  3
*A245
350
12F63
  3
*A246
350
10FE
  3
*A247
350
115DE
  3
*A248
350
11BEA
  3
*A249
350
E711
  3
*A25
350
8809
  3
*A250
350
141BE
  3
*A251
350
4ABD
  3
*A252
350
498C
  3
*A253
350
2CA5
  3
*A254
350
5D38
  3
*A255
350
B34F
  3
*A256
350
5DD4
  3
*A257
350
5E55
  3
*A258
350
49A1
  3
*A259
350
8227
  3
*A26
350
8222
  3
*A260
350
42C0
  3
*A261
350
15106
  3
*A262
350
15115
  3
*A263
350
A3B5
  3
*A264
350
12F53
  3
*A265
350
83B2
  3
*A266
350
5F9C
  3
*A267
350
317D
  3
*A268
350
57BA
  3
*A269
350
2C9E
  3
*A27
350
A3D1
  3
*A270
350
33BA
  3
*A271
350
57BC
  3
*A272
350
10AD
  3
*A273
350
2FE9
  3
*A274
350
3183
  3
*A275
350
A9A1
  3
*A276
350
B352
  3
*A277
350
4A10
  3
*A278
350
6F78
  3
*A279
350
12F5B
  3
*A28
350
3289
  3
*A280
350
A387
  3
*A281
350
8819
  3
*A282
350
5128
  3
*A283
350
A393
  3
*A284
350
5134
  3
*A285
350
328C
  3
*A286
350
964C
  3
*A287
350
11BE7
  3
*A288
350
A3EB
  3
*A289
350
33BD
  3
*A29
350
A623
  3
*A290
350
11D1D
  3
*A291
350
42D1
  3
*A292
350
A99C
  3
*A293
350
11C1C
  3
*A294
350
64A9
  3
*A295
350
10DA
  3
*A296
350
5133
  3
*A297
350
33A2
  3
*A298
350
4980
  3
*A299
350
1219D
  3
*A3
350
881E
  3
*A30
350
6062
  3
*A300
350
FEDE
  3
*A301
350
12197
  3
*A302
350
8213
  3
*A303
350
115D0
  3
*A304
350
339B
  3
*A305
350
57BD
  3
*A306
350
5DC8
  3
*A307
350
5DE0
  3
*A308
350
2C9A
  3
*A309
350
8051
  3
*A31
350
1161
  3
*A310
350
4995
  3
*A311
350
8065
  3
*A312
350
49E4
  3
*A313
350
980E
  3
*A314
350
10F5
  3
*A315
350
11BF7
  3
*A316
350
806F
  3
*A317
350
77C8
  3
*A318
350
6400
  3
*A319
350
121A1
  3
*A32
350
6221
  3
*A320
350
A3B9
  3
*A321
350
8375
  3
*A322
350
605A
  3
*A323
350
3487
  3
*A324
350
81E6
  3
*A325
350
7C29
  3
*A326
350
8814
  3
*A327
350
49DB
  3
*A328
350
5E6B
  3
*A329
350
606A
  3
*A33
350
81B8
  3
*A330
350
881D
  3
*A331
350
49E1
  3
*A332
350
7AE6
  3
*A333
350
8187
  3
*A334
350
5E65
  3
*A335
350
5129
  3
*A336
350
5E04
  3
*A337
350
57BE
  3
*A34
350
5DEC
  3
*A35
350
4A14
  3
*A36
350
11BEF
  3
*A37
350
33B9
  3
*A38
350
81E4
  3
*A39
350
109B
  3
*A4
350
11BF0
  3
*A40
350
49C7
  3
*A41
350
11C18
  3
*A42
350
14BC6
  3
*A43
350
14BC7
  3
*A44
350
14BC8
  3
*A45
350
8062
  3
*A46
350
B34C
  3
*A47
350
9807
  3
*A48
350
E71A
  3
*A49
350
14BC9
  3
*A5
350
121C8
  3
*A50
350
14BCA
  3
*A51
350
5E1D
  3
*A52
350
14BCB
  3
*A53
350
113D
  3
*A54
350
112B
  3
*A55
350
14BCC
  3
*A56
350
14E6B
  3
*A57
350
141B6
  3
*A58
350
12195
  3
*A59
350
1500D
  3
*A6
350
1134
  3
*A60
350
B358
  3
*A61
350
1500E
  3
*A62
350
1500F
  3
*A63
350
15010
  3
*A64
350
10D1
  3
*A65
350
A61E
  3
*A66
350
15011
  3
*A67
350
E028
  3
*A68
350
4986
  3
*A69
350
8072
  3
*A7
350
77B9
  3
*A70
350
15016
  3
*A71
350
15023
  3
*A72
350
1502C
  3
*A73
350
4998
  3
*A74
350
1502D
  3
*A75
350
121CC
  3
*A76
350
1503E
  3
*A77
350
BCEC
  3
*A78
350
1503F
  3
*A79
350
81A9
  3
*A8
350
9808
  3
*A80
350
15040
  3
*A81
350
15041
  3
*A82
350
A3C9
  3
*A83
350
1110
  3
*A84
350
F193
  3
*A85
350
15052
  3
*A86
350
821C
  3
*A87
350
15053
  3
*A88
350
15054
  3
*A89
350
114F
  3
*A9
350
5F9B
  3
*A90
350
1122
  3
*A91
350
15055
  3
*A92
350
10E3
  3
*A93
350
619C
  3
*A94
350
B349
  3
*A95
350
4983
  3
*A96
350
106E
  3
*A97
350
11BF9
  3
*A98
350
A9D3
  3
*A99
350
4AB1
  0
DICTIONARY
  5
73F
102
{ACAD_REACTORS
330
C
102
}
330
C
100
AcDbDictionary
  0
DICTIONARY
  5
1B
102
{ACAD_REACTORS
330
C
102
}
330
C
100
AcDbDictionary
  3
STANDARD
350
1C
  0
DICTIONARY
  5
740
102
{ACAD_REACTORS
330
C
102
}
330
C
100
AcDbDictionary
  0
ACDBDICTIONARYWDFLT
  5
73D
102
{ACAD_REACTORS
330
C
102
}
330
C
100
AcDbDictionary
281
     1
  3
Normal
350
73E
100
AcDbDictionaryWithDefault
340
73E
  0
XRECORD
  5
ED50
102
{ACAD_REACTORS
330
C
102
}
330
C
100
AcDbXrecord
 90
   990106
  3

 60
     0
 61
     0
 62
     4
 63
     4
 64
     1
 65
     0
 66
     0
 67
     3
 68
     1
 69
     0
 70
     0
 71
     0
 72
     0
 40
6.668733357716102
170
     2
  0
DICTIONARY
  5
1514C
102
{ACAD_REACTORS
330
C
102
}
330
C
100
AcDbDictionary
  3
CEPSNTYPE
350
15156
  3
DIMSTYLEDATA
350
1515A
  3
FINGERPRINTGUID
350
15157
  3
HYPERLINKBASE
350
1514F
  3
INSUNITS
350
15155
  3
LAYOUTDICT
350
15151
  3
LWETCUNION
350
15154
  3
PLOTSETDICT
350
15152
  3
PLOTSTYLNAMDICT
350
15153
  3
PSVPSCALE
350
15159
  3
PUCSBASE
350
1515D
  3
PUCSORGBACK
350
15163
  3
PUCSORGBOTTOM
350
1515F
  3
PUCSORGFRONT
350
15162
  3
PUCSORGLEFT
350
15160
  3
PUCSORGRIGHT
350
15161
  3
PUCSORGTOP
350
1515E
  3
PUCSORTHOREF
350
1515B
  3
PUCSORTHOVIEW
350
1515C
  3
STYLESHEET
350
15150
  3
TSTACKALIGN
350
1514D
  3
TSTACKSIZE
350
1514E
  3
UCSBASE
350
15166
  3
UCSORGBACK
350
1516C
  3
UCSORGBOTTOM
350
15168
  3
UCSORGFRONT
350
1516B
  3
UCSORGLEFT
350
15169
  3
UCSORGRIGHT
350
1516A
  3
UCSORGTOP
350
15167
  3
UCSORTHOREF
350
15164
  3
UCSORTHOVIEW
350
15165
  3
VERSIONGUID
350
15158
  0
DICTIONARY
  5
11AC
102
{ACAD_REACTORS
330
C
102
}
330
C
100
AcDbDictionary
  3
DIMASSOC
350
11AD
  3
SORTENTS
350
B4C6
  0
DICTIONARY
  5
11C20
102
{ACAD_REACTORS
330
11C1F
102
}
330
11C1F
100
AcDbDictionary
280
     1
  3
0
360
11C21
  3
11
360
11C22
  3
150_
360
11C23
  3
160_
360
11C24
  3
170_
360
11C25
  3
171_
360
11C26
  3
350_
360
11C27
  3
4
360
11C28
  3
5
360
11C29
  3
7
360
11C2A
  3
KISEKI
360
11C2B
  0
DICTIONARY
  5
11C38
102
{ACAD_REACTORS
330
11C1F
102
}
330
11C1F
100
AcDbDictionary
  0
XRECORD
  5
15170
102
{ACAD_REACTORS
330
1516F
102
}
330
1516F
100
AcDbXrecord
340
18
  0
XRECORD
  5
1516E
102
{ACAD_REACTORS
330
1516D
102
}
330
1516D
100
AcDbXrecord
340
15
  0
GROUP
  5
DCF
102
{ACAD_REACTORS
330
D
102
}
330
D
100
AcDbGroup
300

 70
     1
 71
     1
  0
GROUP
  5
5CA6
102
{ACAD_REACTORS
330
D
102
}
330
D
100
AcDbGroup
300

 70
     1
 71
     1
  0
GROUP
  5
499E
102
{ACAD_REACTORS
330
D
102
}
330
D
100
AcDbGroup
300

 70
     1
 71
     1
  0
GROUP
  5
5E34
102
{ACAD_REACTORS
330
D
102
}
330
D
100
AcDbGroup
300

 70
     1
 71
     1
  0
GROUP
  5
64A5
102
{ACAD_REACTORS
330
D
102
}
330
D
100
AcDbGroup
300

 70
     1
 71
     1
  0
GROUP
  5
7AF2
102
{ACAD_REACTORS
330
D
102
}
330
D
100
AcDbGroup
300

 70
     1
 71
     1
  0
GROUP
  5
499B
102
{ACAD_REACTORS
330
D
102
}
330
D
100
AcDbGroup
300

 70
     1
 71
     1
  0
GROUP
  5
81E1
102
{ACAD_REACTORS
330
D
102
}
330
D
100
AcDbGroup
300

 70
     1
 71
     1
  0
GROUP
  5
B346
102
{ACAD_REACTORS
330
D
102
}
330
D
100
AcDbGroup
300

 70
     1
 71
     1
  0
GROUP
  5
7AC6
102
{ACAD_REACTORS
330
D
102
}
330
D
100
AcDbGroup
300

 70
     1
 71
     1
  0
GROUP
  5
339E
102
{ACAD_REACTORS
330
D
102
}
330
D
100
AcDbGroup
300

 70
     1
 71
     1
  0
GROUP
  5
1119
102
{ACAD_REACTORS
330
D
102
}
330
D
100
AcDbGroup
300

 70
     1
 71
     1
  0
GROUP
  5
5C9F
102
{ACAD_REACTORS
330
D
102
}
330
D
100
AcDbGroup
300

 70
     1
 71
     1
  0
GROUP
  5
820E
102
{ACAD_REACTORS
330
D
102
}
330
D
100
AcDbGroup
300

 70
     1
 71
     1
  0
GROUP
  5
115EC
102
{ACAD_REACTORS
330
D
102
}
330
D
100
AcDbGroup
300

 70
     1
 71
     1
  0
GROUP
  5
498F
102
{ACAD_REACTORS
330
D
102
}
330
D
100
AcDbGroup
300

 70
     1
 71
     1
  0
GROUP
  5
122DB
102
{ACAD_REACTORS
330
D
102
}
330
D
100
AcDbGroup
300

 70
     1
 71
     1
  0
GROUP
  5
805E
102
{ACAD_REACTORS
330
D
102
}
330
D
100
AcDbGroup
300

 70
     1
 71
     1
  0
GROUP
  5
2FF7
102
{ACAD_REACTORS
330
D
102
}
330
D
100
AcDbGroup
300

 70
     1
 71
     1
  0
GROUP
  5
E70D
102
{ACAD_REACTORS
330
D
102
}
330
D
100
AcDbGroup
300

 70
     1
 71
     1
  0
GROUP
  5
4ABC
102
{ACAD_REACTORS
330
D
102
}
330
D
100
AcDbGroup
300

 70
     1
 71
     1
  0
GROUP
  5
1107
102
{ACAD_REACTORS
330
D
102
}
330
D
100
AcDbGroup
300

 70
     1
 71
     1
  0
GROUP
  5
3286
102
{ACAD_REACTORS
330
D
102
}
330
D
100
AcDbGroup
300

 70
     1
 71
     1
  0
GROUP
  5
A37B
102
{ACAD_REACTORS
330
D
102
}
330
D
100
AcDbGroup
300

 70
     1
 71
     1
  0
GROUP
  5
9656
102
{ACAD_REACTORS
330
D
102
}
330
D
100
AcDbGroup
300

 70
     1
 71
     1
  0
GROUP
  5
12C01
102
{ACAD_REACTORS
330
D
102
}
330
D
100
AcDbGroup
300

 70
     1
 71
     1
  0
GROUP
  5
A9D2
102
{ACAD_REACTORS
330
D
102
}
330
D
100
AcDbGroup
300

 70
     1
 71
     1
  0
GROUP
  5
12B9A
102
{ACAD_REACTORS
330
D
102
}
330
D
100
AcDbGroup
300

 70
     1
 71
     1
  0
GROUP
  5
57BB
102
{ACAD_REACTORS
330
D
102
}
330
D
100
AcDbGroup
300

 70
     1
 71
     1
  0
GROUP
  5
2FE2
102
{ACAD_REACTORS
330
D
102
}
330
D
100
AcDbGroup
300

 70
     1
 71
     1
  0
GROUP
  5
7AD2
102
{ACAD_REACTORS
330
D
102
}
330
D
100
AcDbGroup
300

 70
     1
 71
     1
  0
GROUP
  5
A3C5
102
{ACAD_REACTORS
330
D
102
}
330
D
100
AcDbGroup
300

 70
     1
 71
     1
  0
GROUP
  5
1080
102
{ACAD_REACTORS
330
D
102
}
330
D
100
AcDbGroup
300

 70
     1
 71
     1
  0
GROUP
  5
8823
102
{ACAD_REACTORS
330
D
102
}
330
D
100
AcDbGroup
300

 70
     1
 71
     1
  0
GROUP
  5
14196
102
{ACAD_REACTORS
330
D
102
}
330
D
100
AcDbGroup
300

 70
     1
 71
     1
  0
GROUP
  5
E710
102
{ACAD_REACTORS
330
D
102
}
330
D
100
AcDbGroup
300

 70
     1
 71
     1
  0
GROUP
  5
5E29
102
{ACAD_REACTORS
330
D
102
}
330
D
100
AcDbGroup
300

 70
     1
 71
     1
  0
GROUP
  5
2A28
102
{ACAD_REACTORS
330
D
102
}
330
D
100
AcDbGroup
300

 70
     1
 71
     1
  0
GROUP
  5
2CA6
102
{ACAD_REACTORS
330
D
102
}
330
D
100
AcDbGroup
300

 70
     1
 71
     1
  0
GROUP
  5
10B6
102
{ACAD_REACTORS
330
D
102
}
330
D
100
AcDbGroup
300

 70
     1
 71
     1
  0
GROUP
  5
7555
102
{ACAD_REACTORS
330
D
102
}
330
D
100
AcDbGroup
300

 70
     1
 71
     1
  0
GROUP
  5
5E68
102
{ACAD_REACTORS
330
D
102
}
330
D
100
AcDbGroup
300

 70
     1
 71
     1
  0
GROUP
  5
2FF1
102
{ACAD_REACTORS
330
D
102
}
330
D
100
AcDbGroup
300

 70
     1
 71
     1
  0
GROUP
  5
4992
102
{ACAD_REACTORS
330
D
102
}
330
D
100
AcDbGroup
300

 70
     1
 71
     1
  0
GROUP
  5
A38F
102
{ACAD_REACTORS
330
D
102
}
330
D
100
AcDbGroup
300

 70
     1
 71
     1
  0
GROUP
  5
10EC
102
{ACAD_REACTORS
330
D
102
}
330
D
100
AcDbGroup
300

 70
     1
 71
     1
  0
GROUP
  5
7C28
102
{ACAD_REACTORS
330
D
102
}
330
D
100
AcDbGroup
300

 70
     1
 71
     1
  0
GROUP
  5
A38B
102
{ACAD_REACTORS
330
D
102
}
330
D
100
AcDbGroup
300

 70
     1
 71
     1
  0
GROUP
  5
116A
102
{ACAD_REACTORS
330
D
102
}
330
D
100
AcDbGroup
300

 70
     1
 71
     1
  0
GROUP
  5
E02F
102
{ACAD_REACTORS
330
D
102
}
330
D
100
AcDbGroup
300

 70
     1
 71
     1
  0
GROUP
  5
4A97
102
{ACAD_REACTORS
330
D
102
}
330
D
100
AcDbGroup
300

 70
     1
 71
     1
  0
GROUP
  5
7AE5
102
{ACAD_REACTORS
330
D
102
}
330
D
100
AcDbGroup
300

 70
     1
 71
     1
  0
GROUP
  5
5E3F
102
{ACAD_REACTORS
330
D
102
}
330
D
100
AcDbGroup
300

 70
     1
 71
     1
  0
GROUP
  5
5E62
102
{ACAD_REACTORS
330
D
102
}
330
D
100
AcDbGroup
300

 70
     1
 71
     1
  0
GROUP
  5
5E4A
102
{ACAD_REACTORS
330
D
102
}
330
D
100
AcDbGroup
300

 70
     1
 71
     1
  0
GROUP
  5
7556
102
{ACAD_REACTORS
330
D
102
}
330
D
100
AcDbGroup
300

 70
     1
 71
     1
  0
GROUP
  5
5E6E
102
{ACAD_REACTORS
330
D
102
}
330
D
100
AcDbGroup
300

 70
     1
 71
     1
  0
GROUP
  5
8218
102
{ACAD_REACTORS
330
D
102
}
330
D
100
AcDbGroup
300

 70
     1
 71
     1
  0
GROUP
  5
7C2A
102
{ACAD_REACTORS
330
D
102
}
330
D
100
AcDbGroup
300

 70
     1
 71
     1
  0
GROUP
  5
B340
102
{ACAD_REACTORS
330
D
102
}
330
D
100
AcDbGroup
300

 70
     1
 71
     1
  0
GROUP
  5
4F1E
102
{ACAD_REACTORS
330
D
102
}
330
D
100
AcDbGroup
300

 70
     1
 71
     1
  0
GROUP
  5
A37F
102
{ACAD_REACTORS
330
D
102
}
330
D
100
AcDbGroup
300

 70
     1
 71
     1
  0
GROUP
  5
8804
102
{ACAD_REACTORS
330
D
102
}
330
D
100
AcDbGroup
300

 70
     1
 71
     1
  0
GROUP
  5
13E2B
102
{ACAD_REACTORS
330
D
102
}
330
D
100
AcDbGroup
300

 70
     1
 71
     1
  0
GROUP
  5
1077
102
{ACAD_REACTORS
330
D
102
}
330
D
100
AcDbGroup
300

 70
     1
 71
     1
  0
GROUP
  5
B343
102
{ACAD_REACTORS
330
D
102
}
330
D
100
AcDbGroup
300

 70
     1
 71
     1
  0
GROUP
  5
31CE
102
{ACAD_REACTORS
330
D
102
}
330
D
100
AcDbGroup
300

 70
     1
 71
     1
  0
GROUP
  5
121C7
102
{ACAD_REACTORS
330
D
102
}
330
D
100
AcDbGroup
300

 70
     1
 71
     1
  0
GROUP
  5
1089
102
{ACAD_REACTORS
330
D
102
}
330
D
100
AcDbGroup
300

 70
     1
 71
     1
  0
GROUP
  5
822C
102
{ACAD_REACTORS
330
D
102
}
330
D
100
AcDbGroup
300

 70
     1
 71
     1
  0
GROUP
  5
8818
102
{ACAD_REACTORS
330
D
102
}
330
D
100
AcDbGroup
300

 70
     1
 71
     1
  0
GROUP
  5
8813
102
{ACAD_REACTORS
330
D
102
}
330
D
100
AcDbGroup
300

 70
     1
 71
     1
  0
GROUP
  5
1065
102
{ACAD_REACTORS
330
D
102
}
330
D
100
AcDbGroup
300

 70
     1
 71
     1
  0
GROUP
  5
10C8
102
{ACAD_REACTORS
330
D
102
}
330
D
100
AcDbGroup
300

 70
     1
 71
     1
  0
GROUP
  5
2FE8
102
{ACAD_REACTORS
330
D
102
}
330
D
100
AcDbGroup
300

 70
     1
 71
     1
  0
GROUP
  5
980D
102
{ACAD_REACTORS
330
D
102
}
330
D
100
AcDbGroup
300

 70
     1
 71
     1
  0
GROUP
  5
4989
102
{ACAD_REACTORS
330
D
102
}
330
D
100
AcDbGroup
300

 70
     1
 71
     1
  0
GROUP
  5
A383
102
{ACAD_REACTORS
330
D
102
}
330
D
100
AcDbGroup
300

 70
     1
 71
     1
  0
GROUP
  5
9650
102
{ACAD_REACTORS
330
D
102
}
330
D
100
AcDbGroup
300

 70
     1
 71
     1
  0
GROUP
  5
83DB
102
{ACAD_REACTORS
330
D
102
}
330
D
100
AcDbGroup
300

 70
     1
 71
     1
  0
GROUP
  5
8212
102
{ACAD_REACTORS
330
D
102
}
330
D
100
AcDbGroup
300

 70
     1
 71
     1
  0
GROUP
  5
1415D
102
{ACAD_REACTORS
330
D
102
}
330
D
100
AcDbGroup
300

 70
     1
 71
     1
  0
GROUP
  5
121BF
102
{ACAD_REACTORS
330
D
102
}
330
D
100
AcDbGroup
300

 70
     1
 71
     1
  0
GROUP
  5
10A4
102
{ACAD_REACTORS
330
D
102
}
330
D
100
AcDbGroup
300

 70
     1
 71
     1
  0
GROUP
  5
A628
102
{ACAD_REACTORS
330
D
102
}
330
D
100
AcDbGroup
300

 70
     1
 71
     1
  0
GROUP
  5
512A
102
{ACAD_REACTORS
330
D
102
}
330
D
100
AcDbGroup
300

 70
     1
 71
     1
  0
GROUP
  5
8217
102
{ACAD_REACTORS
330
D
102
}
330
D
100
AcDbGroup
300

 70
     1
 71
     1
  0
GROUP
  5
49DE
102
{ACAD_REACTORS
330
D
102
}
330
D
100
AcDbGroup
300

 70
     1
 71
     1
  0
GROUP
  5
141A6
102
{ACAD_REACTORS
330
D
102
}
330
D
100
AcDbGroup
300

 70
     1
 71
     1
  0
GROUP
  5
4F1D
102
{ACAD_REACTORS
330
D
102
}
330
D
100
AcDbGroup
300

 70
     1
 71
     1
  0
GROUP
  5
A3BD
102
{ACAD_REACTORS
330
D
102
}
330
D
100
AcDbGroup
300

 70
     1
 71
     1
  0
GROUP
  5
5D44
102
{ACAD_REACTORS
330
D
102
}
330
D
100
AcDbGroup
300

 70
     1
 71
     1
  0
GROUP
  5
8805
102
{ACAD_REACTORS
330
D
102
}
330
D
100
AcDbGroup
300

 70
     1
 71
     1
  0
GROUP
  5
4A96
102
{ACAD_REACTORS
330
D
102
}
330
D
100
AcDbGroup
300

 70
     1
 71
     1
  0
GROUP
  5
3398
102
{ACAD_REACTORS
330
D
102
}
330
D
100
AcDbGroup
300

 70
     1
 71
     1
  0
GROUP
  5
A3EA
102
{ACAD_REACTORS
330
D
102
}
330
D
100
AcDbGroup
300

 70
     1
 71
     1
  0
GROUP
  5
A397
102
{ACAD_REACTORS
330
D
102
}
330
D
100
AcDbGroup
300

 70
     1
 71
     1
  0
GROUP
  5
8221
102
{ACAD_REACTORS
330
D
102
}
330
D
100
AcDbGroup
300

 70
     1
 71
     1
  0
GROUP
  5
8822
102
{ACAD_REACTORS
330
D
102
}
330
D
100
AcDbGroup
300

 70
     1
 71
     1
  0
GROUP
  5
A3C1
102
{ACAD_REACTORS
330
D
102
}
330
D
100
AcDbGroup
300

 70
     1
 71
     1
  0
GROUP
  5
A3CD
102
{ACAD_REACTORS
330
D
102
}
330
D
100
AcDbGroup
300

 70
     1
 71
     1
  0
GROUP
  5
1158
102
{ACAD_REACTORS
330
D
102
}
330
D
100
AcDbGroup
300

 70
     1
 71
     1
  0
GROUP
  5
A637
102
{ACAD_REACTORS
330
D
102
}
330
D
100
AcDbGroup
300

 70
     1
 71
     1
  0
GROUP
  5
4AA4
102
{ACAD_REACTORS
330
D
102
}
330
D
100
AcDbGroup
300

 70
     1
 71
     1
  0
GROUP
  5
5E5F
102
{ACAD_REACTORS
330
D
102
}
330
D
100
AcDbGroup
300

 70
     1
 71
     1
  0
GROUP
  5
818B
102
{ACAD_REACTORS
330
D
102
}
330
D
100
AcDbGroup
300

 70
     1
 71
     1
  0
GROUP
  5
49C4
102
{ACAD_REACTORS
330
D
102
}
330
D
100
AcDbGroup
300

 70
     1
 71
     1
  0
GROUP
  5
6F77
102
{ACAD_REACTORS
330
D
102
}
330
D
100
AcDbGroup
300

 70
     1
 71
     1
  0
GROUP
  5
E70E
102
{ACAD_REACTORS
330
D
102
}
330
D
100
AcDbGroup
300

 70
     1
 71
     1
  0
GROUP
  5
4214
102
{ACAD_REACTORS
330
D
102
}
330
D
100
AcDbGroup
300

 70
     1
 71
     1
  0
GROUP
  5
11C13
102
{ACAD_REACTORS
330
D
102
}
330
D
100
AcDbGroup
300

 70
     1
 71
     1
  0
GROUP
  5
13387
102
{ACAD_REACTORS
330
D
102
}
330
D
100
AcDbGroup
300

 70
     1
 71
     1
  0
GROUP
  5
3305
102
{ACAD_REACTORS
330
D
102
}
330
D
100
AcDbGroup
300

 70
     1
 71
     1
  0
GROUP
  5
10BF
102
{ACAD_REACTORS
330
D
102
}
330
D
100
AcDbGroup
300

 70
     1
 71
     1
  0
GROUP
  5
4AB4
102
{ACAD_REACTORS
330
D
102
}
330
D
100
AcDbGroup
300

 70
     1
 71
     1
  0
GROUP
  5
9655
102
{ACAD_REACTORS
330
D
102
}
330
D
100
AcDbGroup
300

 70
     1
 71
     1
  0
GROUP
  5
64AD
102
{ACAD_REACTORS
330
D
102
}
330
D
100
AcDbGroup
300

 70
     1
 71
     1
  0
GROUP
  5
880A
102
{ACAD_REACTORS
330
D
102
}
330
D
100
AcDbGroup
300

 70
     1
 71
     1
  0
GROUP
  5
512B
102
{ACAD_REACTORS
330
D
102
}
330
D
100
AcDbGroup
300

 70
     1
 71
     1
  0
GROUP
  5
57B9
102
{ACAD_REACTORS
330
D
102
}
330
D
100
AcDbGroup
300

 70
     1
 71
     1
  0
GROUP
  5
818A
102
{ACAD_REACTORS
330
D
102
}
330
D
100
AcDbGroup
300

 70
     1
 71
     1
  0
GROUP
  5
42BF
102
{ACAD_REACTORS
330
D
102
}
330
D
100
AcDbGroup
300

 70
     1
 71
     1
  0
GROUP
  5
49CA
102
{ACAD_REACTORS
330
D
102
}
330
D
100
AcDbGroup
300

 70
     1
 71
     1
  0
GROUP
  5
880F
102
{ACAD_REACTORS
330
D
102
}
330
D
100
AcDbGroup
300

 70
     1
 71
     1
  0
GROUP
  5
65A8
102
{ACAD_REACTORS
330
D
102
}
330
D
100
AcDbGroup
300

 70
     1
 71
     1
  0
GROUP
  5
12C00
102
{ACAD_REACTORS
330
D
102
}
330
D
100
AcDbGroup
300

 70
     1
 71
     1
  0
GROUP
  5
965C
102
{ACAD_REACTORS
330
D
102
}
330
D
100
AcDbGroup
300

 70
     1
 71
     1
  0
GROUP
  5
42D2
102
{ACAD_REACTORS
330
D
102
}
330
D
100
AcDbGroup
300

 70
     1
 71
     1
  0
GROUP
  5
57BF
102
{ACAD_REACTORS
330
D
102
}
330
D
100
AcDbGroup
300

 70
     1
 71
     1
  0
GROUP
  5
8226
102
{ACAD_REACTORS
330
D
102
}
330
D
100
AcDbGroup
300

 70
     1
 71
     1
  0
GROUP
  5
2FE3
102
{ACAD_REACTORS
330
D
102
}
330
D
100
AcDbGroup
300

 70
     1
 71
     1
  0
GROUP
  5
1218C
102
{ACAD_REACTORS
330
D
102
}
330
D
100
AcDbGroup
300

 70
     1
 71
     1
  0
GROUP
  5
880E
102
{ACAD_REACTORS
330
D
102
}
330
D
100
AcDbGroup
300

 70
     1
 71
     1
  0
GROUP
  5
3522
102
{ACAD_REACTORS
330
D
102
}
330
D
100
AcDbGroup
300

 70
     1
 71
     1
  0
GROUP
  5
A635
102
{ACAD_REACTORS
330
D
102
}
330
D
100
AcDbGroup
300

 70
     1
 71
     1
  0
GROUP
  5
49C1
102
{ACAD_REACTORS
330
D
102
}
330
D
100
AcDbGroup
300

 70
     1
 71
     1
  0
GROUP
  5
822B
102
{ACAD_REACTORS
330
D
102
}
330
D
100
AcDbGroup
300

 70
     1
 71
     1
  0
GROUP
  5
820D
102
{ACAD_REACTORS
330
D
102
}
330
D
100
AcDbGroup
300

 70
     1
 71
     1
  0
GROUP
  5
317C
102
{ACAD_REACTORS
330
D
102
}
330
D
100
AcDbGroup
300

 70
     1
 71
     1
  0
GROUP
  5
141AE
102
{ACAD_REACTORS
330
D
102
}
330
D
100
AcDbGroup
300

 70
     1
 71
     1
  0
GROUP
  5
F198
102
{ACAD_REACTORS
330
D
102
}
330
D
100
AcDbGroup
300

 70
     1
 71
     1
  0
GROUP
  5
E719
102
{ACAD_REACTORS
330
D
102
}
330
D
100
AcDbGroup
300

 70
     1
 71
     1
  0
GROUP
  5
1146
102
{ACAD_REACTORS
330
D
102
}
330
D
100
AcDbGroup
300

 70
     1
 71
     1
  0
GROUP
  5
8043
102
{ACAD_REACTORS
330
D
102
}
330
D
100
AcDbGroup
300

 70
     1
 71
     1
  0
GROUP
  5
77D2
102
{ACAD_REACTORS
330
D
102
}
330
D
100
AcDbGroup
300

 70
     1
 71
     1
  0
GROUP
  5
818C
102
{ACAD_REACTORS
330
D
102
}
330
D
100
AcDbGroup
300

 70
     1
 71
     1
  0
GROUP
  5
83B1
102
{ACAD_REACTORS
330
D
102
}
330
D
100
AcDbGroup
300

 70
     1
 71
     1
  0
GROUP
  5
11BF8
102
{ACAD_REACTORS
330
D
102
}
330
D
100
AcDbGroup
300

 70
     1
 71
     1
  0
GROUP
  5
B307
102
{ACAD_REACTORS
330
D
102
}
330
D
100
AcDbGroup
300

 70
     1
 71
     1
  0
GROUP
  5
2FF6
102
{ACAD_REACTORS
330
D
102
}
330
D
100
AcDbGroup
300

 70
     1
 71
     1
  0
GROUP
  5
B355
102
{ACAD_REACTORS
330
D
102
}
330
D
100
AcDbGroup
300

 70
     1
 71
     1
  0
GROUP
  5
121F4
102
{ACAD_REACTORS
330
D
102
}
330
D
100
AcDbGroup
300

 70
     1
 71
     1
  0
GROUP
  5
8189
102
{ACAD_REACTORS
330
D
102
}
330
D
100
AcDbGroup
300

 70
     1
 71
     1
  0
GROUP
  5
5DF8
102
{ACAD_REACTORS
330
D
102
}
330
D
100
AcDbGroup
300

 70
     1
 71
     1
  0
GROUP
  5
BA00
102
{ACAD_REACTORS
330
D
102
}
330
D
100
AcDbGroup
300

 70
     1
 71
     1
  0
GROUP
  5
4AAE
102
{ACAD_REACTORS
330
D
102
}
330
D
100
AcDbGroup
300

 70
     1
 71
     1
  0
GROUP
  5
1419E
102
{ACAD_REACTORS
330
D
102
}
330
D
100
AcDbGroup
300

 70
     1
 71
     1
  0
GROUP
  5
FEDD
102
{ACAD_REACTORS
330
D
102
}
330
D
100
AcDbGroup
300

 70
     1
 71
     1
  0
GROUP
  5
A636
102
{ACAD_REACTORS
330
D
102
}
330
D
100
AcDbGroup
300

 70
     1
 71
     1
  0
GROUP
  5
821D
102
{ACAD_REACTORS
330
D
102
}
330
D
100
AcDbGroup
300

 70
     1
 71
     1
  0
GROUP
  5
1092
102
{ACAD_REACTORS
330
D
102
}
330
D
100
AcDbGroup
300

 70
     1
 71
     1
  0
GROUP
  5
64A1
102
{ACAD_REACTORS
330
D
102
}
330
D
100
AcDbGroup
300

 70
     1
 71
     1
  0
GROUP
  5
12F63
102
{ACAD_REACTORS
330
D
102
}
330
D
100
AcDbGroup
300

 70
     1
 71
     1
  0
GROUP
  5
10FE
102
{ACAD_REACTORS
330
D
102
}
330
D
100
AcDbGroup
300

 70
     1
 71
     1
  0
GROUP
  5
115DE
102
{ACAD_REACTORS
330
D
102
}
330
D
100
AcDbGroup
300

 70
     1
 71
     1
  0
GROUP
  5
11BEA
102
{ACAD_REACTORS
330
D
102
}
330
D
100
AcDbGroup
300

 70
     1
 71
     1
  0
GROUP
  5
E711
102
{ACAD_REACTORS
330
D
102
}
330
D
100
AcDbGroup
300

 70
     1
 71
     1
  0
GROUP
  5
8809
102
{ACAD_REACTORS
330
D
102
}
330
D
100
AcDbGroup
300

 70
     1
 71
     1
  0
GROUP
  5
141BE
102
{ACAD_REACTORS
330
D
102
}
330
D
100
AcDbGroup
300

 70
     1
 71
     1
  0
GROUP
  5
4ABD
102
{ACAD_REACTORS
330
D
102
}
330
D
100
AcDbGroup
300

 70
     1
 71
     1
  0
GROUP
  5
498C
102
{ACAD_REACTORS
330
D
102
}
330
D
100
AcDbGroup
300

 70
     1
 71
     1
  0
GROUP
  5
2CA5
102
{ACAD_REACTORS
330
D
102
}
330
D
100
AcDbGroup
300

 70
     1
 71
     1
  0
GROUP
  5
5D38
102
{ACAD_REACTORS
330
D
102
}
330
D
100
AcDbGroup
300

 70
     1
 71
     1
  0
GROUP
  5
B34F
102
{ACAD_REACTORS
330
D
102
}
330
D
100
AcDbGroup
300

 70
     1
 71
     1
  0
GROUP
  5
5DD4
102
{ACAD_REACTORS
330
D
102
}
330
D
100
AcDbGroup
300

 70
     1
 71
     1
  0
GROUP
  5
5E55
102
{ACAD_REACTORS
330
D
102
}
330
D
100
AcDbGroup
300

 70
     1
 71
     1
  0
GROUP
  5
49A1
102
{ACAD_REACTORS
330
D
102
}
330
D
100
AcDbGroup
300

 70
     1
 71
     1
  0
GROUP
  5
8227
102
{ACAD_REACTORS
330
D
102
}
330
D
100
AcDbGroup
300

 70
     1
 71
     1
  0
GROUP
  5
8222
102
{ACAD_REACTORS
330
D
102
}
330
D
100
AcDbGroup
300

 70
     1
 71
     1
  0
GROUP
  5
42C0
102
{ACAD_REACTORS
330
D
102
}
330
D
100
AcDbGroup
300

 70
     1
 71
     1
  0
GROUP
  5
15106
102
{ACAD_REACTORS
330
D
102
}
330
D
100
AcDbGroup
300

 70
     1
 71
     1
  0
GROUP
  5
15115
102
{ACAD_REACTORS
330
D
102
}
330
D
100
AcDbGroup
300

 70
     1
 71
     1
340
15109
340
1510A
340
1510C
340
1510D
340
1510E
340
1510F
340
15111
340
15113
340
15114
  0
GROUP
  5
A3B5
102
{ACAD_REACTORS
330
D
102
}
330
D
100
AcDbGroup
300

 70
     1
 71
     1
  0
GROUP
  5
12F53
102
{ACAD_REACTORS
330
D
102
}
330
D
100
AcDbGroup
300

 70
     1
 71
     1
  0
GROUP
  5
83B2
102
{ACAD_REACTORS
330
D
102
}
330
D
100
AcDbGroup
300

 70
     1
 71
     1
  0
GROUP
  5
5F9C
102
{ACAD_REACTORS
330
D
102
}
330
D
100
AcDbGroup
300

 70
     1
 71
     1
  0
GROUP
  5
317D
102
{ACAD_REACTORS
330
D
102
}
330
D
100
AcDbGroup
300

 70
     1
 71
     1
  0
GROUP
  5
57BA
102
{ACAD_REACTORS
330
D
102
}
330
D
100
AcDbGroup
300

 70
     1
 71
     1
  0
GROUP
  5
2C9E
102
{ACAD_REACTORS
330
D
102
}
330
D
100
AcDbGroup
300

 70
     1
 71
     1
  0
GROUP
  5
A3D1
102
{ACAD_REACTORS
330
D
102
}
330
D
100
AcDbGroup
300

 70
     1
 71
     1
  0
GROUP
  5
33BA
102
{ACAD_REACTORS
330
D
102
}
330
D
100
AcDbGroup
300

 70
     1
 71
     1
  0
GROUP
  5
57BC
102
{ACAD_REACTORS
330
D
102
}
330
D
100
AcDbGroup
300

 70
     1
 71
     1
  0
GROUP
  5
10AD
102
{ACAD_REACTORS
330
D
102
}
330
D
100
AcDbGroup
300

 70
     1
 71
     1
  0
GROUP
  5
2FE9
102
{ACAD_REACTORS
330
D
102
}
330
D
100
AcDbGroup
300

 70
     1
 71
     1
  0
GROUP
  5
3183
102
{ACAD_REACTORS
330
D
102
}
330
D
100
AcDbGroup
300

 70
     1
 71
     1
  0
GROUP
  5
A9A1
102
{ACAD_REACTORS
330
D
102
}
330
D
100
AcDbGroup
300

 70
     1
 71
     1
  0
GROUP
  5
B352
102
{ACAD_REACTORS
330
D
102
}
330
D
100
AcDbGroup
300

 70
     1
 71
     1
  0
GROUP
  5
4A10
102
{ACAD_REACTORS
330
D
102
}
330
D
100
AcDbGroup
300

 70
     1
 71
     1
  0
GROUP
  5
6F78
102
{ACAD_REACTORS
330
D
102
}
330
D
100
AcDbGroup
300

 70
     1
 71
     1
  0
GROUP
  5
12F5B
102
{ACAD_REACTORS
330
D
102
}
330
D
100
AcDbGroup
300

 70
     1
 71
     1
  0
GROUP
  5
3289
102
{ACAD_REACTORS
330
D
102
}
330
D
100
AcDbGroup
300

 70
     1
 71
     1
  0
GROUP
  5
A387
102
{ACAD_REACTORS
330
D
102
}
330
D
100
AcDbGroup
300

 70
     1
 71
     1
  0
GROUP
  5
8819
102
{ACAD_REACTORS
330
D
102
}
330
D
100
AcDbGroup
300

 70
     1
 71
     1
  0
GROUP
  5
5128
102
{ACAD_REACTORS
330
D
102
}
330
D
100
AcDbGroup
300

 70
     1
 71
     1
  0
GROUP
  5
A393
102
{ACAD_REACTORS
330
D
102
}
330
D
100
AcDbGroup
300

 70
     1
 71
     1
  0
GROUP
  5
5134
102
{ACAD_REACTORS
330
D
102
}
330
D
100
AcDbGroup
300

 70
     1
 71
     1
  0
GROUP
  5
328C
102
{ACAD_REACTORS
330
D
102
}
330
D
100
AcDbGroup
300

 70
     1
 71
     1
  0
GROUP
  5
964C
102
{ACAD_REACTORS
330
D
102
}
330
D
100
AcDbGroup
300

 70
     1
 71
     1
  0
GROUP
  5
11BE7
102
{ACAD_REACTORS
330
D
102
}
330
D
100
AcDbGroup
300

 70
     1
 71
     1
  0
GROUP
  5
A3EB
102
{ACAD_REACTORS
330
D
102
}
330
D
100
AcDbGroup
300

 70
     1
 71
     1
  0
GROUP
  5
33BD
102
{ACAD_REACTORS
330
D
102
}
330
D
100
AcDbGroup
300

 70
     1
 71
     1
  0
GROUP
  5
A623
102
{ACAD_REACTORS
330
D
102
}
330
D
100
AcDbGroup
300

 70
     1
 71
     1
  0
GROUP
  5
11D1D
102
{ACAD_REACTORS
330
D
102
}
330
D
100
AcDbGroup
300

 70
     1
 71
     1
  0
GROUP
  5
42D1
102
{ACAD_REACTORS
330
D
102
}
330
D
100
AcDbGroup
300

 70
     1
 71
     1
  0
GROUP
  5
A99C
102
{ACAD_REACTORS
330
D
102
}
330
D
100
AcDbGroup
300

 70
     1
 71
     1
  0
GROUP
  5
11C1C
102
{ACAD_REACTORS
330
D
102
}
330
D
100
AcDbGroup
300

 70
     1
 71
     1
  0
GROUP
  5
64A9
102
{ACAD_REACTORS
330
D
102
}
330
D
100
AcDbGroup
300

 70
     1
 71
     1
  0
GROUP
  5
10DA
102
{ACAD_REACTORS
330
D
102
}
330
D
100
AcDbGroup
300

 70
     1
 71
     1
  0
GROUP
  5
5133
102
{ACAD_REACTORS
330
D
102
}
330
D
100
AcDbGroup
300

 70
     1
 71
     1
  0
GROUP
  5
33A2
102
{ACAD_REACTORS
330
D
102
}
330
D
100
AcDbGroup
300

 70
     1
 71
     1
  0
GROUP
  5
4980
102
{ACAD_REACTORS
330
D
102
}
330
D
100
AcDbGroup
300

 70
     1
 71
     1
  0
GROUP
  5
1219D
102
{ACAD_REACTORS
330
D
102
}
330
D
100
AcDbGroup
300

 70
     1
 71
     1
  0
GROUP
  5
881E
102
{ACAD_REACTORS
330
D
102
}
330
D
100
AcDbGroup
300

 70
     1
 71
     1
  0
GROUP
  5
6062
102
{ACAD_REACTORS
330
D
102
}
330
D
100
AcDbGroup
300

 70
     1
 71
     1
  0
GROUP
  5
FEDE
102
{ACAD_REACTORS
330
D
102
}
330
D
100
AcDbGroup
300

 70
     1
 71
     1
  0
GROUP
  5
12197
102
{ACAD_REACTORS
330
D
102
}
330
D
100
AcDbGroup
300

 70
     1
 71
     1
  0
GROUP
  5
8213
102
{ACAD_REACTORS
330
D
102
}
330
D
100
AcDbGroup
300

 70
     1
 71
     1
  0
GROUP
  5
115D0
102
{ACAD_REACTORS
330
D
102
}
330
D
100
AcDbGroup
300

 70
     1
 71
     1
  0
GROUP
  5
339B
102
{ACAD_REACTORS
330
D
102
}
330
D
100
AcDbGroup
300

 70
     1
 71
     1
  0
GROUP
  5
57BD
102
{ACAD_REACTORS
330
D
102
}
330
D
100
AcDbGroup
300

 70
     1
 71
     1
  0
GROUP
  5
5DC8
102
{ACAD_REACTORS
330
D
102
}
330
D
100
AcDbGroup
300

 70
     1
 71
     1
  0
GROUP
  5
5DE0
102
{ACAD_REACTORS
330
D
102
}
330
D
100
AcDbGroup
300

 70
     1
 71
     1
  0
GROUP
  5
2C9A
102
{ACAD_REACTORS
330
D
102
}
330
D
100
AcDbGroup
300

 70
     1
 71
     1
  0
GROUP
  5
8051
102
{ACAD_REACTORS
330
D
102
}
330
D
100
AcDbGroup
300

 70
     1
 71
     1
  0
GROUP
  5
1161
102
{ACAD_REACTORS
330
D
102
}
330
D
100
AcDbGroup
300

 70
     1
 71
     1
  0
GROUP
  5
4995
102
{ACAD_REACTORS
330
D
102
}
330
D
100
AcDbGroup
300

 70
     1
 71
     1
  0
GROUP
  5
8065
102
{ACAD_REACTORS
330
D
102
}
330
D
100
AcDbGroup
300

 70
     1
 71
     1
  0
GROUP
  5
49E4
102
{ACAD_REACTORS
330
D
102
}
330
D
100
AcDbGroup
300

 70
     1
 71
     1
  0
GROUP
  5
980E
102
{ACAD_REACTORS
330
D
102
}
330
D
100
AcDbGroup
300

 70
     1
 71
     1
  0
GROUP
  5
10F5
102
{ACAD_REACTORS
330
D
102
}
330
D
100
AcDbGroup
300

 70
     1
 71
     1
  0
GROUP
  5
11BF7
102
{ACAD_REACTORS
330
D
102
}
330
D
100
AcDbGroup
300

 70
     1
 71
     1
  0
GROUP
  5
806F
102
{ACAD_REACTORS
330
D
102
}
330
D
100
AcDbGroup
300

 70
     1
 71
     1
  0
GROUP
  5
77C8
102
{ACAD_REACTORS
330
D
102
}
330
D
100
AcDbGroup
300

 70
     1
 71
     1
  0
GROUP
  5
6400
102
{ACAD_REACTORS
330
D
102
}
330
D
100
AcDbGroup
300

 70
     1
 71
     1
  0
GROUP
  5
121A1
102
{ACAD_REACTORS
330
D
102
}
330
D
100
AcDbGroup
300

 70
     1
 71
     1
  0
GROUP
  5
6221
102
{ACAD_REACTORS
330
D
102
}
330
D
100
AcDbGroup
300

 70
     1
 71
     1
  0
GROUP
  5
A3B9
102
{ACAD_REACTORS
330
D
102
}
330
D
100
AcDbGroup
300

 70
     1
 71
     1
  0
GROUP
  5
8375
102
{ACAD_REACTORS
330
D
102
}
330
D
100
AcDbGroup
300

 70
     1
 71
     1
  0
GROUP
  5
605A
102
{ACAD_REACTORS
330
D
102
}
330
D
100
AcDbGroup
300

 70
     1
 71
     1
  0
GROUP
  5
3487
102
{ACAD_REACTORS
330
D
102
}
330
D
100
AcDbGroup
300

 70
     1
 71
     1
  0
GROUP
  5
81E6
102
{ACAD_REACTORS
330
D
102
}
330
D
100
AcDbGroup
300

 70
     1
 71
     1
  0
GROUP
  5
7C29
102
{ACAD_REACTORS
330
D
102
}
330
D
100
AcDbGroup
300

 70
     1
 71
     1
  0
GROUP
  5
8814
102
{ACAD_REACTORS
330
D
102
}
330
D
100
AcDbGroup
300

 70
     1
 71
     1
  0
GROUP
  5
49DB
102
{ACAD_REACTORS
330
D
102
}
330
D
100
AcDbGroup
300

 70
     1
 71
     1
  0
GROUP
  5
5E6B
102
{ACAD_REACTORS
330
D
102
}
330
D
100
AcDbGroup
300

 70
     1
 71
     1
  0
GROUP
  5
606A
102
{ACAD_REACTORS
330
D
102
}
330
D
100
AcDbGroup
300

 70
     1
 71
     1
  0
GROUP
  5
81B8
102
{ACAD_REACTORS
330
D
102
}
330
D
100
AcDbGroup
300

 70
     1
 71
     1
  0
GROUP
  5
881D
102
{ACAD_REACTORS
330
D
102
}
330
D
100
AcDbGroup
300

 70
     1
 71
     1
  0
GROUP
  5
49E1
102
{ACAD_REACTORS
330
D
102
}
330
D
100
AcDbGroup
300

 70
     1
 71
     1
  0
GROUP
  5
7AE6
102
{ACAD_REACTORS
330
D
102
}
330
D
100
AcDbGroup
300

 70
     1
 71
     1
  0
GROUP
  5
8187
102
{ACAD_REACTORS
330
D
102
}
330
D
100
AcDbGroup
300

 70
     1
 71
     1
  0
GROUP
  5
5E65
102
{ACAD_REACTORS
330
D
102
}
330
D
100
AcDbGroup
300

 70
     1
 71
     1
  0
GROUP
  5
5129
102
{ACAD_REACTORS
330
D
102
}
330
D
100
AcDbGroup
300

 70
     1
 71
     1
  0
GROUP
  5
5E04
102
{ACAD_REACTORS
330
D
102
}
330
D
100
AcDbGroup
300

 70
     1
 71
     1
  0
GROUP
  5
57BE
102
{ACAD_REACTORS
330
D
102
}
330
D
100
AcDbGroup
300

 70
     1
 71
     1
  0
GROUP
  5
5DEC
102
{ACAD_REACTORS
330
D
102
}
330
D
100
AcDbGroup
300

 70
     1
 71
     1
  0
GROUP
  5
4A14
102
{ACAD_REACTORS
330
D
102
}
330
D
100
AcDbGroup
300

 70
     1
 71
     1
  0
GROUP
  5
11BEF
102
{ACAD_REACTORS
330
D
102
}
330
D
100
AcDbGroup
300

 70
     1
 71
     1
  0
GROUP
  5
33B9
102
{ACAD_REACTORS
330
D
102
}
330
D
100
AcDbGroup
300

 70
     1
 71
     1
  0
GROUP
  5
81E4
102
{ACAD_REACTORS
330
D
102
}
330
D
100
AcDbGroup
300

 70
     1
 71
     1
  0
GROUP
  5
109B
102
{ACAD_REACTORS
330
D
102
}
330
D
100
AcDbGroup
300

 70
     1
 71
     1
  0
GROUP
  5
11BF0
102
{ACAD_REACTORS
330
D
102
}
330
D
100
AcDbGroup
300

 70
     1
 71
     1
  0
GROUP
  5
49C7
102
{ACAD_REACTORS
330
D
102
}
330
D
100
AcDbGroup
300

 70
     1
 71
     1
  0
GROUP
  5
11C18
102
{ACAD_REACTORS
330
D
102
}
330
D
100
AcDbGroup
300

 70
     1
 71
     1
  0
GROUP
  5
14BC6
102
{ACAD_REACTORS
330
D
102
}
330
D
100
AcDbGroup
300

 70
     1
 71
     1
340
149E2
340
149ED
340
149EC
340
149EB
340
149EA
340
149E9
340
149EE
  0
GROUP
  5
14BC7
102
{ACAD_REACTORS
330
D
102
}
330
D
100
AcDbGroup
300

 70
     1
 71
     1
340
149FA
340
14A01
340
14A00
340
149FF
340
14A02
340
149FE
340
149FD
  0
GROUP
  5
14BC8
102
{ACAD_REACTORS
330
D
102
}
330
D
100
AcDbGroup
300

 70
     1
 71
     1
340
149A9
340
149A8
340
14A32
340
149A7
340
14A06
340
14A33
340
14A31
  0
GROUP
  5
8062
102
{ACAD_REACTORS
330
D
102
}
330
D
100
AcDbGroup
300

 70
     1
 71
     1
  0
GROUP
  5
B34C
102
{ACAD_REACTORS
330
D
102
}
330
D
100
AcDbGroup
300

 70
     1
 71
     1
  0
GROUP
  5
9807
102
{ACAD_REACTORS
330
D
102
}
330
D
100
AcDbGroup
300

 70
     1
 71
     1
  0
GROUP
  5
E71A
102
{ACAD_REACTORS
330
D
102
}
330
D
100
AcDbGroup
300

 70
     1
 71
     1
  0
GROUP
  5
14BC9
102
{ACAD_REACTORS
330
D
102
}
330
D
100
AcDbGroup
300

 70
     1
 71
     1
340
14A36
340
14A3D
340
14A3A
340
14A3C
340
14A3B
340
14A3E
340
14A39
  0
GROUP
  5
121C8
102
{ACAD_REACTORS
330
D
102
}
330
D
100
AcDbGroup
300

 70
     1
 71
     1
  0
GROUP
  5
14BCA
102
{ACAD_REACTORS
330
D
102
}
330
D
100
AcDbGroup
300

 70
     1
 71
     1
  0
GROUP
  5
5E1D
102
{ACAD_REACTORS
330
D
102
}
330
D
100
AcDbGroup
300

 70
     1
 71
     1
  0
GROUP
  5
14BCB
102
{ACAD_REACTORS
330
D
102
}
330
D
100
AcDbGroup
300

 70
     1
 71
     1
  0
GROUP
  5
113D
102
{ACAD_REACTORS
330
D
102
}
330
D
100
AcDbGroup
300

 70
     1
 71
     1
  0
GROUP
  5
112B
102
{ACAD_REACTORS
330
D
102
}
330
D
100
AcDbGroup
300

 70
     1
 71
     1
  0
GROUP
  5
14BCC
102
{ACAD_REACTORS
330
D
102
}
330
D
100
AcDbGroup
300

 70
     1
 71
     1
  0
GROUP
  5
14E6B
102
{ACAD_REACTORS
330
D
102
}
330
D
100
AcDbGroup
300

 70
     1
 71
     1
340
14E64
340
14E65
340
14E66
340
14E67
340
14E68
340
14E69
340
14E6A
  0
GROUP
  5
141B6
102
{ACAD_REACTORS
330
D
102
}
330
D
100
AcDbGroup
300

 70
     1
 71
     1
  0
GROUP
  5
12195
102
{ACAD_REACTORS
330
D
102
}
330
D
100
AcDbGroup
300

 70
     1
 71
     1
  0
GROUP
  5
1500D
102
{ACAD_REACTORS
330
D
102
}
330
D
100
AcDbGroup
300

 70
     1
 71
     1
  0
GROUP
  5
1134
102
{ACAD_REACTORS
330
D
102
}
330
D
100
AcDbGroup
300

 70
     1
 71
     1
  0
GROUP
  5
B358
102
{ACAD_REACTORS
330
D
102
}
330
D
100
AcDbGroup
300

 70
     1
 71
     1
  0
GROUP
  5
1500E
102
{ACAD_REACTORS
330
D
102
}
330
D
100
AcDbGroup
300

 70
     1
 71
     1
  0
GROUP
  5
1500F
102
{ACAD_REACTORS
330
D
102
}
330
D
100
AcDbGroup
300

 70
     1
 71
     1
  0
GROUP
  5
15010
102
{ACAD_REACTORS
330
D
102
}
330
D
100
AcDbGroup
300

 70
     1
 71
     1
  0
GROUP
  5
10D1
102
{ACAD_REACTORS
330
D
102
}
330
D
100
AcDbGroup
300

 70
     1
 71
     1
  0
GROUP
  5
A61E
102
{ACAD_REACTORS
330
D
102
}
330
D
100
AcDbGroup
300

 70
     1
 71
     1
  0
GROUP
  5
15011
102
{ACAD_REACTORS
330
D
102
}
330
D
100
AcDbGroup
300

 70
     1
 71
     1
  0
GROUP
  5
E028
102
{ACAD_REACTORS
330
D
102
}
330
D
100
AcDbGroup
300

 70
     1
 71
     1
  0
GROUP
  5
4986
102
{ACAD_REACTORS
330
D
102
}
330
D
100
AcDbGroup
300

 70
     1
 71
     1
  0
GROUP
  5
8072
102
{ACAD_REACTORS
330
D
102
}
330
D
100
AcDbGroup
300

 70
     1
 71
     1
  0
GROUP
  5
77B9
102
{ACAD_REACTORS
330
D
102
}
330
D
100
AcDbGroup
300

 70
     1
 71
     1
  0
GROUP
  5
15016
102
{ACAD_REACTORS
330
D
102
}
330
D
100
AcDbGroup
300

 70
     1
 71
     1
  0
GROUP
  5
15023
102
{ACAD_REACTORS
330
D
102
}
330
D
100
AcDbGroup
300

 70
     1
 71
     1
  0
GROUP
  5
1502C
102
{ACAD_REACTORS
330
D
102
}
330
D
100
AcDbGroup
300

 70
     1
 71
     1
  0
GROUP
  5
4998
102
{ACAD_REACTORS
330
D
102
}
330
D
100
AcDbGroup
300

 70
     1
 71
     1
  0
GROUP
  5
1502D
102
{ACAD_REACTORS
330
D
102
}
330
D
100
AcDbGroup
300

 70
     1
 71
     1
  0
GROUP
  5
121CC
102
{ACAD_REACTORS
330
D
102
}
330
D
100
AcDbGroup
300

 70
     1
 71
     1
  0
GROUP
  5
1503E
102
{ACAD_REACTORS
330
D
102
}
330
D
100
AcDbGroup
300

 70
     1
 71
     1
  0
GROUP
  5
BCEC
102
{ACAD_REACTORS
330
D
102
}
330
D
100
AcDbGroup
300

 70
     1
 71
     1
  0
GROUP
  5
1503F
102
{ACAD_REACTORS
330
D
102
}
330
D
100
AcDbGroup
300

 70
     1
 71
     1
  0
GROUP
  5
81A9
102
{ACAD_REACTORS
330
D
102
}
330
D
100
AcDbGroup
300

 70
     1
 71
     1
  0
GROUP
  5
9808
102
{ACAD_REACTORS
330
D
102
}
330
D
100
AcDbGroup
300

 70
     1
 71
     1
  0
GROUP
  5
15040
102
{ACAD_REACTORS
330
D
102
}
330
D
100
AcDbGroup
300

 70
     1
 71
     1
  0
GROUP
  5
15041
102
{ACAD_REACTORS
330
D
102
}
330
D
100
AcDbGroup
300

 70
     1
 71
     1
  0
GROUP
  5
A3C9
102
{ACAD_REACTORS
330
D
102
}
330
D
100
AcDbGroup
300

 70
     1
 71
     1
  0
GROUP
  5
1110
102
{ACAD_REACTORS
330
D
102
}
330
D
100
AcDbGroup
300

 70
     1
 71
     1
  0
GROUP
  5
F193
102
{ACAD_REACTORS
330
D
102
}
330
D
100
AcDbGroup
300

 70
     1
 71
     1
  0
GROUP
  5
15052
102
{ACAD_REACTORS
330
D
102
}
330
D
100
AcDbGroup
300

 70
     1
 71
     1
  0
GROUP
  5
821C
102
{ACAD_REACTORS
330
D
102
}
330
D
100
AcDbGroup
300

 70
     1
 71
     1
  0
GROUP
  5
15053
102
{ACAD_REACTORS
330
D
102
}
330
D
100
AcDbGroup
300

 70
     1
 71
     1
  0
GROUP
  5
15054
102
{ACAD_REACTORS
330
D
102
}
330
D
100
AcDbGroup
300

 70
     1
 71
     1
  0
GROUP
  5
114F
102
{ACAD_REACTORS
330
D
102
}
330
D
100
AcDbGroup
300

 70
     1
 71
     1
  0
GROUP
  5
5F9B
102
{ACAD_REACTORS
330
D
102
}
330
D
100
AcDbGroup
300

 70
     1
 71
     1
  0
GROUP
  5
1122
102
{ACAD_REACTORS
330
D
102
}
330
D
100
AcDbGroup
300

 70
     1
 71
     1
  0
GROUP
  5
15055
102
{ACAD_REACTORS
330
D
102
}
330
D
100
AcDbGroup
300

 70
     1
 71
     1
  0
GROUP
  5
10E3
102
{ACAD_REACTORS
330
D
102
}
330
D
100
AcDbGroup
300

 70
     1
 71
     1
  0
GROUP
  5
619C
102
{ACAD_REACTORS
330
D
102
}
330
D
100
AcDbGroup
300

 70
     1
 71
     1
  0
GROUP
  5
B349
102
{ACAD_REACTORS
330
D
102
}
330
D
100
AcDbGroup
300

 70
     1
 71
     1
  0
GROUP
  5
4983
102
{ACAD_REACTORS
330
D
102
}
330
D
100
AcDbGroup
300

 70
     1
 71
     1
  0
GROUP
  5
106E
102
{ACAD_REACTORS
330
D
102
}
330
D
100
AcDbGroup
300

 70
     1
 71
     1
  0
GROUP
  5
11BF9
102
{ACAD_REACTORS
330
D
102
}
330
D
100
AcDbGroup
300

 70
     1
 71
     1
  0
GROUP
  5
A9D3
102
{ACAD_REACTORS
330
D
102
}
330
D
100
AcDbGroup
300

 70
     1
 71
     1
  0
GROUP
  5
4AB1
102
{ACAD_REACTORS
330
D
102
}
330
D
100
AcDbGroup
300

 70
     1
 71
     1
  0
MLINESTYLE
  5
1C
102
{ACAD_REACTORS
330
1B
102
}
330
1B
100
AcDbMlineStyle
  2
STANDARD
 70
     0
  3

 62
   256
 51
90.0
 52
90.0
 71
     2
 49
0.5
 62
   256
  6
BYLAYER
 49
-0.5
 62
   256
  6
BYLAYER
  0
ACDBPLACEHOLDER
  5
73E
102
{ACAD_REACTORS
330
73D
102
}
330
73D
100
AcDbPlaceHolder
280
     0
  0
XRECORD
  5
15156
102
{ACAD_REACTORS
330
1514C
102
}
330
1514C
100
AcDbXrecord
 90
        0
  0
XRECORD
  5
1515A
102
{ACAD_REACTORS
330
1514C
102
}
330
1514C
100
AcDbXrecord
1000
DSTYLE
1002
{
1070
   179
 70
     4
1070
   341
340
89E
1070
   342
340
89E
1070
   371
 70
    13
1070
   372
 70
    13
1002
}
  0
XRECORD
  5
15157
102
{ACAD_REACTORS
330
1514C
102
}
330
1514C
100
AcDbXrecord
  1
{6B368F64-F7EB-11D4-BFBA-00004C030E53}
  0
XRECORD
  5
1514F
102
{ACAD_REACTORS
330
1514C
102
}
330
1514C
100
AcDbXrecord
  1

  0
XRECORD
  5
15155
102
{ACAD_REACTORS
330
1514C
102
}
330
1514C
100
AcDbXrecord
 90
        0
  0
XRECORD
  5
15151
102
{ACAD_REACTORS
330
1514C
102
}
330
1514C
100
AcDbXrecord
340
73F
  0
XRECORD
  5
15154
102
{ACAD_REACTORS
330
1514C
102
}
330
1514C
100
AcDbXrecord
 90
    10781
  0
XRECORD
  5
15152
102
{ACAD_REACTORS
330
1514C
102
}
330
1514C
100
AcDbXrecord
340
740
  0
XRECORD
  5
15153
102
{ACAD_REACTORS
330
1514C
102
}
330
1514C
100
AcDbXrecord
340
73D
  0
XRECORD
  5
15159
102
{ACAD_REACTORS
330
1514C
102
}
330
1514C
100
AcDbXrecord
 40
0.0
  0
XRECORD
  5
1515D
102
{ACAD_REACTORS
330
1514C
102
}
330
1514C
100
AcDbXrecord
340
0
  0
XRECORD
  5
15163
102
{ACAD_REACTORS
330
1514C
102
}
330
1514C
100
AcDbXrecord
 10
0.0
 20
0.0
 30
0.0
  0
XRECORD
  5
1515F
102
{ACAD_REACTORS
330
1514C
102
}
330
1514C
100
AcDbXrecord
 10
0.0
 20
0.0
 30
0.0
  0
XRECORD
  5
15162
102
{ACAD_REACTORS
330
1514C
102
}
330
1514C
100
AcDbXrecord
 10
0.0
 20
0.0
 30
0.0
  0
XRECORD
  5
15160
102
{ACAD_REACTORS
330
1514C
102
}
330
1514C
100
AcDbXrecord
 10
0.0
 20
0.0
 30
0.0
  0
XRECORD
  5
15161
102
{ACAD_REACTORS
330
1514C
102
}
330
1514C
100
AcDbXrecord
 10
0.0
 20
0.0
 30
0.0
  0
XRECORD
  5
1515E
102
{ACAD_REACTORS
330
1514C
102
}
330
1514C
100
AcDbXrecord
 10
0.0
 20
0.0
 30
0.0
  0
XRECORD
  5
1515B
102
{ACAD_REACTORS
330
1514C
102
}
330
1514C
100
AcDbXrecord
340
0
  0
XRECORD
  5
1515C
102
{ACAD_REACTORS
330
1514C
102
}
330
1514C
100
AcDbXrecord
 70
     0
  0
XRECORD
  5
15150
102
{ACAD_REACTORS
330
1514C
102
}
330
1514C
100
AcDbXrecord
  1

  0
XRECORD
  5
1514D
102
{ACAD_REACTORS
330
1514C
102
}
330
1514C
100
AcDbXrecord
 90
        1
  0
XRECORD
  5
1514E
102
{ACAD_REACTORS
330
1514C
102
}
330
1514C
100
AcDbXrecord
 90
       70
  0
XRECORD
  5
15166
102
{ACAD_REACTORS
330
1514C
102
}
330
1514C
100
AcDbXrecord
340
0
  0
XRECORD
  5
1516C
102
{ACAD_REACTORS
330
1514C
102
}
330
1514C
100
AcDbXrecord
 10
0.0
 20
0.0
 30
0.0
  0
XRECORD
  5
15168
102
{ACAD_REACTORS
330
1514C
102
}
330
1514C
100
AcDbXrecord
 10
0.0
 20
0.0
 30
0.0
  0
XRECORD
  5
1516B
102
{ACAD_REACTORS
330
1514C
102
}
330
1514C
100
AcDbXrecord
 10
0.0
 20
0.0
 30
0.0
  0
XRECORD
  5
15169
102
{ACAD_REACTORS
330
1514C
102
}
330
1514C
100
AcDbXrecord
 10
0.0
 20
0.0
 30
0.0
  0
XRECORD
  5
1516A
102
{ACAD_REACTORS
330
1514C
102
}
330
1514C
100
AcDbXrecord
 10
0.0
 20
0.0
 30
0.0
  0
XRECORD
  5
15167
102
{ACAD_REACTORS
330
1514C
102
}
330
1514C
100
AcDbXrecord
 10
0.0
 20
0.0
 30
0.0
  0
XRECORD
  5
15164
102
{ACAD_REACTORS
330
1514C
102
}
330
1514C
100
AcDbXrecord
340
0
  0
XRECORD
  5
15165
102
{ACAD_REACTORS
330
1514C
102
}
330
1514C
100
AcDbXrecord
 70
     0
  0
XRECORD
  5
15158
102
{ACAD_REACTORS
330
1514C
102
}
330
1514C
100
AcDbXrecord
  1
{A8BC15AD-312E-4032-83CA-C0639877DBD6}
  0
DICTIONARYVAR
  5
11AD
102
{ACAD_REACTORS
330
11AC
102
}
330
11AC
100
DictionaryVariables
280
     0
  1
1
  0
DICTIONARYVAR
  5
B4C6
102
{ACAD_REACTORS
330
11AC
102
}
330
11AC
100
DictionaryVariables
280
     0
  1
96
  0
XRECORD
  5
11C21
102
{ACAD_REACTORS
330
11C20
102
}
330
11C20
100
AcDbXrecord
  1
0
  1
*0
  1
*
  1
*
 70
     0
  1
*
  1
*
  0
XRECORD
  5
11C22
102
{ACAD_REACTORS
330
11C20
102
}
330
11C20
100
AcDbXrecord
  1
11
  1
*11
  1
*
  1
*
 70
     0
  1
*
  1
*
  0
XRECORD
  5
11C23
102
{ACAD_REACTORS
330
11C20
102
}
330
11C20
100
AcDbXrecord
  1
150_
  1
150_*
  1
*
  1
*
 70
     0
  1
*
  1
*
  0
XRECORD
  5
11C24
102
{ACAD_REACTORS
330
11C20
102
}
330
11C20
100
AcDbXrecord
  1
160_
  1
160_*
  1
*
  1
*
 70
     0
  1
*
  1
*
  0
XRECORD
  5
11C25
102
{ACAD_REACTORS
330
11C20
102
}
330
11C20
100
AcDbXrecord
  1
170_
  1
170_*
  1
*
  1
*
 70
     0
  1
*
  1
*
  0
XRECORD
  5
11C26
102
{ACAD_REACTORS
330
11C20
102
}
330
11C20
100
AcDbXrecord
  1
171_
  1
171_*
  1
*
  1
*
 70
     0
  1
*
  1
*
  0
XRECORD
  5
11C27
102
{ACAD_REACTORS
330
11C20
102
}
330
11C20
100
AcDbXrecord
  1
350_
  1
350_*
  1
*
  1
*
 70
     0
  1
*
  1
*
  0
XRECORD
  5
11C28
102
{ACAD_REACTORS
330
11C20
102
}
330
11C20
100
AcDbXrecord
  1
4
  1
*4
  1
*
  1
*
 70
     0
  1
*
  1
*
  0
XRECORD
  5
11C29
102
{ACAD_REACTORS
330
11C20
102
}
330
11C20
100
AcDbXrecord
  1
5
  1
*5
  1
*
  1
*
 70
     0
  1
*
  1
*
  0
XRECORD
  5
11C2A
102
{ACAD_REACTORS
330
11C20
102
}
330
11C20
100
AcDbXrecord
  1
7
  1
*7
  1
*
  1
*
 70
     0
  1
*
  1
*
  0
XRECORD
  5
11C2B
102
{ACAD_REACTORS
330
11C20
102
}
330
11C20
100
AcDbXrecord
  1
kiseki
  1
kiseki*
  1
*
  1
*
 70
     0
  1
*
  1
*
  0
ENDSEC
  0
EOF
