  0
SECTION
  2
HEADER
  9
$ACADVER
  1
AC1014
  9
$ACADMAINTVER
 70
     9
  9
$DWGCODEPAGE
  3
ANSI_932
  9
$INSBASE
 10
0.0
 20
0.0
 30
0.0
  9
$EXTMIN
 10
-172.8930176875654
 20
-531.3923854655606
 30
0.0
  9
$EXTMAX
 10
-13.97540094056671
 20
-416.7410175636022
 30
0.0
  9
$LIMMIN
 10
0.0
 20
0.0
  9
$LIMMAX
 10
420.0
 20
297.0
  9
$ORTHOMODE
 70
     1
  9
$REGENMODE
 70
     1
  9
$FILLMODE
 70
     1
  9
$QTEXTMODE
 70
     0
  9
$MIRRTEXT
 70
     0
  9
$DRAGMODE
 70
     2
  9
$LTSCALE
 40
1.0
  9
$OSMODE
 70
   959
  9
$ATTMODE
 70
     1
  9
$TEXTSIZE
 40
2.5
  9
$TRACEWID
 40
1.0
  9
$TEXTSTYLE
  7
STANDARD
  9
$CLAYER
  8
文字
  9
$CELTYPE
  6
BYLAYER
  9
$CECOLOR
 62
   256
  9
$CELTSCALE
 40
10.0
  9
$DELOBJ
 70
     1
  9
$DISPSILH
 70
     0
  9
$DIMSCALE
 40
1.0
  9
$DIMASZ
 40
1.5
  9
$DIMEXO
 40
0.8
  9
$DIMDLI
 40
9.0
  9
$DIMRND
 40
0.0
  9
$DIMDLE
 40
0.0
  9
$DIMEXE
 40
0.5
  9
$DIMTP
 40
0.0
  9
$DIMTM
 40
0.0
  9
$DIMTXT
 40
1.5
  9
$DIMCEN
 40
0.0
  9
$DIMTSZ
 40
0.0
  9
$DIMTOL
 70
     0
  9
$DIMLIM
 70
     0
  9
$DIMTIH
 70
     0
  9
$DIMTOH
 70
     0
  9
$DIMSE1
 70
     0
  9
$DIMSE2
 70
     0
  9
$DIMTAD
 70
     3
  9
$DIMZIN
 70
     8
  9
$DIMBLK
  1
OPEN30
  9
$DIMASO
 70
     1
  9
$DIMSHO
 70
     1
  9
$DIMPOST
  1

  9
$DIMAPOST
  1

  9
$DIMALT
 70
     0
  9
$DIMALTD
 70
     2
  9
$DIMALTF
 40
25.4
  9
$DIMLFAC
 40
1.0
  9
$DIMTOFL
 70
     1
  9
$DIMTVP
 40
0.0
  9
$DIMTIX
 70
     0
  9
$DIMSOXD
 70
     0
  9
$DIMSAH
 70
     0
  9
$DIMBLK1
  1

  9
$DIMBLK2
  1

  9
$DIMSTYLE
  2
まこ
  9
$DIMCLRD
 70
     4
  9
$DIMCLRE
 70
     4
  9
$DIMCLRT
 70
   256
  9
$DIMTFAC
 40
1.0
  9
$DIMGAP
 40
0.8
  9
$DIMJUST
 70
     0
  9
$DIMSD1
 70
     0
  9
$DIMSD2
 70
     0
  9
$DIMTOLJ
 70
     1
  9
$DIMTZIN
 70
     0
  9
$DIMALTZ
 70
     0
  9
$DIMALTTZ
 70
     0
  9
$DIMFIT
 70
     3
  9
$DIMUPT
 70
     0
  9
$DIMUNIT
 70
     2
  9
$DIMDEC
 70
     6
  9
$DIMTDEC
 70
     6
  9
$DIMALTU
 70
     2
  9
$DIMALTTD
 70
     2
  9
$DIMTXSTY
  7
まこ
  9
$DIMAUNIT
 70
     0
  9
$LUNITS
 70
     2
  9
$LUPREC
 70
     4
  9
$SKETCHINC
 40
1.0
  9
$FILLETRAD
 40
2.0
  9
$AUNITS
 70
     0
  9
$AUPREC
 70
     3
  9
$MENU
  1
.
  9
$ELEVATION
 40
0.0
  9
$PELEVATION
 40
0.0
  9
$THICKNESS
 40
0.0
  9
$LIMCHECK
 70
     0
  9
$BLIPMODE
 70
     0
  9
$CHAMFERA
 40
1.0
  9
$CHAMFERB
 40
1.0
  9
$CHAMFERC
 40
20.0
  9
$CHAMFERD
 40
0.0
  9
$SKPOLY
 70
     0
  9
$TDCREATE
 40
2452479.723123183
  9
$TDUPDATE
 40
2455601.481122859
  9
$TDINDWG
 40
5.6717270602
  9
$TDUSRTIMER
 40
5.6717247106
  9
$USRTIMER
 70
     1
  9
$ANGBASE
 50
0.0
  9
$ANGDIR
 70
     0
  9
$PDMODE
 70
     0
  9
$PDSIZE
 40
0.0
  9
$PLINEWID
 40
0.0
  9
$COORDS
 70
     1
  9
$SPLFRAME
 70
     0
  9
$SPLINETYPE
 70
     6
  9
$SPLINESEGS
 70
     8
  9
$ATTDIA
 70
     0
  9
$ATTREQ
 70
     1
  9
$HANDLING
 70
-16383
  9
$HANDSEED
  5
13761
  9
$SURFTAB1
 70
     6
  9
$SURFTAB2
 70
     6
  9
$SURFTYPE
 70
     6
  9
$SURFU
 70
     6
  9
$SURFV
 70
     6
  9
$UCSNAME
  2

  9
$UCSORG
 10
0.0
 20
0.0
 30
0.0
  9
$UCSXDIR
 10
1.0
 20
0.0
 30
0.0
  9
$UCSYDIR
 10
0.0
 20
1.0
 30
0.0
  9
$PUCSNAME
  2

  9
$PUCSORG
 10
0.0
 20
0.0
 30
0.0
  9
$PUCSXDIR
 10
1.0
 20
0.0
 30
0.0
  9
$PUCSYDIR
 10
0.0
 20
1.0
 30
0.0
  9
$USERI1
 70
     0
  9
$USERI2
 70
     0
  9
$USERI3
 70
     0
  9
$USERI4
 70
     0
  9
$USERI5
 70
     0
  9
$USERR1
 40
0.0
  9
$USERR2
 40
0.0
  9
$USERR3
 40
0.0
  9
$USERR4
 40
0.0
  9
$USERR5
 40
0.0
  9
$WORLDVIEW
 70
     1
  9
$SHADEDGE
 70
     3
  9
$SHADEDIF
 70
    70
  9
$TILEMODE
 70
     0
  9
$MAXACTVP
 70
    48
  9
$PINSBASE
 10
0.0
 20
0.0
 30
0.0
  9
$PLIMCHECK
 70
     0
  9
$PEXTMIN
 10
-0.000017866925873
 20
-0.0076519276174167
 30
-0.0015258207003583
  9
$PEXTMAX
 10
400.0117306975796
 20
288.0109255473582
 30
0.0000000349246037
  9
$PLIMMIN
 10
-9.983491892750819
 20
-4.461361317987615
  9
$PLIMMAX
 10
409.9631633806867
 20
292.4646335550592
  9
$UNITMODE
 70
     0
  9
$VISRETAIN
 70
     1
  9
$PLINEGEN
 70
     0
  9
$PSLTSCALE
 70
     0
  9
$TREEDEPTH
 70
  3020
  9
$PICKSTYLE
 70
     0
  9
$CMLSTYLE
  2
STANDARD
  9
$CMLJUST
 70
     0
  9
$CMLSCALE
 40
20.0
  9
$PROXYGRAPHICS
 70
     1
  9
$MEASUREMENT
 70
     0
  0
ENDSEC
  0
SECTION
  2
CLASSES
  0
CLASS
  1
HATCH
  2
AcDbHatch
  3
AutoCAD 2000
 90
        0
280
     0
281
     1
  0
CLASS
  1
LWPOLYLINE
  2
AcDbPolyline
  3
AutoCAD 2000
 90
        0
280
     0
281
     1
  0
CLASS
  1
ACDBDICTIONARYWDFLT
  2
AcDbDictionaryWithDefault
  3
AutoCAD 2000
 90
        0
280
     0
281
     0
  0
CLASS
  1
ACDBPLACEHOLDER
  2
AcDbPlaceHolder
  3
AutoCAD 2000
 90
        0
280
     0
281
     0
  0
CLASS
  1
LAYOUT
  2
AcDbLayout
  3
AutoCAD 2000
 90
        0
280
     0
281
     0
  0
CLASS
  1
DICTIONARYVAR
  2
AcDbDictionaryVar
  3
AutoCAD 2000
 90
        0
280
     0
281
     0
  0
CLASS
  1
LONG_TRANSACTION
  2
AcDbLongTransaction
  3
AutoCAD 2000
 90
        0
280
     0
281
     0
  0
CLASS
  1
LWPOLYLINE
  2
AcDbPolyline
  3
AutoCAD 2000
 90
        0
280
     0
281
     1
  0
CLASS
  1
HATCH
  2
AcDbHatch
  3
AutoCAD 2000
 90
        0
280
     0
281
     1
  0
CLASS
  1
XRECORD
  2
AcDbXrecord
  3
AutoCAD 2000
 90
        0
280
     0
281
     0
  0
ENDSEC
  0
SECTION
  2
TABLES
  0
TABLE
  2
VPORT
  5
8
330
0
100
AcDbSymbolTable
 70
     2
  0
VPORT
  5
1373B
330
8
100
AcDbSymbolTableRecord
100
AcDbViewportTableRecord
  2
*ACTIVE
 70
     0
 10
0.0
 20
0.0
 11
1.0
 21
1.0
 12
-93.43744151189572
 22
-474.0883661586155
 13
0.0
 23
0.0
 14
10.0
 24
10.0
 15
10.0
 25
10.0
 16
0.0
 26
0.0
 36
1.0
 17
0.0
 27
0.0
 37
0.0
 40
115.5287936564107
 41
2.184834123222748
 42
50.0
 43
0.0
 44
0.0
 50
0.0
 51
0.0
 71
     0
 72
   100
 73
     1
 74
     0
 75
     0
 76
     0
 77
     0
 78
     2
  0
ENDTAB
  0
TABLE
  2
LTYPE
  5
5
330
0
100
AcDbSymbolTable
 70
     4
  0
LTYPE
  5
12
330
5
100
AcDbSymbolTableRecord
100
AcDbLinetypeTableRecord
  2
BYBLOCK
 70
     0
  3

 72
    65
 73
     0
 40
0.0
  0
LTYPE
  5
13
330
5
100
AcDbSymbolTableRecord
100
AcDbLinetypeTableRecord
  2
BYLAYER
 70
     0
  3

 72
    65
 73
     0
 40
0.0
  0
LTYPE
  5
14
330
5
100
AcDbSymbolTableRecord
100
AcDbLinetypeTableRecord
  2
CONTINUOUS
 70
     0
  3
Solid line
 72
    65
 73
     0
 40
0.0
  0
LTYPE
  5
3306
330
5
100
AcDbSymbolTableRecord
100
AcDbLinetypeTableRecord
  2
CENTER
 70
     0
  3
Center ____ _ ____ _ ____ _ ____ _ ____ _ ____
 72
    65
 73
     4
 40
2.0
 49
1.25
 74
     0
 49
-0.25
 74
     0
 49
0.25
 74
     0
 49
-0.25
 74
     0
  0
LTYPE
  5
B567
330
5
100
AcDbSymbolTableRecord
100
AcDbLinetypeTableRecord
  2
HIDDEN
 70
     0
  3
Hidden __ __ __ __ __ __ __ __ __ __ __ __ __ _
 72
    65
 73
     2
 40
0.375
 49
0.25
 74
     0
 49
-0.125
 74
     0
  0
LTYPE
  5
B56B
330
5
100
AcDbSymbolTableRecord
100
AcDbLinetypeTableRecord
  2
PHANTOM
 70
     0
  3
Phantom ______  __  __  ______  __  __  ______
 72
    65
 73
     6
 40
2.5
 49
1.25
 74
     0
 49
-0.25
 74
     0
 49
0.25
 74
     0
 49
-0.25
 74
     0
 49
0.25
 74
     0
 49
-0.25
 74
     0
  0
ENDTAB
  0
TABLE
  2
LAYER
  5
2
102
{ACAD_XDICTIONARY
360
11C1F
102
}
330
0
100
AcDbSymbolTable
 70
    11
  0
LAYER
  5
E
330
2
100
AcDbSymbolTableRecord
100
AcDbLayerTableRecord
  2
0
 70
     2
 62
     7
  6
CONTINUOUS
  0
LAYER
  5
2C
330
2
100
AcDbSymbolTableRecord
100
AcDbLayerTableRecord
  2
M_VIEW
 70
     0
 62
    -1
  6
CONTINUOUS
  0
LAYER
  5
12B
330
2
100
AcDbSymbolTableRecord
100
AcDbLayerTableRecord
  2
DEFPOINTS
 70
     0
 62
    -7
  6
CONTINUOUS
  0
LAYER
  5
86A
330
2
100
AcDbSymbolTableRecord
100
AcDbLayerTableRecord
  2
文字改
 70
     0
 62
   -40
  6
CONTINUOUS
  0
LAYER
  5
8C6
330
2
100
AcDbSymbolTableRecord
100
AcDbLayerTableRecord
  2
文字
 70
     0
 62
     7
  6
CONTINUOUS
  0
LAYER
  5
A51A
330
2
100
AcDbSymbolTableRecord
100
AcDbLayerTableRecord
  2
中心線
 70
     0
 62
     7
  6
CENTER
  0
LAYER
  5
B010
330
2
100
AcDbSymbolTableRecord
100
AcDbLayerTableRecord
  2
実線
 70
     0
 62
     7
  6
CONTINUOUS
  0
LAYER
  5
B570
330
2
100
AcDbSymbolTableRecord
100
AcDbLayerTableRecord
  2
破線
 70
     0
 62
     7
  6
HIDDEN
  0
LAYER
  5
124D4
330
2
100
AcDbSymbolTableRecord
100
AcDbLayerTableRecord
  2
MG
 70
     0
 62
     7
  6
CONTINUOUS
  0
LAYER
  5
13031
330
2
100
AcDbSymbolTableRecord
100
AcDbLayerTableRecord
  2
２点鎖線
 70
     0
 62
     7
  6
PHANTOM
  0
ENDTAB
  0
TABLE
  2
STYLE
  5
3
330
0
100
AcDbSymbolTable
 70
     6
  0
STYLE
  5
F
330
3
100
AcDbSymbolTableRecord
100
AcDbTextStyleTableRecord
  2
STANDARD
 70
     0
 40
0.0
 41
1.0
 50
0.0
 71
     0
 42
2.5
  3
isocp.shx
  4
bigfont.shx
  0
STYLE
  5
8D7
330
3
100
AcDbSymbolTableRecord
100
AcDbTextStyleTableRecord
  2
MSｺ_ｼｯｸ-0
 70
     0
 40
0.0
 41
1.0
 50
0.0
 71
     0
 42
4.0
  3
simplex.shx
  4
bigfont.shx
  0
STYLE
  5
1529
330
3
100
AcDbSymbolTableRecord
100
AcDbTextStyleTableRecord
  2
まこ
 70
     0
 40
0.0
 41
1.0
 50
0.0
 71
     0
 42
2.5
  3
simplex.shx
  4
bigfont.shx
  0
ENDTAB
  0
TABLE
  2
VIEW
  5
6
330
0
100
AcDbSymbolTable
 70
     0
  0
ENDTAB
  0
TABLE
  2
UCS
  5
7
330
0
100
AcDbSymbolTable
 70
     0
  0
ENDTAB
  0
TABLE
  2
APPID
  5
9
330
0
100
AcDbSymbolTable
 70
     1
  0
APPID
  5
10
330
9
100
AcDbSymbolTableRecord
100
AcDbRegAppTableRecord
  2
ACAD
 70
     0
  0
ENDTAB
  0
TABLE
  2
DIMSTYLE
  5
A
330
0
100
AcDbSymbolTable
 70
     3
  0
DIMSTYLE
105
1D
330
A
100
AcDbSymbolTableRecord
100
AcDbDimStyleTableRecord
  2
STANDARD
 70
     0
  3

  4

  5
OPEN30
  6

  7

 40
1.0
 41
3.0
 42
0.8
 43
0.38
 44
0.8
 45
0.0
 46
0.0
 47
0.0
 48
0.0
140
3.0
141
0.0
142
0.0
143
25.4
144
1.0
145
0.0
146
1.0
147
0.5
 71
     0
 72
     0
 73
     0
 74
     0
 75
     0
 76
     0
 77
     3
 78
     8
170
     0
171
     2
172
     0
173
     0
174
     0
175
     0
176
     4
177
     4
178
   256
270
     2
271
     4
272
     4
273
     2
274
     2
340
8D7
275
     0
280
     0
281
     0
282
     0
283
     1
284
     0
285
     0
286
     0
287
     3
288
     0
  0
DIMSTYLE
105
152B
330
A
100
AcDbSymbolTableRecord
100
AcDbDimStyleTableRecord
  2
まこ
 70
     0
  3

  4

  5
OPEN30
  6

  7

 40
1.0
 41
1.5
 42
0.8
 43
9.0
 44
0.5
 45
0.0
 46
0.0
 47
0.0
 48
0.0
140
1.5
141
0.0
142
0.0
143
25.4
144
1.0
145
0.0
146
1.0
147
0.8
 71
     0
 72
     0
 73
     0
 74
     0
 75
     0
 76
     0
 77
     3
 78
     8
170
     0
171
     2
172
     1
173
     0
174
     0
175
     0
176
     4
177
     4
178
   256
270
     2
271
     6
272
     6
273
     2
274
     2
340
1529
275
     0
280
     0
281
     0
282
     0
283
     1
284
     0
285
     0
286
     0
287
     3
288
     0
  0
ENDTAB
  0
TABLE
  2
BLOCK_RECORD
  5
1
330
0
100
AcDbSymbolTable
 70
    15
  0
BLOCK_RECORD
  5
18
102
{ACAD_XDICTIONARY
360
1375F
102
}
330
1
100
AcDbSymbolTableRecord
100
AcDbBlockTableRecord
  2
*MODEL_SPACE
  0
BLOCK_RECORD
  5
15
102
{ACAD_XDICTIONARY
360
1375D
102
}
330
1
100
AcDbSymbolTableRecord
100
AcDbBlockTableRecord
  2
*PAPER_SPACE
  0
BLOCK_RECORD
  5
89E
330
1
100
AcDbSymbolTableRecord
100
AcDbBlockTableRecord
  2
_OPEN30
  0
ENDTAB
  0
ENDSEC
  0
SECTION
  2
BLOCKS
  0
BLOCK
  5
19
330
18
100
AcDbEntity
  8
0
100
AcDbBlockBegin
  2
*MODEL_SPACE
 70
     0
 10
0.0
 20
0.0
 30
0.0
  3
*MODEL_SPACE
  1

  0
ENDBLK
  5
1A
330
18
100
AcDbEntity
  8
0
100
AcDbBlockEnd
  0
BLOCK
  5
16
330
15
100
AcDbEntity
 67
     1
  8
0
100
AcDbBlockBegin
  2
*PAPER_SPACE
 70
     0
 10
0.0
 20
0.0
 30
0.0
  3
*PAPER_SPACE
  1

  0
ENDBLK
  5
17
330
15
100
AcDbEntity
 67
     1
  8
0
100
AcDbBlockEnd
  0
BLOCK
  5
8A2
330
89E
100
AcDbEntity
  8
0
100
AcDbBlockBegin
  2
_OPEN30
 70
     0
 10
0.0
 20
0.0
 30
0.0
  3
_OPEN30
  1

  0
LINE
  5
89F
330
89E
100
AcDbEntity
  8
0
  6
BYBLOCK
 62
     0
100
AcDbLine
 10
-1.0
 20
0.26794919
 30
0.0
 11
0.0
 21
0.0
 31
0.0
  0
LINE
  5
8A0
330
89E
100
AcDbEntity
  8
0
  6
BYBLOCK
 62
     0
100
AcDbLine
 10
0.0
 20
0.0
 30
0.0
 11
-1.0
 21
-0.26794919
 31
0.0
  0
LINE
  5
8A1
330
89E
100
AcDbEntity
  8
0
  6
BYBLOCK
 62
     0
100
AcDbLine
 10
0.0
 20
0.0
 30
0.0
 11
-1.0
 21
0.0
 31
0.0
  0
ENDBLK
  5
8A3
330
89E
100
AcDbEntity
  8
0
100
AcDbBlockEnd
  0
ENDSEC
  0
SECTION
  2
ENTITIES
  0
MTEXT
  5
E5E2
330
18
100
AcDbEntity
  8
実線
 48
10.0
100
AcDbMText
 10
163.1784009551904
 20
-361.9146226558881
 30
0.0
 40
3.0
 41
0.0
 71
     9
 72
     1
  1

  7
まこ
1001
ACAD
1000
MTEXTBEGIN
1070
    73
1070
     1
1070
    44
1040
1.0
1070
    74
1070
     0
1000
MTEXTEND
  0
MTEXT
  5
E8EF
330
18
100
AcDbEntity
  8
文字
 48
10.0
100
AcDbMText
 10
312.0475895584313
 20
-320.8822905760681
 30
0.0
 40
2.0
 41
12.8899
 71
     9
 72
     1
  1

  7
まこ
1001
ACAD
1000
MTEXTBEGIN
1070
    73
1070
     1
1070
    44
1040
1.0
1070
    74
1070
     0
1000
MTEXTEND
  0
LINE
  5
12682
330
18
100
AcDbEntity
  8
実線
100
AcDbLine
 10
-54.39301768756536
 20
-417.1552311259753
 30
0.0
 11
-170.3930176875649
 21
-417.1552311259753
 31
0.0
  0
LINE
  5
12683
330
18
100
AcDbEntity
  8
実線
100
AcDbLine
 10
-170.3930176875653
 20
-499.1552311259753
 30
0.0
 11
-54.39301768756578
 21
-499.1552311259753
 31
0.0
  0
LINE
  5
12686
330
18
100
AcDbEntity
  8
実線
100
AcDbLine
 10
-172.3930176875651
 20
-497.1552311259753
 30
0.0
 11
-172.3930176875648
 21
-419.1552311259753
 31
0.0
  0
CIRCLE
  5
126DE
330
18
100
AcDbEntity
  8
実線
100
AcDbCircle
 10
-82.39301768756536
 20
-425.1552311259755
 30
0.0
 40
5.0
  0
CIRCLE
  5
126E0
330
18
100
AcDbEntity
  8
実線
100
AcDbCircle
 10
-142.3930176875653
 20
-425.1552311259755
 30
0.0
 40
5.0
  0
CIRCLE
  5
126FA
330
18
100
AcDbEntity
  8
実線
100
AcDbCircle
 10
-142.3930176875653
 20
-425.1552311259755
 30
0.0
 40
3.0
  0
CIRCLE
  5
126FC
330
18
100
AcDbEntity
  8
実線
100
AcDbCircle
 10
-82.39301768756536
 20
-425.1552311259755
 30
0.0
 40
3.0
  0
LINE
  5
126FD
330
18
100
AcDbEntity
  8
MG
100
AcDbLine
 10
-25.5254009405669
 20
-448.4552311259756
 30
0.0
 11
-25.5254009405678
 21
-498.8552311259751
 31
0.0
  0
LINE
  5
126FE
330
18
100
AcDbEntity
  8
MG
100
AcDbLine
 10
-33.42540094056744
 20
-448.4552311259756
 30
0.0
 11
-33.42540094056607
 21
-498.8552311259751
 31
0.0
  0
LINE
  5
126FF
330
18
100
AcDbEntity
  8
MG
100
AcDbLine
 10
-38.47540094056714
 20
-448.6552311259753
 30
0.0
 11
-38.47540094056714
 21
-498.6552311259753
 31
0.0
  0
LINE
  5
12700
330
18
100
AcDbEntity
  8
MG
100
AcDbLine
 10
-20.47540094056717
 20
-448.6552311259753
 30
0.0
 11
-20.47540094056717
 21
-498.6552311259753
 31
0.0
  0
LINE
  5
12702
330
18
100
AcDbEntity
  8
実線
100
AcDbLine
 10
-42.97540094056716
 20
-499.1552311259753
 30
0.0
 11
-42.97540094056716
 21
-417.1552311259753
 31
0.0
  0
LINE
  5
12703
330
18
100
AcDbEntity
  8
実線
100
AcDbLine
 10
-38.47540094056714
 20
-499.1552311259753
 30
0.0
 11
-38.47540094056761
 21
-443.5552311259753
 31
0.0
  0
LINE
  5
12704
330
18
100
AcDbEntity
  8
実線
100
AcDbLine
 10
-15.97540094056717
 20
-499.1552311259753
 30
0.0
 11
-15.97540094056717
 21
-417.1552311259753
 31
0.0
  0
LINE
  5
12705
330
18
100
AcDbEntity
  8
実線
100
AcDbLine
 10
-20.47540094056717
 20
-499.1552311259753
 30
0.0
 11
-20.47540094056717
 21
-443.5552311259753
 31
0.0
  0
LINE
  5
12707
330
18
100
AcDbEntity
  8
中心線
100
AcDbLine
 10
-29.47540094056717
 20
-429.9439978990287
 30
0.0
 11
-29.47540094056717
 21
-531.3923854655606
 31
0.0
  0
LINE
  5
12708
330
18
100
AcDbEntity
  8
２点鎖線
 48
5.0
100
AcDbLine
 10
-32.62540094056726
 20
-433.6552311259753
 30
0.0
 11
-32.62540094056726
 21
-499.1552311259753
 31
0.0
  0
LINE
  5
12709
330
18
100
AcDbEntity
  8
２点鎖線
 48
5.0
100
AcDbLine
 10
-26.32540094056706
 20
-433.6552311259753
 30
0.0
 11
-26.32540094056706
 21
-499.155231125975
 31
0.0
  0
LINE
  5
1270A
330
18
100
AcDbEntity
  8
実線
100
AcDbLine
 10
-52.39301768756579
 20
-497.1552311259753
 30
0.0
 11
-52.39301768756535
 21
-419.1552311259753
 31
0.0
  0
LINE
  5
1270B
330
18
100
AcDbEntity
  8
中心線
 48
0.2
100
AcDbLine
 10
-37.97540094056626
 20
-500.8552311259753
 30
0.0
 11
-37.97540094056626
 21
-516.4365546718766
 31
0.0
  0
LINE
  5
1270D
330
18
100
AcDbEntity
  8
２点鎖線
 48
5.0
100
AcDbLine
 10
-33.52540094056687
 20
-501.1552311259753
 30
0.0
 11
-33.52540094056687
 21
-519.6552311259753
 31
0.0
  0
LINE
  5
1270E
330
18
100
AcDbEntity
  8
２点鎖線
 48
5.0
100
AcDbLine
 10
-25.42540094056744
 20
-501.1552311259753
 30
0.0
 11
-25.42540094056744
 21
-519.6552311259753
 31
0.0
  0
LINE
  5
1270F
330
18
100
AcDbEntity
  8
２点鎖線
 48
5.0
100
AcDbLine
 10
-41.97540094056718
 20
-501.1552311259753
 30
0.0
 11
-41.97540094056718
 21
-526.1552311259753
 31
0.0
  0
LINE
  5
12710
330
18
100
AcDbEntity
  8
２点鎖線
 48
5.0
100
AcDbLine
 10
-16.97540094056717
 20
-501.1552311259753
 30
0.0
 11
-16.97540094056717
 21
-526.1552311259753
 31
0.0
  0
LINE
  5
12711
330
18
100
AcDbEntity
  8
２点鎖線
 48
5.0
100
AcDbLine
 10
-24.72540094056717
 20
-520.1552311259753
 30
0.0
 11
-23.80164050986353
 21
-521.7552311259753
 31
0.0
  0
LINE
  5
12712
330
18
100
AcDbEntity
  8
２点鎖線
 48
5.0
100
AcDbLine
 10
-24.72540094056717
 20
-520.1552311259753
 30
0.0
 11
-23.80164050986353
 21
-518.5552311259753
 31
0.0
  0
LINE
  5
12713
330
18
100
AcDbEntity
  8
中心線
100
AcDbLine
 10
-14.97540094056716
 20
-520.1552311259752
 30
0.0
 11
-43.9754009405676
 21
-520.1552311259753
 31
0.0
  0
LINE
  5
12714
330
18
100
AcDbEntity
  8
２点鎖線
 48
5.0
100
AcDbLine
 10
-16.97540094056717
 20
-526.1552311259753
 30
0.0
 11
-41.97540094056718
 21
-526.1552311259753
 31
0.0
  0
CIRCLE
  5
12715
330
18
100
AcDbEntity
  8
２点鎖線
 48
5.0
100
AcDbCircle
 10
-37.97540094056626
 20
-514.6552311259751
 30
0.0
 40
1.0
  0
CIRCLE
  5
12716
330
18
100
AcDbEntity
  8
２点鎖線
 48
5.0
100
AcDbCircle
 10
-37.97540094056626
 20
-514.6552311259751
 30
0.0
 40
1.5
  0
LINE
  5
12717
330
18
100
AcDbEntity
  8
中心線
 48
0.2
100
AcDbLine
 10
-40.49005536287562
 20
-514.6552311259751
 30
0.0
 11
-35.43327532796114
 21
-514.6552311259751
 31
0.0
  0
LINE
  5
12718
330
18
100
AcDbEntity
  8
２点鎖線
 48
5.0
100
AcDbLine
 10
-25.42540094056744
 20
-519.6552311259753
 30
0.0
 11
-33.52540094056687
 21
-519.6552311259753
 31
0.0
  0
LINE
  5
12719
330
18
100
AcDbEntity
  8
２点鎖線
 48
5.0
100
AcDbLine
 10
-35.97540094056717
 20
-522.1552311259753
 30
0.0
 11
-41.97540094056718
 21
-522.1552311259753
 31
0.0
  0
LINE
  5
1271A
330
18
100
AcDbEntity
  8
２点鎖線
 48
5.0
100
AcDbLine
 10
-35.14916137127079
 20
-521.7552311259753
 30
0.0
 11
-41.97540094056718
 21
-521.7552311259753
 31
0.0
  0
LINE
  5
1271B
330
18
100
AcDbEntity
  8
２点鎖線
 48
5.0
100
AcDbLine
 10
-35.97540094056717
 20
-518.1552311259753
 30
0.0
 11
-41.97540094056718
 21
-518.1552311259753
 31
0.0
  0
LINE
  5
1271C
330
18
100
AcDbEntity
  8
２点鎖線
 48
5.0
100
AcDbLine
 10
-35.14916137127079
 20
-518.5552311259753
 30
0.0
 11
-41.97540094056718
 21
-518.5552311259753
 31
0.0
  0
LINE
  5
1271D
330
18
100
AcDbEntity
  8
２点鎖線
 48
5.0
100
AcDbLine
 10
-34.22540094056717
 20
-520.1552311259753
 30
0.0
 11
-35.14916137127034
 21
-521.7552311259753
 31
0.0
  0
LINE
  5
1271E
330
18
100
AcDbEntity
  8
２点鎖線
 48
5.0
100
AcDbLine
 10
-35.97540094056717
 20
-518.1552311259753
 30
0.0
 11
-35.97540094056717
 21
-522.1552311259753
 31
0.0
  0
LINE
  5
1271F
330
18
100
AcDbEntity
  8
２点鎖線
 48
5.0
100
AcDbLine
 10
-34.22540094056717
 20
-520.1552311259753
 30
0.0
 11
-35.14916137127079
 21
-518.5552311259753
 31
0.0
  0
LINE
  5
12720
330
18
100
AcDbEntity
  8
２点鎖線
 48
5.0
100
AcDbLine
 10
-35.14916137127079
 20
-518.5552311259753
 30
0.0
 11
-35.14916137127079
 21
-521.7552311259753
 31
0.0
  0
LINE
  5
12721
330
18
100
AcDbEntity
  8
２点鎖線
 48
5.0
100
AcDbLine
 10
-22.97540094056717
 20
-518.1552311259753
 30
0.0
 11
-22.97540094056717
 21
-522.1552311259753
 31
0.0
  0
LINE
  5
12722
330
18
100
AcDbEntity
  8
２点鎖線
 48
5.0
100
AcDbLine
 10
-23.80164050986353
 20
-521.7552311259753
 30
0.0
 11
-23.80164050986353
 21
-518.5552311259753
 31
0.0
  0
LINE
  5
12723
330
18
100
AcDbEntity
  8
２点鎖線
 48
5.0
100
AcDbLine
 10
-16.97540094056717
 20
-521.7552311259753
 30
0.0
 11
-23.80164050986353
 21
-521.7552311259753
 31
0.0
  0
LINE
  5
12724
330
18
100
AcDbEntity
  8
２点鎖線
 48
5.0
100
AcDbLine
 10
-16.97540094056717
 20
-522.1552311259752
 30
0.0
 11
-22.97540094056717
 21
-522.1552311259753
 31
0.0
  0
LINE
  5
12725
330
18
100
AcDbEntity
  8
２点鎖線
 48
5.0
100
AcDbLine
 10
-16.97540094056717
 20
-518.5552311259753
 30
0.0
 11
-23.80164050986353
 21
-518.5552311259753
 31
0.0
  0
LINE
  5
12726
330
18
100
AcDbEntity
  8
２点鎖線
 48
5.0
100
AcDbLine
 10
-16.97540094056717
 20
-518.1552311259753
 30
0.0
 11
-22.97540094056717
 21
-518.1552311259753
 31
0.0
  0
LINE
  5
12728
330
18
100
AcDbEntity
  8
MG
100
AcDbLine
 10
-25.5254009405678
 20
-498.8552311259751
 30
0.0
 11
-20.47540094056717
 21
-498.8552311259751
 31
0.0
  0
LINE
  5
12729
330
18
100
AcDbEntity
  8
２点鎖線
 48
5.0
100
AcDbLine
 10
-16.97540094056717
 20
-501.1552311259753
 30
0.0
 11
-25.42540094056744
 21
-501.1552311259753
 31
0.0
  0
CIRCLE
  5
1272A
330
18
100
AcDbEntity
  8
２点鎖線
 48
5.0
100
AcDbCircle
 10
-37.97540094056626
 20
-504.6552311259753
 30
0.0
 40
1.0
  0
LINE
  5
1272B
330
18
100
AcDbEntity
  8
中心線
 48
0.2
100
AcDbLine
 10
-40.49005536287562
 20
-504.6552311259753
 30
0.0
 11
-35.43327532796114
 21
-504.6552311259753
 31
0.0
  0
CIRCLE
  5
1272C
330
18
100
AcDbEntity
  8
２点鎖線
 48
5.0
100
AcDbCircle
 10
-37.97540094056626
 20
-504.6552311259753
 30
0.0
 40
1.5
  0
LINE
  5
1272D
330
18
100
AcDbEntity
  8
２点鎖線
 48
5.0
100
AcDbLine
 10
-34.62540094056726
 20
-501.1552311259753
 30
0.0
 11
-32.62540094056726
 21
-499.155231125975
 31
0.0
  0
LINE
  5
1272E
330
18
100
AcDbEntity
  8
２点鎖線
 48
5.0
100
AcDbLine
 10
-24.32540094056708
 20
-501.1552311259753
 30
0.0
 11
-26.32540094056706
 21
-499.155231125975
 31
0.0
  0
LINE
  5
1272F
330
18
100
AcDbEntity
  8
２点鎖線
 48
5.0
100
AcDbLine
 10
-33.52540094056687
 20
-501.1552311259753
 30
0.0
 11
-41.97540094056718
 21
-501.1552311259753
 31
0.0
  0
LINE
  5
12730
330
18
100
AcDbEntity
  8
実線
100
AcDbLine
 10
-42.97540094056716
 20
-499.1552311259753
 30
0.0
 11
-38.47540094056714
 21
-499.1552311259753
 31
0.0
  0
LINE
  5
12731
330
18
100
AcDbEntity
  8
MG
100
AcDbLine
 10
-33.42540094056607
 20
-498.8552311259751
 30
0.0
 11
-38.47540094056714
 21
-498.8552311259751
 31
0.0
  0
LINE
  5
12732
330
18
100
AcDbEntity
  8
実線
100
AcDbLine
 10
-15.97540094056717
 20
-499.1552311259753
 30
0.0
 11
-20.47540094056717
 21
-499.1552311259755
 31
0.0
  0
LINE
  5
12733
330
18
100
AcDbEntity
  8
破線
 48
10.0
100
AcDbLine
 10
-20.47540094056671
 20
-430.1552311259756
 30
0.0
 11
-20.47540094056671
 21
-420.1552311259757
 31
0.0
  0
LINE
  5
12734
330
18
100
AcDbEntity
  8
破線
 48
10.0
100
AcDbLine
 10
-38.47540094056714
 20
-430.1552311259757
 30
0.0
 11
-38.47540094056714
 21
-420.1552311259757
 31
0.0
  0
LINE
  5
12737
330
18
100
AcDbEntity
  8
実線
100
AcDbLine
 10
-20.47540094056807
 20
-443.5552311259753
 30
0.0
 11
-25.37540094056726
 21
-443.5552311259753
 31
0.0
  0
LINE
  5
12738
330
18
100
AcDbEntity
  8
MG
100
AcDbLine
 10
-25.5254009405669
 20
-448.4552311259756
 30
0.0
 11
-20.47540094056717
 21
-448.4552311259756
 31
0.0
  0
LINE
  5
12739
330
18
100
AcDbEntity
  8
破線
 48
10.0
100
AcDbLine
 10
-38.47540094056714
 20
-430.1552311259756
 30
0.0
 11
-42.97540094056671
 21
-430.1552311259756
 31
0.0
  0
LINE
  5
1273A
330
18
100
AcDbEntity
  8
実線
100
AcDbLine
 10
-33.57540094056707
 20
-431.5552311259755
 30
0.0
 11
-33.57540094056662
 21
-443.5552311259756
 31
0.0
  0
LINE
  5
1273B
330
18
100
AcDbEntity
  8
実線
100
AcDbLine
 10
-25.37540094056726
 20
-431.5552311259753
 30
0.0
 11
-25.37540094056726
 21
-443.5552311259753
 31
0.0
  0
LINE
  5
1273C
330
18
100
AcDbEntity
  8
２点鎖線
 48
5.0
100
AcDbLine
 10
-26.32540094056662
 20
-433.6552311259753
 30
0.0
 11
-32.6254009405668
 21
-433.6552311259753
 31
0.0
  0
LINE
  5
1273D
330
18
100
AcDbEntity
  8
実線
100
AcDbLine
 10
-33.57540094056662
 20
-443.5552311259756
 30
0.0
 11
-38.47540094056761
 21
-443.5552311259753
 31
0.0
  0
LINE
  5
1273E
330
18
100
AcDbEntity
  8
実線
100
AcDbLine
 10
-25.37540094056726
 20
-431.5552311259753
 30
0.0
 11
-33.57540094056707
 21
-431.5552311259755
 31
0.0
  0
LINE
  5
1273F
330
18
100
AcDbEntity
  8
MG
100
AcDbLine
 10
-33.42540094056744
 20
-448.4552311259756
 30
0.0
 11
-38.47540094056714
 21
-448.4552311259756
 31
0.0
  0
LINE
  5
12740
330
18
100
AcDbEntity
  8
破線
 48
10.0
100
AcDbLine
 10
-15.97540094056717
 20
-430.1552311259753
 30
0.0
 11
-20.47540094056717
 21
-430.1552311259756
 31
0.0
  0
LINE
  5
12741
330
18
100
AcDbEntity
  8
実線
100
AcDbLine
 10
-20.47540094056717
 20
-417.5552311259753
 30
0.0
 11
-38.47540094056808
 21
-417.5552311259753
 31
0.0
  0
LINE
  5
12742
330
18
100
AcDbEntity
  8
破線
 48
10.0
100
AcDbLine
 10
-20.47540094056671
 20
-422.1552311259757
 30
0.0
 11
-38.47540094056761
 21
-422.1552311259757
 31
0.0
  0
LINE
  5
12743
330
18
100
AcDbEntity
  8
破線
 48
10.0
100
AcDbLine
 10
-20.47540094056671
 20
-428.1552311259757
 30
0.0
 11
-38.47540094056761
 21
-428.1552311259757
 31
0.0
  0
LINE
  5
12744
330
18
100
AcDbEntity
  8
中心線
100
AcDbLine
 10
-13.97540094056671
 20
-425.1552311259755
 30
0.0
 11
-44.97540094056716
 21
-425.1552311259756
 31
0.0
  0
LINE
  5
12745
330
18
100
AcDbEntity
  8
実線
100
AcDbLine
 10
-38.47540094056761
 20
-417.1552311259753
 30
0.0
 11
-38.47540094056808
 21
-417.5552311259753
 31
0.0
  0
LINE
  5
12746
330
18
100
AcDbEntity
  8
実線
100
AcDbLine
 10
-38.47540094056761
 20
-417.1552311259753
 30
0.0
 11
-42.97540094056716
 21
-417.1552311259753
 31
0.0
  0
LINE
  5
12747
330
18
100
AcDbEntity
  8
破線
 48
10.0
100
AcDbLine
 10
-38.47540094056714
 20
-420.1552311259757
 30
0.0
 11
-42.97540094056671
 21
-420.1552311259757
 31
0.0
  0
LINE
  5
12748
330
18
100
AcDbEntity
  8
実線
100
AcDbLine
 10
-20.47540094056717
 20
-417.1552311259753
 30
0.0
 11
-20.47540094056717
 21
-417.5552311259753
 31
0.0
  0
LINE
  5
12749
330
18
100
AcDbEntity
  8
実線
100
AcDbLine
 10
-15.97540094056717
 20
-417.1552311259753
 30
0.0
 11
-20.47540094056717
 21
-417.1552311259753
 31
0.0
  0
LINE
  5
1274A
330
18
100
AcDbEntity
  8
破線
 48
10.0
100
AcDbLine
 10
-15.97540094056717
 20
-420.1552311259757
 30
0.0
 11
-20.47540094056717
 21
-420.1552311259757
 31
0.0
  0
ARC
  5
12B96
330
18
100
AcDbEntity
  8
実線
100
AcDbCircle
 10
-54.39301768756536
 20
-419.1552311259753
 30
0.0
 40
2.0
100
AcDbArc
 50
359.9999999999997
 51
90.0
  0
ARC
  5
12B97
330
18
100
AcDbEntity
  8
実線
100
AcDbCircle
 10
-170.3930176875649
 20
-419.1552311259753
 30
0.0
 40
2.0
100
AcDbArc
 50
90.0
 51
179.9999999999995
  0
ARC
  5
12B98
330
18
100
AcDbEntity
  8
実線
100
AcDbCircle
 10
-170.3930176875653
 20
-497.1552311259753
 30
0.0
 40
2.0
100
AcDbArc
 50
179.9999999999995
 51
270.0
  0
ARC
  5
12B99
330
18
100
AcDbEntity
  8
実線
100
AcDbCircle
 10
-54.39301768756578
 20
-497.1552311259753
 30
0.0
 40
2.0
100
AcDbArc
 50
270.0
 51
359.9999999999997
  0
LINE
  5
12BE9
102
{ACAD_REACTORS
330
12C00
102
}
330
18
100
AcDbEntity
  8
破線
 48
10.0
100
AcDbLine
 10
-170.8930176875653
 20
-443.5552311259753
 30
0.0
 11
-53.89301768756542
 21
-443.5552311259753
 31
0.0
  0
LINE
  5
12BEA
102
{ACAD_REACTORS
330
12C00
102
}
330
18
100
AcDbEntity
  8
破線
 48
10.0
100
AcDbLine
 10
-170.8930176875653
 20
-417.5552311259753
 30
0.0
 11
-53.89301768756535
 21
-417.5552311259753
 31
0.0
  0
LINE
  5
12BEB
102
{ACAD_REACTORS
330
12C00
102
}
330
18
100
AcDbEntity
  8
中心線
 48
5.0
100
AcDbLine
 10
-51.89301768756543
 20
-425.1552311259755
 30
0.0
 11
-172.8930176875654
 21
-425.1552311259755
 31
0.0
  0
LINE
  5
12BEC
102
{ACAD_REACTORS
330
12C00
102
}
330
18
100
AcDbEntity
  8
破線
 48
10.0
100
AcDbLine
 10
-171.8930176875653
 20
-442.5552311259753
 30
0.0
 11
-171.8930176875653
 21
-418.5552311259753
 31
0.0
  0
LINE
  5
12BED
102
{ACAD_REACTORS
330
12C00
102
}
330
18
100
AcDbEntity
  8
破線
 48
10.0
100
AcDbLine
 10
-171.8930176875653
 20
-442.5552311259753
 30
0.0
 11
-170.8930176875653
 21
-443.5552311259753
 31
0.0
  0
LINE
  5
12BEE
102
{ACAD_REACTORS
330
12C00
102
}
330
18
100
AcDbEntity
  8
破線
 48
10.0
100
AcDbLine
 10
-170.8930176875653
 20
-417.5552311259753
 30
0.0
 11
-171.8930176875653
 21
-418.5552311259753
 31
0.0
  0
LINE
  5
12BEF
102
{ACAD_REACTORS
330
12C00
102
}
330
18
100
AcDbEntity
  8
中心線
 48
3.0
100
AcDbLine
 10
-162.3930176875653
 20
-421.1815051679267
 30
0.0
 11
-162.3930176875653
 21
-429.1289570840241
 31
0.0
  0
LINE
  5
12BF3
102
{ACAD_REACTORS
330
12C00
102
}
330
18
100
AcDbEntity
  8
中心線
 48
3.0
100
AcDbLine
 10
-142.3930176875653
 20
-421.1815051679267
 30
0.0
 11
-142.3930176875653
 21
-429.1289570840241
 31
0.0
  0
LINE
  5
12BF6
102
{ACAD_REACTORS
330
12C00
102
}
330
18
100
AcDbEntity
  8
中心線
 48
3.0
100
AcDbLine
 10
-112.3930176875651
 20
-421.1815051679267
 30
0.0
 11
-112.3930176875651
 21
-429.1289570840241
 31
0.0
  0
LINE
  5
12BF8
102
{ACAD_REACTORS
330
12C00
102
}
330
18
100
AcDbEntity
  8
中心線
 48
3.0
100
AcDbLine
 10
-82.39301768756536
 20
-421.1815051679267
 30
0.0
 11
-82.39301768756536
 21
-429.1289570840241
 31
0.0
  0
LINE
  5
12BFB
102
{ACAD_REACTORS
330
12C00
102
}
330
18
100
AcDbEntity
  8
中心線
 48
3.0
100
AcDbLine
 10
-62.39301768756535
 20
-421.1815051679267
 30
0.0
 11
-62.39301768756535
 21
-429.1289570840241
 31
0.0
  0
LINE
  5
12BFC
102
{ACAD_REACTORS
330
12C00
102
}
330
18
100
AcDbEntity
  8
破線
 48
10.0
100
AcDbLine
 10
-52.89301768756542
 20
-442.5552311259753
 30
0.0
 11
-52.89301768756535
 21
-418.5552311259753
 31
0.0
  0
LINE
  5
12BFD
102
{ACAD_REACTORS
330
12C00
102
}
330
18
100
AcDbEntity
  8
破線
 48
10.0
100
AcDbLine
 10
-52.89301768756542
 20
-442.5552311259753
 30
0.0
 11
-53.89301768756542
 21
-443.5552311259753
 31
0.0
  0
LINE
  5
12BFE
102
{ACAD_REACTORS
330
12C00
102
}
330
18
100
AcDbEntity
  8
破線
 48
10.0
100
AcDbLine
 10
-53.89301768756535
 20
-417.5552311259753
 30
0.0
 11
-52.89301768756535
 21
-418.5552311259753
 31
0.0
  0
CIRCLE
  5
12F49
330
18
100
AcDbEntity
  8
実線
 48
10.0
100
AcDbCircle
 10
-162.3930176875654
 20
-425.1552311259755
 30
0.0
 40
5.5
  0
CIRCLE
  5
12F4A
330
18
100
AcDbEntity
  8
実線
 48
10.0
100
AcDbCircle
 10
-112.3930176875652
 20
-425.1552311259755
 30
0.0
 40
5.5
  0
CIRCLE
  5
12F4B
330
18
100
AcDbEntity
  8
実線
 48
10.0
100
AcDbCircle
 10
-62.39301768756543
 20
-425.1552311259755
 30
0.0
 40
5.5
  0
CIRCLE
  5
12F4C
102
{ACAD_REACTORS
330
12F53
102
}
330
18
100
AcDbEntity
  8
実線
100
AcDbCircle
 10
-162.3930176875654
 20
-425.1552311259755
 30
0.0
 40
5.0
  0
LINE
  5
12F4D
102
{ACAD_REACTORS
330
12F53
102
}
330
18
100
AcDbEntity
  8
実線
100
AcDbLine
 10
-162.3930177144863
 20
-423.4231803259755
 30
0.0
 11
-163.8930176875653
 21
-424.2892057359752
 31
0.0
  0
LINE
  5
12F4E
102
{ACAD_REACTORS
330
12F53
102
}
330
18
100
AcDbEntity
  8
実線
100
AcDbLine
 10
-160.8930176875652
 20
-424.2892057359752
 30
0.0
 11
-162.3930176606369
 21
-423.4231803259755
 31
0.0
  0
LINE
  5
12F4F
102
{ACAD_REACTORS
330
12F53
102
}
330
18
100
AcDbEntity
  8
実線
100
AcDbLine
 10
-163.8930176875653
 20
-426.0212565159752
 30
0.0
 11
-162.3930177144863
 21
-426.8872819259756
 31
0.0
  0
LINE
  5
12F50
102
{ACAD_REACTORS
330
12F53
102
}
330
18
100
AcDbEntity
  8
実線
100
AcDbLine
 10
-163.8930176875653
 20
-424.2892057359752
 30
0.0
 11
-163.8930176875653
 21
-426.0212565159752
 31
0.0
  0
LINE
  5
12F51
102
{ACAD_REACTORS
330
12F53
102
}
330
18
100
AcDbEntity
  8
実線
100
AcDbLine
 10
-160.8930176875652
 20
-426.0212565159752
 30
0.0
 11
-160.8930176875652
 21
-424.2892057359752
 31
0.0
  0
LINE
  5
12F52
102
{ACAD_REACTORS
330
12F53
102
}
330
18
100
AcDbEntity
  8
実線
100
AcDbLine
 10
-162.3930176606369
 20
-426.8872819259756
 30
0.0
 11
-160.8930176875652
 21
-426.0212565159752
 31
0.0
  0
LINE
  5
12F54
102
{ACAD_REACTORS
330
12F5B
102
}
330
18
100
AcDbEntity
  8
実線
100
AcDbLine
 10
-112.393017660637
 20
-426.8872819259756
 30
0.0
 11
-110.8930176875654
 21
-426.0212565159752
 31
0.0
  0
CIRCLE
  5
12F55
102
{ACAD_REACTORS
330
12F5B
102
}
330
18
100
AcDbEntity
  8
実線
100
AcDbCircle
 10
-112.3930176875652
 20
-425.1552311259755
 30
0.0
 40
5.0
  0
LINE
  5
12F56
102
{ACAD_REACTORS
330
12F5B
102
}
330
18
100
AcDbEntity
  8
実線
100
AcDbLine
 10
-112.3930177144862
 20
-423.4231803259755
 30
0.0
 11
-113.8930176875654
 21
-424.2892057359752
 31
0.0
  0
LINE
  5
12F57
102
{ACAD_REACTORS
330
12F5B
102
}
330
18
100
AcDbEntity
  8
実線
100
AcDbLine
 10
-110.8930176875654
 20
-424.2892057359752
 30
0.0
 11
-112.393017660637
 21
-423.4231803259755
 31
0.0
  0
LINE
  5
12F58
102
{ACAD_REACTORS
330
12F5B
102
}
330
18
100
AcDbEntity
  8
実線
100
AcDbLine
 10
-113.8930176875654
 20
-426.0212565159752
 30
0.0
 11
-112.3930177144862
 21
-426.8872819259756
 31
0.0
  0
LINE
  5
12F59
102
{ACAD_REACTORS
330
12F5B
102
}
330
18
100
AcDbEntity
  8
実線
100
AcDbLine
 10
-113.8930176875654
 20
-424.2892057359752
 30
0.0
 11
-113.8930176875654
 21
-426.0212565159752
 31
0.0
  0
LINE
  5
12F5A
102
{ACAD_REACTORS
330
12F5B
102
}
330
18
100
AcDbEntity
  8
実線
100
AcDbLine
 10
-110.8930176875654
 20
-426.0212565159752
 30
0.0
 11
-110.8930176875654
 21
-424.2892057359752
 31
0.0
  0
LINE
  5
12F5C
102
{ACAD_REACTORS
330
12F63
102
}
330
18
100
AcDbEntity
  8
実線
100
AcDbLine
 10
-60.8930176875654
 20
-426.0212565159752
 30
0.0
 11
-60.8930176875654
 21
-424.2892057359752
 31
0.0
  0
CIRCLE
  5
12F5D
102
{ACAD_REACTORS
330
12F63
102
}
330
18
100
AcDbEntity
  8
実線
100
AcDbCircle
 10
-62.39301768756543
 20
-425.1552311259755
 30
0.0
 40
5.0
  0
LINE
  5
12F5E
102
{ACAD_REACTORS
330
12F63
102
}
330
18
100
AcDbEntity
  8
実線
100
AcDbLine
 10
-62.39301771448647
 20
-423.4231803259755
 30
0.0
 11
-63.89301768756542
 21
-424.2892057359752
 31
0.0
  0
LINE
  5
12F5F
102
{ACAD_REACTORS
330
12F63
102
}
330
18
100
AcDbEntity
  8
実線
100
AcDbLine
 10
-60.8930176875654
 20
-424.2892057359752
 30
0.0
 11
-62.3930176606371
 21
-423.4231803259755
 31
0.0
  0
LINE
  5
12F60
102
{ACAD_REACTORS
330
12F63
102
}
330
18
100
AcDbEntity
  8
実線
100
AcDbLine
 10
-63.89301768756542
 20
-426.0212565159752
 30
0.0
 11
-62.39301771448647
 21
-426.8872819259756
 31
0.0
  0
LINE
  5
12F61
102
{ACAD_REACTORS
330
12F63
102
}
330
18
100
AcDbEntity
  8
実線
100
AcDbLine
 10
-63.89301768756542
 20
-424.2892057359752
 30
0.0
 11
-63.89301768756542
 21
-426.0212565159752
 31
0.0
  0
LINE
  5
12F62
102
{ACAD_REACTORS
330
12F63
102
}
330
18
100
AcDbEntity
  8
実線
100
AcDbLine
 10
-62.3930176606371
 20
-426.8872819259756
 30
0.0
 11
-60.8930176875654
 21
-426.0212565159752
 31
0.0
  0
LINE
  5
13343
330
18
100
AcDbEntity
  8
0
100
AcDbLine
 10
-167.393017687565
 20
-441.1552311259753
 30
0.0
 11
-152.3930176875649
 21
-441.1552311259753
 31
0.0
  0
LINE
  5
13344
330
18
100
AcDbEntity
  8
0
100
AcDbLine
 10
-166.8930176875648
 20
-447.1552311259753
 30
0.0
 11
-152.893017687565
 21
-447.1552311259759
 31
0.0
  0
LINE
  5
13345
330
18
100
AcDbEntity
  8
0
100
AcDbLine
 10
-152.893017687565
 20
-437.1552311259756
 30
0.0
 11
-166.8930176875648
 21
-437.1552311259756
 31
0.0
  0
ARC
  5
1334B
330
18
100
AcDbEntity
  8
0
100
AcDbCircle
 10
-166.8930176875648
 20
-437.6552311259756
 30
0.0
 40
0.5
100
AcDbArc
 50
90.0
 51
180.0
  0
ARC
  5
1334C
330
18
100
AcDbEntity
  8
0
100
AcDbCircle
 10
-166.8930176875648
 20
-446.6552311259753
 30
0.0
 40
0.5
100
AcDbArc
 50
180.0
 51
270.0
  0
LINE
  5
1334E
330
18
100
AcDbEntity
  8
0
100
AcDbLine
 10
-167.393017687565
 20
-437.6552311259756
 30
0.0
 11
-167.393017687565
 21
-446.6552311259753
 31
0.0
  0
ARC
  5
13353
330
18
100
AcDbEntity
  8
0
100
AcDbCircle
 10
-152.893017687565
 20
-437.6552311259756
 30
0.0
 40
0.5
100
AcDbArc
 50
0.0
 51
90.0
  0
ARC
  5
13354
330
18
100
AcDbEntity
  8
0
100
AcDbCircle
 10
-152.893017687565
 20
-446.6552311259759
 30
0.0
 40
0.5
100
AcDbArc
 50
270.0
 51
0.0
  0
LINE
  5
13355
330
18
100
AcDbEntity
  8
0
100
AcDbLine
 10
-152.3930176875649
 20
-446.6552311259759
 30
0.0
 11
-152.3930176875649
 21
-437.6552311259756
 31
0.0
  0
LINE
  5
1336D
102
{ACAD_REACTORS
330
13387
102
}
330
18
100
AcDbEntity
  8
0
100
AcDbLine
 10
-106.893017687565
 20
-447.6552311259752
 30
0.0
 11
-106.893017687565
 21
-436.6552311259753
 31
0.0
  0
LINE
  5
13371
102
{ACAD_REACTORS
330
13387
102
}
330
18
100
AcDbEntity
  8
0
100
AcDbLine
 10
-141.8930176875648
 20
-436.6552311259753
 30
0.0
 11
-141.8930176875648
 21
-447.6552311259752
 31
0.0
  0
LINE
  5
13374
102
{ACAD_REACTORS
330
13387
102
}
330
18
100
AcDbEntity
  8
0
100
AcDbLine
 10
-141.3930176875649
 20
-448.1552311259753
 30
0.0
 11
-107.393017687565
 21
-448.1552311259753
 31
0.0
  0
ARC
  5
13375
102
{ACAD_REACTORS
330
13387
102
}
330
18
100
AcDbEntity
  8
0
100
AcDbCircle
 10
-141.3930176875649
 20
-447.6552311259752
 30
0.0
 40
0.5
100
AcDbArc
 50
180.0
 51
270.0
  0
ARC
  5
1337B
102
{ACAD_REACTORS
330
13387
102
}
330
18
100
AcDbEntity
  8
0
100
AcDbCircle
 10
-107.393017687565
 20
-447.6552311259752
 30
0.0
 40
0.5
100
AcDbArc
 50
270.0
 51
0.0
  0
LINE
  5
1337E
102
{ACAD_REACTORS
330
13387
102
}
330
18
100
AcDbEntity
  8
0
100
AcDbLine
 10
-107.393017687565
 20
-436.1552311259753
 30
0.0
 11
-141.3930176875649
 21
-436.1552311259753
 31
0.0
  0
LINE
  5
1337F
102
{ACAD_REACTORS
330
13387
102
}
330
18
100
AcDbEntity
  8
0
100
AcDbLine
 10
-141.8930176875648
 20
-443.1552311259753
 30
0.0
 11
-106.893017687565
 21
-443.1552311259753
 31
0.0
  0
ARC
  5
13381
102
{ACAD_REACTORS
330
13387
102
}
330
18
100
AcDbEntity
  8
0
100
AcDbCircle
 10
-141.3930176875649
 20
-436.6552311259753
 30
0.0
 40
0.5
100
AcDbArc
 50
90.0
 51
180.0
  0
ARC
  5
13382
102
{ACAD_REACTORS
330
13387
102
}
330
18
100
AcDbEntity
  8
0
100
AcDbCircle
 10
-107.393017687565
 20
-436.6552311259753
 30
0.0
 40
0.5
100
AcDbArc
 50
0.0
 51
90.0
  0
CIRCLE
  5
1367E
330
18
100
AcDbEntity
  8
実線
 48
10.0
100
AcDbCircle
 10
-152.3930176875652
 20
-432.1552311259755
 30
0.0
 40
2.5
  0
LINE
  5
1367F
330
18
100
AcDbEntity
  8
中心線
 48
4.0
100
AcDbLine
 10
-147.8930176875653
 20
-432.1552311259755
 30
0.0
 11
-156.8930176875653
 21
-432.1552311259755
 31
0.0
  0
LINE
  5
13680
330
18
100
AcDbEntity
  8
中心線
 48
4.0
100
AcDbLine
 10
-152.3930176875652
 20
-436.6552311259755
 30
0.0
 11
-152.3930176875652
 21
-427.6552311259755
 31
0.0
  0
CIRCLE
  5
13681
330
18
100
AcDbEntity
  8
実線
 48
10.0
100
AcDbCircle
 10
-72.39301768756544
 20
-432.1552311259755
 30
0.0
 40
2.5
  0
LINE
  5
13682
330
18
100
AcDbEntity
  8
中心線
 48
4.0
100
AcDbLine
 10
-67.89301768756543
 20
-432.1552311259755
 30
0.0
 11
-76.89301768756545
 21
-432.1552311259755
 31
0.0
  0
LINE
  5
13683
330
18
100
AcDbEntity
  8
中心線
 48
4.0
100
AcDbLine
 10
-72.39301768756544
 20
-436.6552311259755
 30
0.0
 11
-72.39301768756544
 21
-427.6552311259755
 31
0.0
  0
VIEWPORT
  5
23
330
15
100
AcDbEntity
 67
     1
  8
0
100
AcDbViewport
 10
199.9898357439679
 20
144.0016361185358
 30
0.0
 40
653.3404412610553
 41
299.0343451325003
 68
     1
 69
     1
1001
ACAD
1000
MVIEW
1002
{
1070
    16
1010
0.0
1020
0.0
1030
0.0
1010
0.0
1020
0.0
1030
1.0
1040
0.0
1040
299.0343451325003
1040
199.9898357439679
1040
144.0016361185358
1040
50.0
1040
0.0
1040
0.0
1070
     0
1070
   100
1070
     1
1070
     0
1070
     0
1070
     0
1070
     0
1070
     1
1040
0.0
1040
0.0
1040
0.0
1040
10.0
1040
10.0
1040
10.0
1040
10.0
1070
     0
1002
{
1002
}
1002
}
  0
VIEWPORT
  5
2E
330
15
100
AcDbEntity
 67
     1
  8
M_VIEW
100
AcDbViewport
 10
200.0
 20
144.0
 30
0.0
 40
400.0
 41
288.0
 68
     2
 69
     2
1001
ACAD
1000
MVIEW
1002
{
1070
    16
1010
0.0
1020
0.0
1030
0.0
1010
0.0
1020
0.0
1030
1.0
1040
0.0
1040
432.0
1040
-97.82832444671273
1040
-498.5908350798686
1040
50.0
1040
0.0
1040
0.0
1070
     0
1070
   100
1070
     1
1070
     0
1070
     0
1070
     0
1070
     0
1070
     0
1040
0.0
1040
0.0
1040
0.0
1040
1.0
1040
1.0
1040
10.0
1040
10.0
1070
     0
1002
{
1002
}
1002
}
  0
TEXT
  5
635
330
15
100
AcDbEntity
 67
     1
  8
文字改
  6
CONTINUOUS
100
AcDbText
 10
121.8666920704526
 20
15.78333333333638
 30
0.0
 40
3.5
  1
Ａ
 72
     1
 11
123.5000254037859
 21
15.78333333333638
 31
0.0
100
AcDbText
  0
TEXT
  5
638
330
15
100
AcDbEntity
 67
     1
  8
文字改
  6
CONTINUOUS
100
AcDbText
 10
145.8960540858611
 20
16.35134447262123
 30
0.0
 40
3.5
  1
＊＊＊＊＊
100
AcDbText
  0
TEXT
  5
639
330
15
100
AcDbEntity
 67
     1
  8
文字改
  6
CONTINUOUS
100
AcDbText
 10
120.8652350702617
 20
10.96666666666598
 30
0.0
 40
4.0
  1
Ｒ＊－
 41
0.625
100
AcDbText
  0
TEXT
  5
6DC
330
15
100
AcDbEntity
 67
     1
  8
文字改
  6
CONTINUOUS
100
AcDbText
 10
387.4022848534178
 20
5.981155417998706
 30
0.0
 40
7.0
  1
Ａ
 41
0.9529999999999999
100
AcDbText
  0
TEXT
  5
728
330
15
100
AcDbEntity
 67
     1
  8
文字改
  6
CONTINUOUS
100
AcDbText
 10
129.8652350702614
 20
15.96666666666598
 30
0.0
 40
4.0
  1
１～＊
 41
0.625
100
AcDbText
  0
TEXT
  5
2442
330
15
100
AcDbEntity
 67
     1
  8
文字
100
AcDbText
 10
324.1164138233838
 20
6.706161883767662
 30
0.0
 40
6.5
  1
ＳＥ－４７２６０
  7
まこ
100
AcDbText
  0
TEXT
  5
9F83
330
15
100
AcDbEntity
 67
     1
  8
文字改
100
AcDbText
 10
271.2999999999999
 20
20.5
 30
0.0
 40
6.0
  1
武田
 72
     1
 11
277.4999999999999
 21
23.5
 31
0.0
100
AcDbText
 73
     2
  0
TEXT
  5
9F84
330
15
100
AcDbEntity
 67
     1
  8
文字改
100
AcDbText
 10
251.1
 20
20.5
 30
0.0
 40
6.0
  1
寺嶋
 72
     1
 11
257.5
 21
23.5
 31
0.0
100
AcDbText
 73
     2
  0
TEXT
  5
9F85
330
15
100
AcDbEntity
 67
     1
  8
文字改
100
AcDbText
 10
231.0999999999999
 20
20.5
 30
0.0
 40
6.0
  1
寺嶋
 72
     1
 11
237.5
 21
23.5
 31
0.0
100
AcDbText
 73
     2
  0
TEXT
  5
9F86
330
15
100
AcDbEntity
 67
     1
  8
文字改
  6
CONTINUOUS
100
AcDbText
 10
228.7667857142857
 20
12.15
 30
0.0
 40
2.7
  1
'03.06.03
 41
0.95
  7
まこ
 72
     1
 11
237.5
 21
13.5
 31
0.0
100
AcDbText
 73
     2
  0
TEXT
  5
9F87
330
15
100
AcDbEntity
 67
     1
  8
文字改
  6
CONTINUOUS
100
AcDbText
 10
248.7667857142857
 20
12.15
 30
0.0
 40
2.7
  1
'03.06.03
 41
0.95
  7
まこ
 72
     1
 11
257.5
 21
13.5
 31
0.0
100
AcDbText
 73
     2
  0
TEXT
  5
9F88
330
15
100
AcDbEntity
 67
     1
  8
文字改
  6
CONTINUOUS
100
AcDbText
 10
268.7667857142856
 20
12.15
 30
0.0
 40
2.7
  1
'03.06.03
 41
0.95
  7
まこ
 72
     1
 11
277.4999999999999
 21
13.5
 31
0.0
100
AcDbText
 73
     2
  0
TEXT
  5
B6F4
330
15
100
AcDbEntity
 67
     1
  8
実線
100
AcDbText
 10
292.9247407785627
 20
50.22828969396096
 30
0.0
 40
2.5
  1
%%
100
AcDbText
  0
MTEXT
  5
1372F
330
15
100
AcDbEntity
 67
     1
  8
文字
 48
10.0
100
AcDbMText
 10
172.5943421652299
 20
24.09278981754766
 30
0.0
 40
6.0
 41
216.011773932223
 71
     1
 72
     5
  1
τﾘﾆｱﾓｰﾀ ｺｱﾚｽｽﾀﾝﾀﾞｰﾄﾞ NLD-AM MGﾍﾞｰｽ MBD-AM12SA (120mm)
1001
ACAD
1000
MTEXTBEGIN
1070
    73
1070
     1
1070
    44
1040
1.0
1070
    74
1070
     0
1000
MTEXTEND
  0
ENDSEC
  0
SECTION
  2
OBJECTS
  0
DICTIONARY
  5
C
330
0
100
AcDbDictionary
  3
ACAD_GROUP
350
D
  3
ACAD_LAYOUT
350
73F
  3
ACAD_MLINESTYLE
350
1B
  3
ACAD_PLOTSETTINGS
350
740
  3
ACAD_PLOTSTYLENAME
350
73D
  3
ACADDIM
350
ED50
  3
ACDBHEADERROUNDTRIPXREC
350
1373C
  3
ACDBVARIABLEDICTIONARY
350
11AC
  0
DICTIONARY
  5
11C1F
330
2
100
AcDbDictionary
280
     1
  3
ACAD_LAYERFILTERS
360
11C20
  3
ACAD_LAYERSTATES
360
11C38
  0
DICTIONARY
  5
1375F
330
18
100
AcDbDictionary
280
     1
  3
ACAD_LAYOUTSELFREF
360
13760
  0
DICTIONARY
  5
1375D
330
15
100
AcDbDictionary
280
     1
  3
ACAD_LAYOUTSELFREF
360
1375E
  0
DICTIONARY
  5
D
102
{ACAD_REACTORS
330
C
102
}
330
C
100
AcDbDictionary
  3
*A1
350
DCF
  3
*A10
350
4ABD
  3
*A100
350
4983
  3
*A101
350
BCEC
  3
*A102
350
A38B
  3
*A103
350
2A28
  3
*A104
350
339E
  3
*A105
350
A38F
  3
*A106
350
8226
  3
*A107
350
1119
  3
*A108
350
328C
  3
*A109
350
9650
  3
*A11
350
5DD4
  3
*A110
350
B34F
  3
*A111
350
121BF
  3
*A112
350
6062
  3
*A113
350
B349
  3
*A114
350
512B
  3
*A115
350
A3D1
  3
*A116
350
83B2
  3
*A117
350
339B
  3
*A118
350
33B9
  3
*A119
350
2CA6
  3
*A12
350
65A8
  3
*A120
350
B34C
  3
*A121
350
1218C
  3
*A122
350
1107
  3
*A123
350
2FF1
  3
*A124
350
116A
  3
*A125
350
805E
  3
*A126
350
10A4
  3
*A127
350
57BF
  3
*A128
350
A3CD
  3
*A129
350
121C7
  3
*A13
350
A628
  3
*A130
350
A3EB
  3
*A131
350
10D1
  3
*A132
350
49C4
  3
*A133
350
4AAE
  3
*A134
350
7C2A
  3
*A135
350
A397
  3
*A136
350
2CA5
  3
*A137
350
115DE
  3
*A138
350
8189
  3
*A139
350
8222
  3
*A14
350
1146
  3
*A140
350
115D0
  3
*A141
350
5C9F
  3
*A142
350
A37B
  3
*A143
350
1110
  3
*A144
350
5D44
  3
*A145
350
A637
  3
*A146
350
A37F
  3
*A147
350
980D
  3
*A148
350
77D2
  3
*A149
350
8375
  3
*A15
350
33A2
  3
*A150
350
8805
  3
*A151
350
A3C5
  3
*A152
350
2FF6
  3
*A153
350
3305
  3
*A154
350
820D
  3
*A155
350
4AA4
  3
*A156
350
83B1
  3
*A157
350
11BF7
  3
*A158
350
12B9A
  3
*A159
350
4989
  3
*A16
350
4F1D
  3
*A160
350
7556
  3
*A161
350
12C00
  3
*A162
350
7AC6
  3
*A163
350
121C8
  3
*A164
350
5E3F
  3
*A165
350
12197
  3
*A166
350
11BE7
  3
*A167
350
8818
  3
*A168
350
881D
  3
*A169
350
9807
  3
*A17
350
5134
  3
*A170
350
4AB1
  3
*A171
350
A3C9
  3
*A172
350
821C
  3
*A173
350
5E5F
  3
*A174
350
3183
  3
*A175
350
4214
  3
*A176
350
8822
  3
*A177
350
B355
  3
*A178
350
8823
  3
*A179
350
A3C1
  3
*A18
350
2C9E
  3
*A180
350
A61E
  3
*A181
350
121CC
  3
*A182
350
1065
  3
*A183
350
8217
  3
*A184
350
5DEC
  3
*A185
350
E028
  3
*A186
350
121F4
  3
*A187
350
A3BD
  3
*A188
350
10BF
  3
*A189
350
3398
  3
*A19
350
1158
  3
*A190
350
F198
  3
*A191
350
112B
  3
*A192
350
6F77
  3
*A193
350
821D
  3
*A194
350
5133
  3
*A195
350
E70E
  3
*A196
350
5E1D
  3
*A197
350
7555
  3
*A198
350
5E6B
  3
*A199
350
5D38
  3
*A2
350
83DB
  3
*A20
350
4A96
  3
*A200
350
A393
  3
*A201
350
11D1D
  3
*A202
350
57BE
  3
*A203
350
8072
  3
*A204
350
49DE
  3
*A205
350
880E
  3
*A206
350
10EC
  3
*A207
350
806F
  3
*A208
350
880A
  3
*A209
350
57BD
  3
*A21
350
E719
  3
*A210
350
9656
  3
*A211
350
A9D2
  3
*A212
350
42D1
  3
*A213
350
A3EA
  3
*A214
350
498F
  3
*A215
350
8221
  3
*A216
350
5E55
  3
*A217
350
1080
  3
*A218
350
5E29
  3
*A219
350
106E
  3
*A22
350
11C13
  3
*A220
350
10B6
  3
*A221
350
605A
  3
*A222
350
49E4
  3
*A223
350
2FE8
  3
*A224
350
4986
  3
*A225
350
8804
  3
*A226
350
B343
  3
*A227
350
8814
  3
*A228
350
A3B5
  3
*A229
350
2FE9
  3
*A23
350
109B
  3
*A230
350
E711
  3
*A231
350
5DE0
  3
*A232
350
F193
  3
*A233
350
12F53
  3
*A234
350
49C1
  3
*A235
350
8065
  3
*A236
350
E70D
  3
*A237
350
6400
  3
*A238
350
A9A1
  3
*A239
350
7AE6
  3
*A24
350
2FE2
  3
*A240
350
49CA
  3
*A241
350
8809
  3
*A242
350
B307
  3
*A243
350
A99C
  3
*A244
350
3487
  3
*A245
350
64A5
  3
*A246
350
818C
  3
*A247
350
317D
  3
*A248
350
113D
  3
*A249
350
64A1
  3
*A25
350
B358
  3
*A250
350
7C28
  3
*A251
350
6F78
  3
*A252
350
49DB
  3
*A253
350
512A
  3
*A254
350
10AD
  3
*A255
350
8813
  3
*A256
350
5128
  3
*A257
350
33BA
  3
*A258
350
10FE
  3
*A259
350
12C01
  3
*A26
350
57BC
  3
*A260
350
1077
  3
*A261
350
A383
  3
*A262
350
A387
  3
*A263
350
49A1
  3
*A264
350
1092
  3
*A265
350
31CE
  3
*A266
350
1161
  3
*A267
350
317C
  3
*A268
350
12F5B
  3
*A269
350
42C0
  3
*A27
350
FEDE
  3
*A270
350
B346
  3
*A271
350
4A10
  3
*A272
350
13387
  3
*A273
350
1089
  3
*A274
350
8819
  3
*A275
350
4A97
  3
*A276
350
A635
  3
*A277
350
57BB
  3
*A278
350
8212
  3
*A279
350
5E68
  3
*A28
350
8062
  3
*A280
350
5E4A
  3
*A281
350
11BF0
  3
*A282
350
8227
  3
*A283
350
11C1C
  3
*A284
350
9808
  3
*A285
350
822C
  3
*A286
350
5DF8
  3
*A287
350
77B9
  3
*A288
350
57B9
  3
*A289
350
42BF
  3
*A29
350
10DA
  3
*A290
350
64A9
  3
*A291
350
5E65
  3
*A292
350
4ABC
  3
*A293
350
5E6E
  3
*A294
350
42D2
  3
*A295
350
2FE3
  3
*A296
350
8051
  3
*A297
350
3522
  3
*A298
350
B340
  3
*A299
350
965C
  3
*A3
350
11BEA
  3
*A30
350
820E
  3
*A300
350
BA00
  3
*A301
350
FEDD
  3
*A302
350
114F
  3
*A31
350
5129
  3
*A32
350
2C9A
  3
*A33
350
7C29
  3
*A34
350
4980
  3
*A35
350
81B8
  3
*A36
350
5E04
  3
*A37
350
1219D
  3
*A38
350
81A9
  3
*A39
350
9655
  3
*A4
350
980E
  3
*A40
350
12195
  3
*A41
350
11BF9
  3
*A42
350
E710
  3
*A43
350
10C8
  3
*A44
350
4995
  3
*A45
350
A9D3
  3
*A46
350
E02F
  3
*A47
350
8043
  3
*A48
350
3286
  3
*A49
350
4A14
  3
*A5
350
E71A
  3
*A50
350
A3B9
  3
*A51
350
10E3
  3
*A52
350
7AF2
  3
*A53
350
5F9B
  3
*A54
350
57BA
  3
*A55
350
7AE5
  3
*A56
350
12F63
  3
*A57
350
619C
  3
*A58
350
81E4
  3
*A59
350
6221
  3
*A6
350
818A
  3
*A60
350
8218
  3
*A61
350
122DB
  3
*A62
350
4992
  3
*A63
350
499B
  3
*A64
350
121A1
  3
*A65
350
818B
  3
*A66
350
3289
  3
*A67
350
11C18
  3
*A68
350
1122
  3
*A69
350
881E
  3
*A7
350
A636
  3
*A70
350
7AD2
  3
*A71
350
5CA6
  3
*A72
350
81E6
  3
*A73
350
A623
  3
*A74
350
822B
  3
*A75
350
77C8
  3
*A76
350
880F
  3
*A77
350
498C
  3
*A78
350
606A
  3
*A79
350
11BF8
  3
*A8
350
5E34
  3
*A80
350
8187
  3
*A81
350
5E62
  3
*A82
350
49E1
  3
*A83
350
81E1
  3
*A84
350
10F5
  3
*A85
350
4F1E
  3
*A86
350
964C
  3
*A87
350
33BD
  3
*A88
350
1134
  3
*A89
350
499E
  3
*A9
350
64AD
  3
*A90
350
115EC
  3
*A91
350
5DC8
  3
*A92
350
B352
  3
*A93
350
4998
  3
*A94
350
11BEF
  3
*A95
350
5F9C
  3
*A96
350
8213
  3
*A97
350
2FF7
  3
*A98
350
49C7
  3
*A99
350
4AB4
  0
DICTIONARY
  5
73F
102
{ACAD_REACTORS
330
C
102
}
330
C
100
AcDbDictionary
  0
DICTIONARY
  5
1B
102
{ACAD_REACTORS
330
C
102
}
330
C
100
AcDbDictionary
  3
STANDARD
350
1C
  0
DICTIONARY
  5
740
102
{ACAD_REACTORS
330
C
102
}
330
C
100
AcDbDictionary
  0
ACDBDICTIONARYWDFLT
  5
73D
102
{ACAD_REACTORS
330
C
102
}
330
C
100
AcDbDictionary
281
     1
  3
Normal
350
73E
100
AcDbDictionaryWithDefault
340
73E
  0
XRECORD
  5
ED50
102
{ACAD_REACTORS
330
C
102
}
330
C
100
AcDbXrecord
 90
   990106
  3

 60
     0
 61
     0
 62
     4
 63
     4
 64
     1
 65
     0
 66
     0
 67
     3
 68
     1
 69
     0
 70
     0
 71
     0
 72
     0
 40
6.668733357716102
170
     2
  0
DICTIONARY
  5
1373C
102
{ACAD_REACTORS
330
C
102
}
330
C
100
AcDbDictionary
  3
CEPSNTYPE
350
13746
  3
DIMSTYLEDATA
350
1374A
  3
FINGERPRINTGUID
350
13747
  3
HYPERLINKBASE
350
1373F
  3
INSUNITS
350
13745
  3
LAYOUTDICT
350
13741
  3
LWETCUNION
350
13744
  3
PLOTSETDICT
350
13742
  3
PLOTSTYLNAMDICT
350
13743
  3
PSVPSCALE
350
13749
  3
PUCSBASE
350
1374D
  3
PUCSORGBACK
350
13753
  3
PUCSORGBOTTOM
350
1374F
  3
PUCSORGFRONT
350
13752
  3
PUCSORGLEFT
350
13750
  3
PUCSORGRIGHT
350
13751
  3
PUCSORGTOP
350
1374E
  3
PUCSORTHOREF
350
1374B
  3
PUCSORTHOVIEW
350
1374C
  3
STYLESHEET
350
13740
  3
TSTACKALIGN
350
1373D
  3
TSTACKSIZE
350
1373E
  3
UCSBASE
350
13756
  3
UCSORGBACK
350
1375C
  3
UCSORGBOTTOM
350
13758
  3
UCSORGFRONT
350
1375B
  3
UCSORGLEFT
350
13759
  3
UCSORGRIGHT
350
1375A
  3
UCSORGTOP
350
13757
  3
UCSORTHOREF
350
13754
  3
UCSORTHOVIEW
350
13755
  3
VERSIONGUID
350
13748
  0
DICTIONARY
  5
11AC
102
{ACAD_REACTORS
330
C
102
}
330
C
100
AcDbDictionary
  3
DIMASSOC
350
11AD
  3
SORTENTS
350
B4C6
  0
DICTIONARY
  5
11C20
102
{ACAD_REACTORS
330
11C1F
102
}
330
11C1F
100
AcDbDictionary
280
     1
  3
0
360
11C21
  3
11
360
11C22
  3
150_
360
11C23
  3
160_
360
11C24
  3
170_
360
11C25
  3
171_
360
11C26
  3
350_
360
11C27
  3
4
360
11C28
  3
5
360
11C29
  3
7
360
11C2A
  3
KISEKI
360
11C2B
  0
DICTIONARY
  5
11C38
102
{ACAD_REACTORS
330
11C1F
102
}
330
11C1F
100
AcDbDictionary
  0
XRECORD
  5
13760
102
{ACAD_REACTORS
330
1375F
102
}
330
1375F
100
AcDbXrecord
340
18
  0
XRECORD
  5
1375E
102
{ACAD_REACTORS
330
1375D
102
}
330
1375D
100
AcDbXrecord
340
15
  0
GROUP
  5
DCF
102
{ACAD_REACTORS
330
D
102
}
330
D
100
AcDbGroup
300

 70
     1
 71
     1
  0
GROUP
  5
4ABD
102
{ACAD_REACTORS
330
D
102
}
330
D
100
AcDbGroup
300

 70
     1
 71
     1
  0
GROUP
  5
4983
102
{ACAD_REACTORS
330
D
102
}
330
D
100
AcDbGroup
300

 70
     1
 71
     1
  0
GROUP
  5
BCEC
102
{ACAD_REACTORS
330
D
102
}
330
D
100
AcDbGroup
300

 70
     1
 71
     1
  0
GROUP
  5
A38B
102
{ACAD_REACTORS
330
D
102
}
330
D
100
AcDbGroup
300

 70
     1
 71
     1
  0
GROUP
  5
2A28
102
{ACAD_REACTORS
330
D
102
}
330
D
100
AcDbGroup
300

 70
     1
 71
     1
  0
GROUP
  5
339E
102
{ACAD_REACTORS
330
D
102
}
330
D
100
AcDbGroup
300

 70
     1
 71
     1
  0
GROUP
  5
A38F
102
{ACAD_REACTORS
330
D
102
}
330
D
100
AcDbGroup
300

 70
     1
 71
     1
  0
GROUP
  5
8226
102
{ACAD_REACTORS
330
D
102
}
330
D
100
AcDbGroup
300

 70
     1
 71
     1
  0
GROUP
  5
1119
102
{ACAD_REACTORS
330
D
102
}
330
D
100
AcDbGroup
300

 70
     1
 71
     1
  0
GROUP
  5
328C
102
{ACAD_REACTORS
330
D
102
}
330
D
100
AcDbGroup
300

 70
     1
 71
     1
  0
GROUP
  5
9650
102
{ACAD_REACTORS
330
D
102
}
330
D
100
AcDbGroup
300

 70
     1
 71
     1
  0
GROUP
  5
5DD4
102
{ACAD_REACTORS
330
D
102
}
330
D
100
AcDbGroup
300

 70
     1
 71
     1
  0
GROUP
  5
B34F
102
{ACAD_REACTORS
330
D
102
}
330
D
100
AcDbGroup
300

 70
     1
 71
     1
  0
GROUP
  5
121BF
102
{ACAD_REACTORS
330
D
102
}
330
D
100
AcDbGroup
300

 70
     1
 71
     1
  0
GROUP
  5
6062
102
{ACAD_REACTORS
330
D
102
}
330
D
100
AcDbGroup
300

 70
     1
 71
     1
  0
GROUP
  5
B349
102
{ACAD_REACTORS
330
D
102
}
330
D
100
AcDbGroup
300

 70
     1
 71
     1
  0
GROUP
  5
512B
102
{ACAD_REACTORS
330
D
102
}
330
D
100
AcDbGroup
300

 70
     1
 71
     1
  0
GROUP
  5
A3D1
102
{ACAD_REACTORS
330
D
102
}
330
D
100
AcDbGroup
300

 70
     1
 71
     1
  0
GROUP
  5
83B2
102
{ACAD_REACTORS
330
D
102
}
330
D
100
AcDbGroup
300

 70
     1
 71
     1
  0
GROUP
  5
339B
102
{ACAD_REACTORS
330
D
102
}
330
D
100
AcDbGroup
300

 70
     1
 71
     1
  0
GROUP
  5
33B9
102
{ACAD_REACTORS
330
D
102
}
330
D
100
AcDbGroup
300

 70
     1
 71
     1
  0
GROUP
  5
2CA6
102
{ACAD_REACTORS
330
D
102
}
330
D
100
AcDbGroup
300

 70
     1
 71
     1
  0
GROUP
  5
65A8
102
{ACAD_REACTORS
330
D
102
}
330
D
100
AcDbGroup
300

 70
     1
 71
     1
  0
GROUP
  5
B34C
102
{ACAD_REACTORS
330
D
102
}
330
D
100
AcDbGroup
300

 70
     1
 71
     1
  0
GROUP
  5
1218C
102
{ACAD_REACTORS
330
D
102
}
330
D
100
AcDbGroup
300

 70
     1
 71
     1
  0
GROUP
  5
1107
102
{ACAD_REACTORS
330
D
102
}
330
D
100
AcDbGroup
300

 70
     1
 71
     1
  0
GROUP
  5
2FF1
102
{ACAD_REACTORS
330
D
102
}
330
D
100
AcDbGroup
300

 70
     1
 71
     1
  0
GROUP
  5
116A
102
{ACAD_REACTORS
330
D
102
}
330
D
100
AcDbGroup
300

 70
     1
 71
     1
  0
GROUP
  5
805E
102
{ACAD_REACTORS
330
D
102
}
330
D
100
AcDbGroup
300

 70
     1
 71
     1
  0
GROUP
  5
10A4
102
{ACAD_REACTORS
330
D
102
}
330
D
100
AcDbGroup
300

 70
     1
 71
     1
  0
GROUP
  5
57BF
102
{ACAD_REACTORS
330
D
102
}
330
D
100
AcDbGroup
300

 70
     1
 71
     1
  0
GROUP
  5
A3CD
102
{ACAD_REACTORS
330
D
102
}
330
D
100
AcDbGroup
300

 70
     1
 71
     1
  0
GROUP
  5
121C7
102
{ACAD_REACTORS
330
D
102
}
330
D
100
AcDbGroup
300

 70
     1
 71
     1
  0
GROUP
  5
A628
102
{ACAD_REACTORS
330
D
102
}
330
D
100
AcDbGroup
300

 70
     1
 71
     1
  0
GROUP
  5
A3EB
102
{ACAD_REACTORS
330
D
102
}
330
D
100
AcDbGroup
300

 70
     1
 71
     1
  0
GROUP
  5
10D1
102
{ACAD_REACTORS
330
D
102
}
330
D
100
AcDbGroup
300

 70
     1
 71
     1
  0
GROUP
  5
49C4
102
{ACAD_REACTORS
330
D
102
}
330
D
100
AcDbGroup
300

 70
     1
 71
     1
  0
GROUP
  5
4AAE
102
{ACAD_REACTORS
330
D
102
}
330
D
100
AcDbGroup
300

 70
     1
 71
     1
  0
GROUP
  5
7C2A
102
{ACAD_REACTORS
330
D
102
}
330
D
100
AcDbGroup
300

 70
     1
 71
     1
  0
GROUP
  5
A397
102
{ACAD_REACTORS
330
D
102
}
330
D
100
AcDbGroup
300

 70
     1
 71
     1
  0
GROUP
  5
2CA5
102
{ACAD_REACTORS
330
D
102
}
330
D
100
AcDbGroup
300

 70
     1
 71
     1
  0
GROUP
  5
115DE
102
{ACAD_REACTORS
330
D
102
}
330
D
100
AcDbGroup
300

 70
     1
 71
     1
  0
GROUP
  5
8189
102
{ACAD_REACTORS
330
D
102
}
330
D
100
AcDbGroup
300

 70
     1
 71
     1
  0
GROUP
  5
8222
102
{ACAD_REACTORS
330
D
102
}
330
D
100
AcDbGroup
300

 70
     1
 71
     1
  0
GROUP
  5
1146
102
{ACAD_REACTORS
330
D
102
}
330
D
100
AcDbGroup
300

 70
     1
 71
     1
  0
GROUP
  5
115D0
102
{ACAD_REACTORS
330
D
102
}
330
D
100
AcDbGroup
300

 70
     1
 71
     1
  0
GROUP
  5
5C9F
102
{ACAD_REACTORS
330
D
102
}
330
D
100
AcDbGroup
300

 70
     1
 71
     1
  0
GROUP
  5
A37B
102
{ACAD_REACTORS
330
D
102
}
330
D
100
AcDbGroup
300

 70
     1
 71
     1
  0
GROUP
  5
1110
102
{ACAD_REACTORS
330
D
102
}
330
D
100
AcDbGroup
300

 70
     1
 71
     1
  0
GROUP
  5
5D44
102
{ACAD_REACTORS
330
D
102
}
330
D
100
AcDbGroup
300

 70
     1
 71
     1
  0
GROUP
  5
A637
102
{ACAD_REACTORS
330
D
102
}
330
D
100
AcDbGroup
300

 70
     1
 71
     1
  0
GROUP
  5
A37F
102
{ACAD_REACTORS
330
D
102
}
330
D
100
AcDbGroup
300

 70
     1
 71
     1
  0
GROUP
  5
980D
102
{ACAD_REACTORS
330
D
102
}
330
D
100
AcDbGroup
300

 70
     1
 71
     1
  0
GROUP
  5
77D2
102
{ACAD_REACTORS
330
D
102
}
330
D
100
AcDbGroup
300

 70
     1
 71
     1
  0
GROUP
  5
8375
102
{ACAD_REACTORS
330
D
102
}
330
D
100
AcDbGroup
300

 70
     1
 71
     1
  0
GROUP
  5
33A2
102
{ACAD_REACTORS
330
D
102
}
330
D
100
AcDbGroup
300

 70
     1
 71
     1
  0
GROUP
  5
8805
102
{ACAD_REACTORS
330
D
102
}
330
D
100
AcDbGroup
300

 70
     1
 71
     1
  0
GROUP
  5
A3C5
102
{ACAD_REACTORS
330
D
102
}
330
D
100
AcDbGroup
300

 70
     1
 71
     1
  0
GROUP
  5
2FF6
102
{ACAD_REACTORS
330
D
102
}
330
D
100
AcDbGroup
300

 70
     1
 71
     1
  0
GROUP
  5
3305
102
{ACAD_REACTORS
330
D
102
}
330
D
100
AcDbGroup
300

 70
     1
 71
     1
  0
GROUP
  5
820D
102
{ACAD_REACTORS
330
D
102
}
330
D
100
AcDbGroup
300

 70
     1
 71
     1
  0
GROUP
  5
4AA4
102
{ACAD_REACTORS
330
D
102
}
330
D
100
AcDbGroup
300

 70
     1
 71
     1
  0
GROUP
  5
83B1
102
{ACAD_REACTORS
330
D
102
}
330
D
100
AcDbGroup
300

 70
     1
 71
     1
  0
GROUP
  5
11BF7
102
{ACAD_REACTORS
330
D
102
}
330
D
100
AcDbGroup
300

 70
     1
 71
     1
  0
GROUP
  5
12B9A
102
{ACAD_REACTORS
330
D
102
}
330
D
100
AcDbGroup
300

 70
     1
 71
     1
  0
GROUP
  5
4989
102
{ACAD_REACTORS
330
D
102
}
330
D
100
AcDbGroup
300

 70
     1
 71
     1
  0
GROUP
  5
4F1D
102
{ACAD_REACTORS
330
D
102
}
330
D
100
AcDbGroup
300

 70
     1
 71
     1
  0
GROUP
  5
7556
102
{ACAD_REACTORS
330
D
102
}
330
D
100
AcDbGroup
300

 70
     1
 71
     1
  0
GROUP
  5
12C00
102
{ACAD_REACTORS
330
D
102
}
330
D
100
AcDbGroup
300

 70
     1
 71
     1
340
12BE9
340
12BEA
340
12BEB
340
12BEC
340
12BED
340
12BEE
340
12BEF
340
12BF3
340
12BF6
340
12BF8
340
12BFC
340
12BFD
340
12BFB
340
12BFE
  0
GROUP
  5
7AC6
102
{ACAD_REACTORS
330
D
102
}
330
D
100
AcDbGroup
300

 70
     1
 71
     1
  0
GROUP
  5
121C8
102
{ACAD_REACTORS
330
D
102
}
330
D
100
AcDbGroup
300

 70
     1
 71
     1
  0
GROUP
  5
5E3F
102
{ACAD_REACTORS
330
D
102
}
330
D
100
AcDbGroup
300

 70
     1
 71
     1
  0
GROUP
  5
12197
102
{ACAD_REACTORS
330
D
102
}
330
D
100
AcDbGroup
300

 70
     1
 71
     1
  0
GROUP
  5
11BE7
102
{ACAD_REACTORS
330
D
102
}
330
D
100
AcDbGroup
300

 70
     1
 71
     1
  0
GROUP
  5
8818
102
{ACAD_REACTORS
330
D
102
}
330
D
100
AcDbGroup
300

 70
     1
 71
     1
  0
GROUP
  5
881D
102
{ACAD_REACTORS
330
D
102
}
330
D
100
AcDbGroup
300

 70
     1
 71
     1
  0
GROUP
  5
9807
102
{ACAD_REACTORS
330
D
102
}
330
D
100
AcDbGroup
300

 70
     1
 71
     1
  0
GROUP
  5
5134
102
{ACAD_REACTORS
330
D
102
}
330
D
100
AcDbGroup
300

 70
     1
 71
     1
  0
GROUP
  5
4AB1
102
{ACAD_REACTORS
330
D
102
}
330
D
100
AcDbGroup
300

 70
     1
 71
     1
  0
GROUP
  5
A3C9
102
{ACAD_REACTORS
330
D
102
}
330
D
100
AcDbGroup
300

 70
     1
 71
     1
  0
GROUP
  5
821C
102
{ACAD_REACTORS
330
D
102
}
330
D
100
AcDbGroup
300

 70
     1
 71
     1
  0
GROUP
  5
5E5F
102
{ACAD_REACTORS
330
D
102
}
330
D
100
AcDbGroup
300

 70
     1
 71
     1
  0
GROUP
  5
3183
102
{ACAD_REACTORS
330
D
102
}
330
D
100
AcDbGroup
300

 70
     1
 71
     1
  0
GROUP
  5
4214
102
{ACAD_REACTORS
330
D
102
}
330
D
100
AcDbGroup
300

 70
     1
 71
     1
  0
GROUP
  5
8822
102
{ACAD_REACTORS
330
D
102
}
330
D
100
AcDbGroup
300

 70
     1
 71
     1
  0
GROUP
  5
B355
102
{ACAD_REACTORS
330
D
102
}
330
D
100
AcDbGroup
300

 70
     1
 71
     1
  0
GROUP
  5
8823
102
{ACAD_REACTORS
330
D
102
}
330
D
100
AcDbGroup
300

 70
     1
 71
     1
  0
GROUP
  5
A3C1
102
{ACAD_REACTORS
330
D
102
}
330
D
100
AcDbGroup
300

 70
     1
 71
     1
  0
GROUP
  5
2C9E
102
{ACAD_REACTORS
330
D
102
}
330
D
100
AcDbGroup
300

 70
     1
 71
     1
  0
GROUP
  5
A61E
102
{ACAD_REACTORS
330
D
102
}
330
D
100
AcDbGroup
300

 70
     1
 71
     1
  0
GROUP
  5
121CC
102
{ACAD_REACTORS
330
D
102
}
330
D
100
AcDbGroup
300

 70
     1
 71
     1
  0
GROUP
  5
1065
102
{ACAD_REACTORS
330
D
102
}
330
D
100
AcDbGroup
300

 70
     1
 71
     1
  0
GROUP
  5
8217
102
{ACAD_REACTORS
330
D
102
}
330
D
100
AcDbGroup
300

 70
     1
 71
     1
  0
GROUP
  5
5DEC
102
{ACAD_REACTORS
330
D
102
}
330
D
100
AcDbGroup
300

 70
     1
 71
     1
  0
GROUP
  5
E028
102
{ACAD_REACTORS
330
D
102
}
330
D
100
AcDbGroup
300

 70
     1
 71
     1
  0
GROUP
  5
121F4
102
{ACAD_REACTORS
330
D
102
}
330
D
100
AcDbGroup
300

 70
     1
 71
     1
  0
GROUP
  5
A3BD
102
{ACAD_REACTORS
330
D
102
}
330
D
100
AcDbGroup
300

 70
     1
 71
     1
  0
GROUP
  5
10BF
102
{ACAD_REACTORS
330
D
102
}
330
D
100
AcDbGroup
300

 70
     1
 71
     1
  0
GROUP
  5
3398
102
{ACAD_REACTORS
330
D
102
}
330
D
100
AcDbGroup
300

 70
     1
 71
     1
  0
GROUP
  5
1158
102
{ACAD_REACTORS
330
D
102
}
330
D
100
AcDbGroup
300

 70
     1
 71
     1
  0
GROUP
  5
F198
102
{ACAD_REACTORS
330
D
102
}
330
D
100
AcDbGroup
300

 70
     1
 71
     1
  0
GROUP
  5
112B
102
{ACAD_REACTORS
330
D
102
}
330
D
100
AcDbGroup
300

 70
     1
 71
     1
  0
GROUP
  5
6F77
102
{ACAD_REACTORS
330
D
102
}
330
D
100
AcDbGroup
300

 70
     1
 71
     1
  0
GROUP
  5
821D
102
{ACAD_REACTORS
330
D
102
}
330
D
100
AcDbGroup
300

 70
     1
 71
     1
  0
GROUP
  5
5133
102
{ACAD_REACTORS
330
D
102
}
330
D
100
AcDbGroup
300

 70
     1
 71
     1
  0
GROUP
  5
E70E
102
{ACAD_REACTORS
330
D
102
}
330
D
100
AcDbGroup
300

 70
     1
 71
     1
  0
GROUP
  5
5E1D
102
{ACAD_REACTORS
330
D
102
}
330
D
100
AcDbGroup
300

 70
     1
 71
     1
  0
GROUP
  5
7555
102
{ACAD_REACTORS
330
D
102
}
330
D
100
AcDbGroup
300

 70
     1
 71
     1
  0
GROUP
  5
5E6B
102
{ACAD_REACTORS
330
D
102
}
330
D
100
AcDbGroup
300

 70
     1
 71
     1
  0
GROUP
  5
5D38
102
{ACAD_REACTORS
330
D
102
}
330
D
100
AcDbGroup
300

 70
     1
 71
     1
  0
GROUP
  5
83DB
102
{ACAD_REACTORS
330
D
102
}
330
D
100
AcDbGroup
300

 70
     1
 71
     1
  0
GROUP
  5
4A96
102
{ACAD_REACTORS
330
D
102
}
330
D
100
AcDbGroup
300

 70
     1
 71
     1
  0
GROUP
  5
A393
102
{ACAD_REACTORS
330
D
102
}
330
D
100
AcDbGroup
300

 70
     1
 71
     1
  0
GROUP
  5
11D1D
102
{ACAD_REACTORS
330
D
102
}
330
D
100
AcDbGroup
300

 70
     1
 71
     1
  0
GROUP
  5
57BE
102
{ACAD_REACTORS
330
D
102
}
330
D
100
AcDbGroup
300

 70
     1
 71
     1
  0
GROUP
  5
8072
102
{ACAD_REACTORS
330
D
102
}
330
D
100
AcDbGroup
300

 70
     1
 71
     1
  0
GROUP
  5
49DE
102
{ACAD_REACTORS
330
D
102
}
330
D
100
AcDbGroup
300

 70
     1
 71
     1
  0
GROUP
  5
880E
102
{ACAD_REACTORS
330
D
102
}
330
D
100
AcDbGroup
300

 70
     1
 71
     1
  0
GROUP
  5
10EC
102
{ACAD_REACTORS
330
D
102
}
330
D
100
AcDbGroup
300

 70
     1
 71
     1
  0
GROUP
  5
806F
102
{ACAD_REACTORS
330
D
102
}
330
D
100
AcDbGroup
300

 70
     1
 71
     1
  0
GROUP
  5
880A
102
{ACAD_REACTORS
330
D
102
}
330
D
100
AcDbGroup
300

 70
     1
 71
     1
  0
GROUP
  5
57BD
102
{ACAD_REACTORS
330
D
102
}
330
D
100
AcDbGroup
300

 70
     1
 71
     1
  0
GROUP
  5
E719
102
{ACAD_REACTORS
330
D
102
}
330
D
100
AcDbGroup
300

 70
     1
 71
     1
  0
GROUP
  5
9656
102
{ACAD_REACTORS
330
D
102
}
330
D
100
AcDbGroup
300

 70
     1
 71
     1
  0
GROUP
  5
A9D2
102
{ACAD_REACTORS
330
D
102
}
330
D
100
AcDbGroup
300

 70
     1
 71
     1
  0
GROUP
  5
42D1
102
{ACAD_REACTORS
330
D
102
}
330
D
100
AcDbGroup
300

 70
     1
 71
     1
  0
GROUP
  5
A3EA
102
{ACAD_REACTORS
330
D
102
}
330
D
100
AcDbGroup
300

 70
     1
 71
     1
  0
GROUP
  5
498F
102
{ACAD_REACTORS
330
D
102
}
330
D
100
AcDbGroup
300

 70
     1
 71
     1
  0
GROUP
  5
8221
102
{ACAD_REACTORS
330
D
102
}
330
D
100
AcDbGroup
300

 70
     1
 71
     1
  0
GROUP
  5
5E55
102
{ACAD_REACTORS
330
D
102
}
330
D
100
AcDbGroup
300

 70
     1
 71
     1
  0
GROUP
  5
1080
102
{ACAD_REACTORS
330
D
102
}
330
D
100
AcDbGroup
300

 70
     1
 71
     1
  0
GROUP
  5
5E29
102
{ACAD_REACTORS
330
D
102
}
330
D
100
AcDbGroup
300

 70
     1
 71
     1
  0
GROUP
  5
106E
102
{ACAD_REACTORS
330
D
102
}
330
D
100
AcDbGroup
300

 70
     1
 71
     1
  0
GROUP
  5
11C13
102
{ACAD_REACTORS
330
D
102
}
330
D
100
AcDbGroup
300

 70
     1
 71
     1
  0
GROUP
  5
10B6
102
{ACAD_REACTORS
330
D
102
}
330
D
100
AcDbGroup
300

 70
     1
 71
     1
  0
GROUP
  5
605A
102
{ACAD_REACTORS
330
D
102
}
330
D
100
AcDbGroup
300

 70
     1
 71
     1
  0
GROUP
  5
49E4
102
{ACAD_REACTORS
330
D
102
}
330
D
100
AcDbGroup
300

 70
     1
 71
     1
  0
GROUP
  5
2FE8
102
{ACAD_REACTORS
330
D
102
}
330
D
100
AcDbGroup
300

 70
     1
 71
     1
  0
GROUP
  5
4986
102
{ACAD_REACTORS
330
D
102
}
330
D
100
AcDbGroup
300

 70
     1
 71
     1
  0
GROUP
  5
8804
102
{ACAD_REACTORS
330
D
102
}
330
D
100
AcDbGroup
300

 70
     1
 71
     1
  0
GROUP
  5
B343
102
{ACAD_REACTORS
330
D
102
}
330
D
100
AcDbGroup
300

 70
     1
 71
     1
  0
GROUP
  5
8814
102
{ACAD_REACTORS
330
D
102
}
330
D
100
AcDbGroup
300

 70
     1
 71
     1
  0
GROUP
  5
A3B5
102
{ACAD_REACTORS
330
D
102
}
330
D
100
AcDbGroup
300

 70
     1
 71
     1
  0
GROUP
  5
2FE9
102
{ACAD_REACTORS
330
D
102
}
330
D
100
AcDbGroup
300

 70
     1
 71
     1
  0
GROUP
  5
109B
102
{ACAD_REACTORS
330
D
102
}
330
D
100
AcDbGroup
300

 70
     1
 71
     1
  0
GROUP
  5
E711
102
{ACAD_REACTORS
330
D
102
}
330
D
100
AcDbGroup
300

 70
     1
 71
     1
  0
GROUP
  5
5DE0
102
{ACAD_REACTORS
330
D
102
}
330
D
100
AcDbGroup
300

 70
     1
 71
     1
  0
GROUP
  5
F193
102
{ACAD_REACTORS
330
D
102
}
330
D
100
AcDbGroup
300

 70
     1
 71
     1
  0
GROUP
  5
12F53
102
{ACAD_REACTORS
330
D
102
}
330
D
100
AcDbGroup
300

 70
     1
 71
     1
340
12F4C
340
12F4D
340
12F4E
340
12F4F
340
12F50
340
12F51
340
12F52
  0
GROUP
  5
49C1
102
{ACAD_REACTORS
330
D
102
}
330
D
100
AcDbGroup
300

 70
     1
 71
     1
  0
GROUP
  5
8065
102
{ACAD_REACTORS
330
D
102
}
330
D
100
AcDbGroup
300

 70
     1
 71
     1
  0
GROUP
  5
E70D
102
{ACAD_REACTORS
330
D
102
}
330
D
100
AcDbGroup
300

 70
     1
 71
     1
  0
GROUP
  5
6400
102
{ACAD_REACTORS
330
D
102
}
330
D
100
AcDbGroup
300

 70
     1
 71
     1
  0
GROUP
  5
A9A1
102
{ACAD_REACTORS
330
D
102
}
330
D
100
AcDbGroup
300

 70
     1
 71
     1
  0
GROUP
  5
7AE6
102
{ACAD_REACTORS
330
D
102
}
330
D
100
AcDbGroup
300

 70
     1
 71
     1
  0
GROUP
  5
2FE2
102
{ACAD_REACTORS
330
D
102
}
330
D
100
AcDbGroup
300

 70
     1
 71
     1
  0
GROUP
  5
49CA
102
{ACAD_REACTORS
330
D
102
}
330
D
100
AcDbGroup
300

 70
     1
 71
     1
  0
GROUP
  5
8809
102
{ACAD_REACTORS
330
D
102
}
330
D
100
AcDbGroup
300

 70
     1
 71
     1
  0
GROUP
  5
B307
102
{ACAD_REACTORS
330
D
102
}
330
D
100
AcDbGroup
300

 70
     1
 71
     1
  0
GROUP
  5
A99C
102
{ACAD_REACTORS
330
D
102
}
330
D
100
AcDbGroup
300

 70
     1
 71
     1
  0
GROUP
  5
3487
102
{ACAD_REACTORS
330
D
102
}
330
D
100
AcDbGroup
300

 70
     1
 71
     1
  0
GROUP
  5
64A5
102
{ACAD_REACTORS
330
D
102
}
330
D
100
AcDbGroup
300

 70
     1
 71
     1
  0
GROUP
  5
818C
102
{ACAD_REACTORS
330
D
102
}
330
D
100
AcDbGroup
300

 70
     1
 71
     1
  0
GROUP
  5
317D
102
{ACAD_REACTORS
330
D
102
}
330
D
100
AcDbGroup
300

 70
     1
 71
     1
  0
GROUP
  5
113D
102
{ACAD_REACTORS
330
D
102
}
330
D
100
AcDbGroup
300

 70
     1
 71
     1
  0
GROUP
  5
64A1
102
{ACAD_REACTORS
330
D
102
}
330
D
100
AcDbGroup
300

 70
     1
 71
     1
  0
GROUP
  5
B358
102
{ACAD_REACTORS
330
D
102
}
330
D
100
AcDbGroup
300

 70
     1
 71
     1
  0
GROUP
  5
7C28
102
{ACAD_REACTORS
330
D
102
}
330
D
100
AcDbGroup
300

 70
     1
 71
     1
  0
GROUP
  5
6F78
102
{ACAD_REACTORS
330
D
102
}
330
D
100
AcDbGroup
300

 70
     1
 71
     1
  0
GROUP
  5
49DB
102
{ACAD_REACTORS
330
D
102
}
330
D
100
AcDbGroup
300

 70
     1
 71
     1
  0
GROUP
  5
512A
102
{ACAD_REACTORS
330
D
102
}
330
D
100
AcDbGroup
300

 70
     1
 71
     1
  0
GROUP
  5
10AD
102
{ACAD_REACTORS
330
D
102
}
330
D
100
AcDbGroup
300

 70
     1
 71
     1
  0
GROUP
  5
8813
102
{ACAD_REACTORS
330
D
102
}
330
D
100
AcDbGroup
300

 70
     1
 71
     1
  0
GROUP
  5
5128
102
{ACAD_REACTORS
330
D
102
}
330
D
100
AcDbGroup
300

 70
     1
 71
     1
  0
GROUP
  5
33BA
102
{ACAD_REACTORS
330
D
102
}
330
D
100
AcDbGroup
300

 70
     1
 71
     1
  0
GROUP
  5
10FE
102
{ACAD_REACTORS
330
D
102
}
330
D
100
AcDbGroup
300

 70
     1
 71
     1
  0
GROUP
  5
12C01
102
{ACAD_REACTORS
330
D
102
}
330
D
100
AcDbGroup
300

 70
     1
 71
     1
  0
GROUP
  5
57BC
102
{ACAD_REACTORS
330
D
102
}
330
D
100
AcDbGroup
300

 70
     1
 71
     1
  0
GROUP
  5
1077
102
{ACAD_REACTORS
330
D
102
}
330
D
100
AcDbGroup
300

 70
     1
 71
     1
  0
GROUP
  5
A383
102
{ACAD_REACTORS
330
D
102
}
330
D
100
AcDbGroup
300

 70
     1
 71
     1
  0
GROUP
  5
A387
102
{ACAD_REACTORS
330
D
102
}
330
D
100
AcDbGroup
300

 70
     1
 71
     1
  0
GROUP
  5
49A1
102
{ACAD_REACTORS
330
D
102
}
330
D
100
AcDbGroup
300

 70
     1
 71
     1
  0
GROUP
  5
1092
102
{ACAD_REACTORS
330
D
102
}
330
D
100
AcDbGroup
300

 70
     1
 71
     1
  0
GROUP
  5
31CE
102
{ACAD_REACTORS
330
D
102
}
330
D
100
AcDbGroup
300

 70
     1
 71
     1
  0
GROUP
  5
1161
102
{ACAD_REACTORS
330
D
102
}
330
D
100
AcDbGroup
300

 70
     1
 71
     1
  0
GROUP
  5
317C
102
{ACAD_REACTORS
330
D
102
}
330
D
100
AcDbGroup
300

 70
     1
 71
     1
  0
GROUP
  5
12F5B
102
{ACAD_REACTORS
330
D
102
}
330
D
100
AcDbGroup
300

 70
     1
 71
     1
340
12F55
340
12F56
340
12F57
340
12F58
340
12F59
340
12F5A
340
12F54
  0
GROUP
  5
42C0
102
{ACAD_REACTORS
330
D
102
}
330
D
100
AcDbGroup
300

 70
     1
 71
     1
  0
GROUP
  5
FEDE
102
{ACAD_REACTORS
330
D
102
}
330
D
100
AcDbGroup
300

 70
     1
 71
     1
  0
GROUP
  5
B346
102
{ACAD_REACTORS
330
D
102
}
330
D
100
AcDbGroup
300

 70
     1
 71
     1
  0
GROUP
  5
4A10
102
{ACAD_REACTORS
330
D
102
}
330
D
100
AcDbGroup
300

 70
     1
 71
     1
  0
GROUP
  5
13387
102
{ACAD_REACTORS
330
D
102
}
330
D
100
AcDbGroup
300

 70
     1
 71
     1
340
13371
340
1336D
340
13374
340
13375
340
1337B
340
1337F
340
1337E
340
13381
340
13382
  0
GROUP
  5
1089
102
{ACAD_REACTORS
330
D
102
}
330
D
100
AcDbGroup
300

 70
     1
 71
     1
  0
GROUP
  5
8819
102
{ACAD_REACTORS
330
D
102
}
330
D
100
AcDbGroup
300

 70
     1
 71
     1
  0
GROUP
  5
4A97
102
{ACAD_REACTORS
330
D
102
}
330
D
100
AcDbGroup
300

 70
     1
 71
     1
  0
GROUP
  5
A635
102
{ACAD_REACTORS
330
D
102
}
330
D
100
AcDbGroup
300

 70
     1
 71
     1
  0
GROUP
  5
57BB
102
{ACAD_REACTORS
330
D
102
}
330
D
100
AcDbGroup
300

 70
     1
 71
     1
  0
GROUP
  5
8212
102
{ACAD_REACTORS
330
D
102
}
330
D
100
AcDbGroup
300

 70
     1
 71
     1
  0
GROUP
  5
5E68
102
{ACAD_REACTORS
330
D
102
}
330
D
100
AcDbGroup
300

 70
     1
 71
     1
  0
GROUP
  5
8062
102
{ACAD_REACTORS
330
D
102
}
330
D
100
AcDbGroup
300

 70
     1
 71
     1
  0
GROUP
  5
5E4A
102
{ACAD_REACTORS
330
D
102
}
330
D
100
AcDbGroup
300

 70
     1
 71
     1
  0
GROUP
  5
11BF0
102
{ACAD_REACTORS
330
D
102
}
330
D
100
AcDbGroup
300

 70
     1
 71
     1
  0
GROUP
  5
8227
102
{ACAD_REACTORS
330
D
102
}
330
D
100
AcDbGroup
300

 70
     1
 71
     1
  0
GROUP
  5
11C1C
102
{ACAD_REACTORS
330
D
102
}
330
D
100
AcDbGroup
300

 70
     1
 71
     1
  0
GROUP
  5
9808
102
{ACAD_REACTORS
330
D
102
}
330
D
100
AcDbGroup
300

 70
     1
 71
     1
  0
GROUP
  5
822C
102
{ACAD_REACTORS
330
D
102
}
330
D
100
AcDbGroup
300

 70
     1
 71
     1
  0
GROUP
  5
5DF8
102
{ACAD_REACTORS
330
D
102
}
330
D
100
AcDbGroup
300

 70
     1
 71
     1
  0
GROUP
  5
77B9
102
{ACAD_REACTORS
330
D
102
}
330
D
100
AcDbGroup
300

 70
     1
 71
     1
  0
GROUP
  5
57B9
102
{ACAD_REACTORS
330
D
102
}
330
D
100
AcDbGroup
300

 70
     1
 71
     1
  0
GROUP
  5
42BF
102
{ACAD_REACTORS
330
D
102
}
330
D
100
AcDbGroup
300

 70
     1
 71
     1
  0
GROUP
  5
10DA
102
{ACAD_REACTORS
330
D
102
}
330
D
100
AcDbGroup
300

 70
     1
 71
     1
  0
GROUP
  5
64A9
102
{ACAD_REACTORS
330
D
102
}
330
D
100
AcDbGroup
300

 70
     1
 71
     1
  0
GROUP
  5
5E65
102
{ACAD_REACTORS
330
D
102
}
330
D
100
AcDbGroup
300

 70
     1
 71
     1
  0
GROUP
  5
4ABC
102
{ACAD_REACTORS
330
D
102
}
330
D
100
AcDbGroup
300

 70
     1
 71
     1
  0
GROUP
  5
5E6E
102
{ACAD_REACTORS
330
D
102
}
330
D
100
AcDbGroup
300

 70
     1
 71
     1
  0
GROUP
  5
42D2
102
{ACAD_REACTORS
330
D
102
}
330
D
100
AcDbGroup
300

 70
     1
 71
     1
  0
GROUP
  5
2FE3
102
{ACAD_REACTORS
330
D
102
}
330
D
100
AcDbGroup
300

 70
     1
 71
     1
  0
GROUP
  5
8051
102
{ACAD_REACTORS
330
D
102
}
330
D
100
AcDbGroup
300

 70
     1
 71
     1
  0
GROUP
  5
3522
102
{ACAD_REACTORS
330
D
102
}
330
D
100
AcDbGroup
300

 70
     1
 71
     1
  0
GROUP
  5
B340
102
{ACAD_REACTORS
330
D
102
}
330
D
100
AcDbGroup
300

 70
     1
 71
     1
  0
GROUP
  5
965C
102
{ACAD_REACTORS
330
D
102
}
330
D
100
AcDbGroup
300

 70
     1
 71
     1
  0
GROUP
  5
11BEA
102
{ACAD_REACTORS
330
D
102
}
330
D
100
AcDbGroup
300

 70
     1
 71
     1
  0
GROUP
  5
820E
102
{ACAD_REACTORS
330
D
102
}
330
D
100
AcDbGroup
300

 70
     1
 71
     1
  0
GROUP
  5
BA00
102
{ACAD_REACTORS
330
D
102
}
330
D
100
AcDbGroup
300

 70
     1
 71
     1
  0
GROUP
  5
FEDD
102
{ACAD_REACTORS
330
D
102
}
330
D
100
AcDbGroup
300

 70
     1
 71
     1
  0
GROUP
  5
114F
102
{ACAD_REACTORS
330
D
102
}
330
D
100
AcDbGroup
300

 70
     1
 71
     1
  0
GROUP
  5
5129
102
{ACAD_REACTORS
330
D
102
}
330
D
100
AcDbGroup
300

 70
     1
 71
     1
  0
GROUP
  5
2C9A
102
{ACAD_REACTORS
330
D
102
}
330
D
100
AcDbGroup
300

 70
     1
 71
     1
  0
GROUP
  5
7C29
102
{ACAD_REACTORS
330
D
102
}
330
D
100
AcDbGroup
300

 70
     1
 71
     1
  0
GROUP
  5
4980
102
{ACAD_REACTORS
330
D
102
}
330
D
100
AcDbGroup
300

 70
     1
 71
     1
  0
GROUP
  5
81B8
102
{ACAD_REACTORS
330
D
102
}
330
D
100
AcDbGroup
300

 70
     1
 71
     1
  0
GROUP
  5
5E04
102
{ACAD_REACTORS
330
D
102
}
330
D
100
AcDbGroup
300

 70
     1
 71
     1
  0
GROUP
  5
1219D
102
{ACAD_REACTORS
330
D
102
}
330
D
100
AcDbGroup
300

 70
     1
 71
     1
  0
GROUP
  5
81A9
102
{ACAD_REACTORS
330
D
102
}
330
D
100
AcDbGroup
300

 70
     1
 71
     1
  0
GROUP
  5
9655
102
{ACAD_REACTORS
330
D
102
}
330
D
100
AcDbGroup
300

 70
     1
 71
     1
  0
GROUP
  5
980E
102
{ACAD_REACTORS
330
D
102
}
330
D
100
AcDbGroup
300

 70
     1
 71
     1
  0
GROUP
  5
12195
102
{ACAD_REACTORS
330
D
102
}
330
D
100
AcDbGroup
300

 70
     1
 71
     1
  0
GROUP
  5
11BF9
102
{ACAD_REACTORS
330
D
102
}
330
D
100
AcDbGroup
300

 70
     1
 71
     1
  0
GROUP
  5
E710
102
{ACAD_REACTORS
330
D
102
}
330
D
100
AcDbGroup
300

 70
     1
 71
     1
  0
GROUP
  5
10C8
102
{ACAD_REACTORS
330
D
102
}
330
D
100
AcDbGroup
300

 70
     1
 71
     1
  0
GROUP
  5
4995
102
{ACAD_REACTORS
330
D
102
}
330
D
100
AcDbGroup
300

 70
     1
 71
     1
  0
GROUP
  5
A9D3
102
{ACAD_REACTORS
330
D
102
}
330
D
100
AcDbGroup
300

 70
     1
 71
     1
  0
GROUP
  5
E02F
102
{ACAD_REACTORS
330
D
102
}
330
D
100
AcDbGroup
300

 70
     1
 71
     1
  0
GROUP
  5
8043
102
{ACAD_REACTORS
330
D
102
}
330
D
100
AcDbGroup
300

 70
     1
 71
     1
  0
GROUP
  5
3286
102
{ACAD_REACTORS
330
D
102
}
330
D
100
AcDbGroup
300

 70
     1
 71
     1
  0
GROUP
  5
4A14
102
{ACAD_REACTORS
330
D
102
}
330
D
100
AcDbGroup
300

 70
     1
 71
     1
  0
GROUP
  5
E71A
102
{ACAD_REACTORS
330
D
102
}
330
D
100
AcDbGroup
300

 70
     1
 71
     1
  0
GROUP
  5
A3B9
102
{ACAD_REACTORS
330
D
102
}
330
D
100
AcDbGroup
300

 70
     1
 71
     1
  0
GROUP
  5
10E3
102
{ACAD_REACTORS
330
D
102
}
330
D
100
AcDbGroup
300

 70
     1
 71
     1
  0
GROUP
  5
7AF2
102
{ACAD_REACTORS
330
D
102
}
330
D
100
AcDbGroup
300

 70
     1
 71
     1
  0
GROUP
  5
5F9B
102
{ACAD_REACTORS
330
D
102
}
330
D
100
AcDbGroup
300

 70
     1
 71
     1
  0
GROUP
  5
57BA
102
{ACAD_REACTORS
330
D
102
}
330
D
100
AcDbGroup
300

 70
     1
 71
     1
  0
GROUP
  5
7AE5
102
{ACAD_REACTORS
330
D
102
}
330
D
100
AcDbGroup
300

 70
     1
 71
     1
  0
GROUP
  5
12F63
102
{ACAD_REACTORS
330
D
102
}
330
D
100
AcDbGroup
300

 70
     1
 71
     1
340
12F5D
340
12F5E
340
12F5F
340
12F60
340
12F61
340
12F5C
340
12F62
  0
GROUP
  5
619C
102
{ACAD_REACTORS
330
D
102
}
330
D
100
AcDbGroup
300

 70
     1
 71
     1
  0
GROUP
  5
81E4
102
{ACAD_REACTORS
330
D
102
}
330
D
100
AcDbGroup
300

 70
     1
 71
     1
  0
GROUP
  5
6221
102
{ACAD_REACTORS
330
D
102
}
330
D
100
AcDbGroup
300

 70
     1
 71
     1
  0
GROUP
  5
818A
102
{ACAD_REACTORS
330
D
102
}
330
D
100
AcDbGroup
300

 70
     1
 71
     1
  0
GROUP
  5
8218
102
{ACAD_REACTORS
330
D
102
}
330
D
100
AcDbGroup
300

 70
     1
 71
     1
  0
GROUP
  5
122DB
102
{ACAD_REACTORS
330
D
102
}
330
D
100
AcDbGroup
300

 70
     1
 71
     1
  0
GROUP
  5
4992
102
{ACAD_REACTORS
330
D
102
}
330
D
100
AcDbGroup
300

 70
     1
 71
     1
  0
GROUP
  5
499B
102
{ACAD_REACTORS
330
D
102
}
330
D
100
AcDbGroup
300

 70
     1
 71
     1
  0
GROUP
  5
121A1
102
{ACAD_REACTORS
330
D
102
}
330
D
100
AcDbGroup
300

 70
     1
 71
     1
  0
GROUP
  5
818B
102
{ACAD_REACTORS
330
D
102
}
330
D
100
AcDbGroup
300

 70
     1
 71
     1
  0
GROUP
  5
3289
102
{ACAD_REACTORS
330
D
102
}
330
D
100
AcDbGroup
300

 70
     1
 71
     1
  0
GROUP
  5
11C18
102
{ACAD_REACTORS
330
D
102
}
330
D
100
AcDbGroup
300

 70
     1
 71
     1
  0
GROUP
  5
1122
102
{ACAD_REACTORS
330
D
102
}
330
D
100
AcDbGroup
300

 70
     1
 71
     1
  0
GROUP
  5
881E
102
{ACAD_REACTORS
330
D
102
}
330
D
100
AcDbGroup
300

 70
     1
 71
     1
  0
GROUP
  5
A636
102
{ACAD_REACTORS
330
D
102
}
330
D
100
AcDbGroup
300

 70
     1
 71
     1
  0
GROUP
  5
7AD2
102
{ACAD_REACTORS
330
D
102
}
330
D
100
AcDbGroup
300

 70
     1
 71
     1
  0
GROUP
  5
5CA6
102
{ACAD_REACTORS
330
D
102
}
330
D
100
AcDbGroup
300

 70
     1
 71
     1
  0
GROUP
  5
81E6
102
{ACAD_REACTORS
330
D
102
}
330
D
100
AcDbGroup
300

 70
     1
 71
     1
  0
GROUP
  5
A623
102
{ACAD_REACTORS
330
D
102
}
330
D
100
AcDbGroup
300

 70
     1
 71
     1
  0
GROUP
  5
822B
102
{ACAD_REACTORS
330
D
102
}
330
D
100
AcDbGroup
300

 70
     1
 71
     1
  0
GROUP
  5
77C8
102
{ACAD_REACTORS
330
D
102
}
330
D
100
AcDbGroup
300

 70
     1
 71
     1
  0
GROUP
  5
880F
102
{ACAD_REACTORS
330
D
102
}
330
D
100
AcDbGroup
300

 70
     1
 71
     1
  0
GROUP
  5
498C
102
{ACAD_REACTORS
330
D
102
}
330
D
100
AcDbGroup
300

 70
     1
 71
     1
  0
GROUP
  5
606A
102
{ACAD_REACTORS
330
D
102
}
330
D
100
AcDbGroup
300

 70
     1
 71
     1
  0
GROUP
  5
11BF8
102
{ACAD_REACTORS
330
D
102
}
330
D
100
AcDbGroup
300

 70
     1
 71
     1
  0
GROUP
  5
5E34
102
{ACAD_REACTORS
330
D
102
}
330
D
100
AcDbGroup
300

 70
     1
 71
     1
  0
GROUP
  5
8187
102
{ACAD_REACTORS
330
D
102
}
330
D
100
AcDbGroup
300

 70
     1
 71
     1
  0
GROUP
  5
5E62
102
{ACAD_REACTORS
330
D
102
}
330
D
100
AcDbGroup
300

 70
     1
 71
     1
  0
GROUP
  5
49E1
102
{ACAD_REACTORS
330
D
102
}
330
D
100
AcDbGroup
300

 70
     1
 71
     1
  0
GROUP
  5
81E1
102
{ACAD_REACTORS
330
D
102
}
330
D
100
AcDbGroup
300

 70
     1
 71
     1
  0
GROUP
  5
10F5
102
{ACAD_REACTORS
330
D
102
}
330
D
100
AcDbGroup
300

 70
     1
 71
     1
  0
GROUP
  5
4F1E
102
{ACAD_REACTORS
330
D
102
}
330
D
100
AcDbGroup
300

 70
     1
 71
     1
  0
GROUP
  5
964C
102
{ACAD_REACTORS
330
D
102
}
330
D
100
AcDbGroup
300

 70
     1
 71
     1
  0
GROUP
  5
33BD
102
{ACAD_REACTORS
330
D
102
}
330
D
100
AcDbGroup
300

 70
     1
 71
     1
  0
GROUP
  5
1134
102
{ACAD_REACTORS
330
D
102
}
330
D
100
AcDbGroup
300

 70
     1
 71
     1
  0
GROUP
  5
499E
102
{ACAD_REACTORS
330
D
102
}
330
D
100
AcDbGroup
300

 70
     1
 71
     1
  0
GROUP
  5
64AD
102
{ACAD_REACTORS
330
D
102
}
330
D
100
AcDbGroup
300

 70
     1
 71
     1
  0
GROUP
  5
115EC
102
{ACAD_REACTORS
330
D
102
}
330
D
100
AcDbGroup
300

 70
     1
 71
     1
  0
GROUP
  5
5DC8
102
{ACAD_REACTORS
330
D
102
}
330
D
100
AcDbGroup
300

 70
     1
 71
     1
  0
GROUP
  5
B352
102
{ACAD_REACTORS
330
D
102
}
330
D
100
AcDbGroup
300

 70
     1
 71
     1
  0
GROUP
  5
4998
102
{ACAD_REACTORS
330
D
102
}
330
D
100
AcDbGroup
300

 70
     1
 71
     1
  0
GROUP
  5
11BEF
102
{ACAD_REACTORS
330
D
102
}
330
D
100
AcDbGroup
300

 70
     1
 71
     1
  0
GROUP
  5
5F9C
102
{ACAD_REACTORS
330
D
102
}
330
D
100
AcDbGroup
300

 70
     1
 71
     1
  0
GROUP
  5
8213
102
{ACAD_REACTORS
330
D
102
}
330
D
100
AcDbGroup
300

 70
     1
 71
     1
  0
GROUP
  5
2FF7
102
{ACAD_REACTORS
330
D
102
}
330
D
100
AcDbGroup
300

 70
     1
 71
     1
  0
GROUP
  5
49C7
102
{ACAD_REACTORS
330
D
102
}
330
D
100
AcDbGroup
300

 70
     1
 71
     1
  0
GROUP
  5
4AB4
102
{ACAD_REACTORS
330
D
102
}
330
D
100
AcDbGroup
300

 70
     1
 71
     1
  0
MLINESTYLE
  5
1C
102
{ACAD_REACTORS
330
1B
102
}
330
1B
100
AcDbMlineStyle
  2
STANDARD
 70
     0
  3

 62
   256
 51
90.0
 52
90.0
 71
     2
 49
0.5
 62
   256
  6
BYLAYER
 49
-0.5
 62
   256
  6
BYLAYER
  0
ACDBPLACEHOLDER
  5
73E
102
{ACAD_REACTORS
330
73D
102
}
330
73D
100
AcDbPlaceHolder
280
     0
  0
XRECORD
  5
13746
102
{ACAD_REACTORS
330
1373C
102
}
330
1373C
100
AcDbXrecord
 90
        0
  0
XRECORD
  5
1374A
102
{ACAD_REACTORS
330
1373C
102
}
330
1373C
100
AcDbXrecord
1000
DSTYLE
1002
{
1070
   179
 70
     4
1070
   341
340
89E
1070
   342
340
89E
1070
   371
 70
    13
1070
   372
 70
    13
1002
}
  0
XRECORD
  5
13747
102
{ACAD_REACTORS
330
1373C
102
}
330
1373C
100
AcDbXrecord
  1
{6B368F64-F7EB-11D4-BFBA-00004C030E53}
  0
XRECORD
  5
1373F
102
{ACAD_REACTORS
330
1373C
102
}
330
1373C
100
AcDbXrecord
  1

  0
XRECORD
  5
13745
102
{ACAD_REACTORS
330
1373C
102
}
330
1373C
100
AcDbXrecord
 90
        0
  0
XRECORD
  5
13741
102
{ACAD_REACTORS
330
1373C
102
}
330
1373C
100
AcDbXrecord
340
73F
  0
XRECORD
  5
13744
102
{ACAD_REACTORS
330
1373C
102
}
330
1373C
100
AcDbXrecord
 90
    10781
  0
XRECORD
  5
13742
102
{ACAD_REACTORS
330
1373C
102
}
330
1373C
100
AcDbXrecord
340
740
  0
XRECORD
  5
13743
102
{ACAD_REACTORS
330
1373C
102
}
330
1373C
100
AcDbXrecord
340
73D
  0
XRECORD
  5
13749
102
{ACAD_REACTORS
330
1373C
102
}
330
1373C
100
AcDbXrecord
 40
0.0
  0
XRECORD
  5
1374D
102
{ACAD_REACTORS
330
1373C
102
}
330
1373C
100
AcDbXrecord
340
0
  0
XRECORD
  5
13753
102
{ACAD_REACTORS
330
1373C
102
}
330
1373C
100
AcDbXrecord
 10
0.0
 20
0.0
 30
0.0
  0
XRECORD
  5
1374F
102
{ACAD_REACTORS
330
1373C
102
}
330
1373C
100
AcDbXrecord
 10
0.0
 20
0.0
 30
0.0
  0
XRECORD
  5
13752
102
{ACAD_REACTORS
330
1373C
102
}
330
1373C
100
AcDbXrecord
 10
0.0
 20
0.0
 30
0.0
  0
XRECORD
  5
13750
102
{ACAD_REACTORS
330
1373C
102
}
330
1373C
100
AcDbXrecord
 10
0.0
 20
0.0
 30
0.0
  0
XRECORD
  5
13751
102
{ACAD_REACTORS
330
1373C
102
}
330
1373C
100
AcDbXrecord
 10
0.0
 20
0.0
 30
0.0
  0
XRECORD
  5
1374E
102
{ACAD_REACTORS
330
1373C
102
}
330
1373C
100
AcDbXrecord
 10
0.0
 20
0.0
 30
0.0
  0
XRECORD
  5
1374B
102
{ACAD_REACTORS
330
1373C
102
}
330
1373C
100
AcDbXrecord
340
0
  0
XRECORD
  5
1374C
102
{ACAD_REACTORS
330
1373C
102
}
330
1373C
100
AcDbXrecord
 70
     0
  0
XRECORD
  5
13740
102
{ACAD_REACTORS
330
1373C
102
}
330
1373C
100
AcDbXrecord
  1

  0
XRECORD
  5
1373D
102
{ACAD_REACTORS
330
1373C
102
}
330
1373C
100
AcDbXrecord
 90
        1
  0
XRECORD
  5
1373E
102
{ACAD_REACTORS
330
1373C
102
}
330
1373C
100
AcDbXrecord
 90
       70
  0
XRECORD
  5
13756
102
{ACAD_REACTORS
330
1373C
102
}
330
1373C
100
AcDbXrecord
340
0
  0
XRECORD
  5
1375C
102
{ACAD_REACTORS
330
1373C
102
}
330
1373C
100
AcDbXrecord
 10
0.0
 20
0.0
 30
0.0
  0
XRECORD
  5
13758
102
{ACAD_REACTORS
330
1373C
102
}
330
1373C
100
AcDbXrecord
 10
0.0
 20
0.0
 30
0.0
  0
XRECORD
  5
1375B
102
{ACAD_REACTORS
330
1373C
102
}
330
1373C
100
AcDbXrecord
 10
0.0
 20
0.0
 30
0.0
  0
XRECORD
  5
13759
102
{ACAD_REACTORS
330
1373C
102
}
330
1373C
100
AcDbXrecord
 10
0.0
 20
0.0
 30
0.0
  0
XRECORD
  5
1375A
102
{ACAD_REACTORS
330
1373C
102
}
330
1373C
100
AcDbXrecord
 10
0.0
 20
0.0
 30
0.0
  0
XRECORD
  5
13757
102
{ACAD_REACTORS
330
1373C
102
}
330
1373C
100
AcDbXrecord
 10
0.0
 20
0.0
 30
0.0
  0
XRECORD
  5
13754
102
{ACAD_REACTORS
330
1373C
102
}
330
1373C
100
AcDbXrecord
340
0
  0
XRECORD
  5
13755
102
{ACAD_REACTORS
330
1373C
102
}
330
1373C
100
AcDbXrecord
 70
     0
  0
XRECORD
  5
13748
102
{ACAD_REACTORS
330
1373C
102
}
330
1373C
100
AcDbXrecord
  1
{890E110A-BA86-41B6-B6FD-AEF9CB5822AE}
  0
DICTIONARYVAR
  5
11AD
102
{ACAD_REACTORS
330
11AC
102
}
330
11AC
100
DictionaryVariables
280
     0
  1
1
  0
DICTIONARYVAR
  5
B4C6
102
{ACAD_REACTORS
330
11AC
102
}
330
11AC
100
DictionaryVariables
280
     0
  1
96
  0
XRECORD
  5
11C21
102
{ACAD_REACTORS
330
11C20
102
}
330
11C20
100
AcDbXrecord
  1
0
  1
*0
  1
*
  1
*
 70
     0
  1
*
  1
*
  0
XRECORD
  5
11C22
102
{ACAD_REACTORS
330
11C20
102
}
330
11C20
100
AcDbXrecord
  1
11
  1
*11
  1
*
  1
*
 70
     0
  1
*
  1
*
  0
XRECORD
  5
11C23
102
{ACAD_REACTORS
330
11C20
102
}
330
11C20
100
AcDbXrecord
  1
150_
  1
150_*
  1
*
  1
*
 70
     0
  1
*
  1
*
  0
XRECORD
  5
11C24
102
{ACAD_REACTORS
330
11C20
102
}
330
11C20
100
AcDbXrecord
  1
160_
  1
160_*
  1
*
  1
*
 70
     0
  1
*
  1
*
  0
XRECORD
  5
11C25
102
{ACAD_REACTORS
330
11C20
102
}
330
11C20
100
AcDbXrecord
  1
170_
  1
170_*
  1
*
  1
*
 70
     0
  1
*
  1
*
  0
XRECORD
  5
11C26
102
{ACAD_REACTORS
330
11C20
102
}
330
11C20
100
AcDbXrecord
  1
171_
  1
171_*
  1
*
  1
*
 70
     0
  1
*
  1
*
  0
XRECORD
  5
11C27
102
{ACAD_REACTORS
330
11C20
102
}
330
11C20
100
AcDbXrecord
  1
350_
  1
350_*
  1
*
  1
*
 70
     0
  1
*
  1
*
  0
XRECORD
  5
11C28
102
{ACAD_REACTORS
330
11C20
102
}
330
11C20
100
AcDbXrecord
  1
4
  1
*4
  1
*
  1
*
 70
     0
  1
*
  1
*
  0
XRECORD
  5
11C29
102
{ACAD_REACTORS
330
11C20
102
}
330
11C20
100
AcDbXrecord
  1
5
  1
*5
  1
*
  1
*
 70
     0
  1
*
  1
*
  0
XRECORD
  5
11C2A
102
{ACAD_REACTORS
330
11C20
102
}
330
11C20
100
AcDbXrecord
  1
7
  1
*7
  1
*
  1
*
 70
     0
  1
*
  1
*
  0
XRECORD
  5
11C2B
102
{ACAD_REACTORS
330
11C20
102
}
330
11C20
100
AcDbXrecord
  1
kiseki
  1
kiseki*
  1
*
  1
*
 70
     0
  1
*
  1
*
  0
ENDSEC
  0
EOF
