  0
SECTION
  2
HEADER
  9
$ACADVER
  1
AC1014
  9
$ACADMAINTVER
 70
     9
  9
$DWGCODEPAGE
  3
ANSI_932
  9
$INSBASE
 10
0.0
 20
0.0
 30
0.0
  9
$EXTMIN
 10
-389.9104275564466
 20
427.6427692718375
 30
0.0
  9
$EXTMAX
 10
818.8709030039598
 20
1240.908492925172
 30
0.0
  9
$LIMMIN
 10
0.0
 20
0.0
  9
$LIMMAX
 10
420.0
 20
297.0
  9
$ORTHOMODE
 70
     1
  9
$REGENMODE
 70
     1
  9
$FILLMODE
 70
     1
  9
$QTEXTMODE
 70
     0
  9
$MIRRTEXT
 70
     0
  9
$DRAGMODE
 70
     2
  9
$LTSCALE
 40
20.0
  9
$OSMODE
 70
    37
  9
$ATTMODE
 70
     1
  9
$TEXTSIZE
 40
2.5
  9
$TRACEWID
 40
1.0
  9
$TEXTSTYLE
  7
STANDARD
  9
$CLAYER
  8
寸法線
  9
$CELTYPE
  6
BYLAYER
  9
$CECOLOR
 62
   256
  9
$CELTSCALE
 40
2.0
  9
$DELOBJ
 70
     1
  9
$DISPSILH
 70
     0
  9
$DIMSCALE
 40
2.0
  9
$DIMASZ
 40
3.5
  9
$DIMEXO
 40
1.0
  9
$DIMDLI
 40
6.5
  9
$DIMRND
 40
0.005
  9
$DIMDLE
 40
0.0
  9
$DIMEXE
 40
1.0
  9
$DIMTP
 40
0.0
  9
$DIMTM
 40
0.0
  9
$DIMTXT
 40
3.0
  9
$DIMCEN
 40
2.5
  9
$DIMTSZ
 40
0.0
  9
$DIMTOL
 70
     0
  9
$DIMLIM
 70
     0
  9
$DIMTIH
 70
     0
  9
$DIMTOH
 70
     0
  9
$DIMSE1
 70
     0
  9
$DIMSE2
 70
     0
  9
$DIMTAD
 70
     1
  9
$DIMZIN
 70
     9
  9
$DIMBLK
  1
OPEN30
  9
$DIMASO
 70
     1
  9
$DIMSHO
 70
     1
  9
$DIMPOST
  1

  9
$DIMAPOST
  1

  9
$DIMALT
 70
     0
  9
$DIMALTD
 70
     4
  9
$DIMALTF
 40
0.0394
  9
$DIMLFAC
 40
1.0
  9
$DIMTOFL
 70
     1
  9
$DIMTVP
 40
0.0
  9
$DIMTIX
 70
     0
  9
$DIMSOXD
 70
     0
  9
$DIMSAH
 70
     0
  9
$DIMBLK1
  1

  9
$DIMBLK2
  1

  9
$DIMSTYLE
  2
STD_M_
  9
$DIMCLRD
 70
     4
  9
$DIMCLRE
 70
     4
  9
$DIMCLRT
 70
     3
  9
$DIMTFAC
 40
1.0
  9
$DIMGAP
 40
0.75
  9
$DIMJUST
 70
     0
  9
$DIMSD1
 70
     0
  9
$DIMSD2
 70
     0
  9
$DIMTOLJ
 70
     1
  9
$DIMTZIN
 70
     9
  9
$DIMALTZ
 70
     0
  9
$DIMALTTZ
 70
     0
  9
$DIMFIT
 70
     3
  9
$DIMUPT
 70
     0
  9
$DIMUNIT
 70
     2
  9
$DIMDEC
 70
     2
  9
$DIMTDEC
 70
     2
  9
$DIMALTU
 70
     8
  9
$DIMALTTD
 70
     4
  9
$DIMTXSTY
  7
STANDARD
  9
$DIMAUNIT
 70
     0
  9
$LUNITS
 70
     2
  9
$LUPREC
 70
     4
  9
$SKETCHINC
 40
1.0
  9
$FILLETRAD
 40
10.0
  9
$AUNITS
 70
     0
  9
$AUPREC
 70
     0
  9
$MENU
  1
.
  9
$ELEVATION
 40
0.0
  9
$PELEVATION
 40
0.0
  9
$THICKNESS
 40
0.0
  9
$LIMCHECK
 70
     0
  9
$BLIPMODE
 70
     0
  9
$CHAMFERA
 40
1.0
  9
$CHAMFERB
 40
1.0
  9
$CHAMFERC
 40
20.0
  9
$CHAMFERD
 40
0.0
  9
$SKPOLY
 70
     0
  9
$TDCREATE
 40
2451224.660162384
  9
$TDUPDATE
 40
2455777.815039965
  9
$TDINDWG
 40
14.4938558681
  9
$TDUSRTIMER
 40
14.4938558681
  9
$USRTIMER
 70
     1
  9
$ANGBASE
 50
0.0
  9
$ANGDIR
 70
     0
  9
$PDMODE
 70
     0
  9
$PDSIZE
 40
0.0
  9
$PLINEWID
 40
0.0
  9
$COORDS
 70
     0
  9
$SPLFRAME
 70
     0
  9
$SPLINETYPE
 70
     6
  9
$SPLINESEGS
 70
     8
  9
$ATTDIA
 70
     0
  9
$ATTREQ
 70
     1
  9
$HANDLING
 70
-16383
  9
$HANDSEED
  5
28F7D
  9
$SURFTAB1
 70
     6
  9
$SURFTAB2
 70
     6
  9
$SURFTYPE
 70
     6
  9
$SURFU
 70
     6
  9
$SURFV
 70
     6
  9
$UCSNAME
  2

  9
$UCSORG
 10
0.0
 20
0.0
 30
0.0
  9
$UCSXDIR
 10
1.0
 20
0.0
 30
0.0
  9
$UCSYDIR
 10
0.0
 20
1.0
 30
0.0
  9
$PUCSNAME
  2

  9
$PUCSORG
 10
0.0
 20
0.0
 30
0.0
  9
$PUCSXDIR
 10
1.0
 20
0.0
 30
0.0
  9
$PUCSYDIR
 10
0.0
 20
1.0
 30
0.0
  9
$USERI1
 70
     0
  9
$USERI2
 70
     0
  9
$USERI3
 70
     0
  9
$USERI4
 70
     0
  9
$USERI5
 70
     0
  9
$USERR1
 40
0.0
  9
$USERR2
 40
0.0
  9
$USERR3
 40
0.0
  9
$USERR4
 40
0.0
  9
$USERR5
 40
0.0
  9
$WORLDVIEW
 70
     1
  9
$SHADEDGE
 70
     3
  9
$SHADEDIF
 70
    70
  9
$TILEMODE
 70
     0
  9
$MAXACTVP
 70
    48
  9
$PINSBASE
 10
0.0
 20
0.0
 30
0.0
  9
$PLIMCHECK
 70
     0
  9
$PEXTMIN
 10
0.1499971331934375
 20
3.007685998673423
 30
-0.0015258207003583
  9
$PEXTMAX
 10
400.0212612963253
 20
284.8888217572842
 30
0.0000000349246037
  9
$PLIMMIN
 10
-7.931297769446027
 20
-4.338140787274845
  9
$PLIMMAX
 10
418.1472839750377
 20
296.9234723007052
  9
$UNITMODE
 70
     0
  9
$VISRETAIN
 70
     1
  9
$PLINEGEN
 70
     0
  9
$PSLTSCALE
 70
     0
  9
$TREEDEPTH
 70
  3020
  9
$PICKSTYLE
 70
     0
  9
$CMLSTYLE
  2
STANDARD
  9
$CMLJUST
 70
     0
  9
$CMLSCALE
 40
20.0
  9
$PROXYGRAPHICS
 70
     1
  9
$MEASUREMENT
 70
     0
  0
ENDSEC
  0
SECTION
  2
CLASSES
  0
CLASS
  1
HATCH
  2
AcDbHatch
  3
AutoCAD 2000
 90
        0
280
     0
281
     1
  0
CLASS
  1
LWPOLYLINE
  2
AcDbPolyline
  3
AutoCAD 2000
 90
        0
280
     0
281
     1
  0
CLASS
  1
ACDBDICTIONARYWDFLT
  2
AcDbDictionaryWithDefault
  3
AutoCAD 2000
 90
        0
280
     0
281
     0
  0
CLASS
  1
ACDBPLACEHOLDER
  2
AcDbPlaceHolder
  3
AutoCAD 2000
 90
        0
280
     0
281
     0
  0
CLASS
  1
LAYOUT
  2
AcDbLayout
  3
AutoCAD 2000
 90
        0
280
     0
281
     0
  0
CLASS
  1
LONG_TRANSACTION
  2
AcDbLongTransaction
  3
AutoCAD 2000
 90
        0
280
     0
281
     0
  0
CLASS
  1
LWPOLYLINE
  2
AcDbPolyline
  3
AutoCAD 2000
 90
        0
280
     0
281
     1
  0
CLASS
  1
HATCH
  2
AcDbHatch
  3
AutoCAD 2000
 90
        0
280
     0
281
     1
  0
CLASS
  1
XRECORD
  2
AcDbXrecord
  3
AutoCAD 2000
 90
        0
280
     0
281
     0
  0
CLASS
  1
DICTIONARYVAR
  2
AcDbDictionaryVar
  3
AutoCAD 2000
 90
        0
280
     0
281
     0
  0
CLASS
  1
LONG_TRANSACTION
  2
AcDbLongTransaction
  3
AutoCAD 2000
 90
        0
280
     0
281
     0
  0
CLASS
  1
LWPOLYLINE
  2
AcDbPolyline
  3
AutoCAD 2000
 90
        0
280
     0
281
     1
  0
CLASS
  1
HATCH
  2
AcDbHatch
  3
AutoCAD 2000
 90
        0
280
     0
281
     1
  0
CLASS
  1
XRECORD
  2
AcDbXrecord
  3
AutoCAD 2000
 90
        0
280
     0
281
     0
  0
ENDSEC
  0
SECTION
  2
TABLES
  0
TABLE
  2
VPORT
  5
8
330
0
100
AcDbSymbolTable
 70
     2
  0
VPORT
  5
28F59
330
8
100
AcDbSymbolTableRecord
100
AcDbViewportTableRecord
  2
*ACTIVE
 70
     0
 10
0.0
 20
0.0
 11
1.0
 21
1.0
 12
214.0179227542767
 22
834.2785397489054
 13
0.0
 23
0.0
 14
10.0
 24
10.0
 15
10.0
 25
10.0
 16
0.0
 26
0.0
 36
1.0
 17
0.0
 27
0.0
 37
0.0
 40
819.4823146411565
 41
1.527918781725888
 42
50.0
 43
0.0
 44
0.0
 50
0.0
 51
0.0
 71
     0
 72
   100
 73
     1
 74
     0
 75
     0
 76
     0
 77
     0
 78
     0
  0
ENDTAB
  0
TABLE
  2
LTYPE
  5
5
330
0
100
AcDbSymbolTable
 70
     7
  0
LTYPE
  5
12
330
5
100
AcDbSymbolTableRecord
100
AcDbLinetypeTableRecord
  2
BYBLOCK
 70
     0
  3

 72
    65
 73
     0
 40
0.0
  0
LTYPE
  5
13
330
5
100
AcDbSymbolTableRecord
100
AcDbLinetypeTableRecord
  2
BYLAYER
 70
     0
  3

 72
    65
 73
     0
 40
0.0
  0
LTYPE
  5
14
330
5
100
AcDbSymbolTableRecord
100
AcDbLinetypeTableRecord
  2
CONTINUOUS
 70
     0
  3
Solid line
 72
    65
 73
     0
 40
0.0
  0
LTYPE
  5
126C
330
5
100
AcDbSymbolTableRecord
100
AcDbLinetypeTableRecord
  2
CENTER
 70
     0
  3
____ _ ____ _ ____ _ ____ _ ____ _ ____ _ ____
 72
    65
 73
     4
 40
2.0
 49
1.25
 74
     0
 49
-0.25
 74
     0
 49
0.25
 74
     0
 49
-0.25
 74
     0
  0
LTYPE
  5
126E
330
5
100
AcDbSymbolTableRecord
100
AcDbLinetypeTableRecord
  2
DASHDOT
 70
     0
  3
__ . __ . __ . __ . __ . __ . __ . __ . __ . __
 72
    65
 73
     4
 40
1.0
 49
0.5
 74
     0
 49
-0.25
 74
     0
 49
0.0
 74
     0
 49
-0.25
 74
     0
  0
LTYPE
  5
1541F
330
5
100
AcDbSymbolTableRecord
100
AcDbLinetypeTableRecord
  2
HIDDEN
 70
     0
  3
_ _ _ _ _ _ _ _ _ _ _ _ _ _ _ _ _ _ _ _ _ _ _
 72
    65
 73
     2
 40
0.375
 49
0.25
 74
     0
 49
-0.125
 74
     0
  0
LTYPE
  5
15420
330
5
100
AcDbSymbolTableRecord
100
AcDbLinetypeTableRecord
  2
CENTER2
 70
     0
  3
Center (.5x) ___ _ ___ _ ___ _ ___ _ ___ _ ___
 72
    65
 73
     4
 40
1.125
 49
0.75
 74
     0
 49
-0.125
 74
     0
 49
0.125
 74
     0
 49
-0.125
 74
     0
  0
LTYPE
  5
15421
330
5
100
AcDbSymbolTableRecord
100
AcDbLinetypeTableRecord
  2
PHANTOM2
 70
     0
  3
Phantom (.5x) ___ _ _ ___ _ _ ___ _ _ ___ _ _
 72
    65
 73
     6
 40
1.25
 49
0.625
 74
     0
 49
-0.125
 74
     0
 49
0.125
 74
     0
 49
-0.125
 74
     0
 49
0.125
 74
     0
 49
-0.125
 74
     0
  0
LTYPE
  5
225CE
330
5
100
AcDbSymbolTableRecord
100
AcDbLinetypeTableRecord
  2
PHANTOM
 70
     0
  3
Phantom ______  __  __  ______  __  __  ______
 72
    65
 73
     6
 40
2.5
 49
1.25
 74
     0
 49
-0.25
 74
     0
 49
0.25
 74
     0
 49
-0.25
 74
     0
 49
0.25
 74
     0
 49
-0.25
 74
     0
  0
ENDTAB
  0
TABLE
  2
LAYER
  5
2
102
{ACAD_XDICTIONARY
360
284B7
102
}
330
0
100
AcDbSymbolTable
 70
    17
  0
LAYER
  5
E
330
2
100
AcDbSymbolTableRecord
100
AcDbLayerTableRecord
  2
0
 70
     2
 62
     7
  6
CONTINUOUS
  0
LAYER
  5
2C
330
2
100
AcDbSymbolTableRecord
100
AcDbLayerTableRecord
  2
M_VIEW
 70
     0
 62
    -1
  6
CONTINUOUS
  0
LAYER
  5
30
330
2
100
AcDbSymbolTableRecord
100
AcDbLayerTableRecord
  2
FRAME025
 70
     0
 62
     7
  6
CONTINUOUS
  0
LAYER
  5
12B
330
2
100
AcDbSymbolTableRecord
100
AcDbLayerTableRecord
  2
DEFPOINTS
 70
     4
 62
    -7
  6
CONTINUOUS
  0
LAYER
  5
651
330
2
100
AcDbSymbolTableRecord
100
AcDbLayerTableRecord
  2
FRAME020
 70
     0
 62
     7
  6
CONTINUOUS
  0
LAYER
  5
1271
330
2
100
AcDbSymbolTableRecord
100
AcDbLayerTableRecord
  2
A
 70
     0
 62
     7
  6
CONTINUOUS
  0
LAYER
  5
A9BB
330
2
100
AcDbSymbolTableRecord
100
AcDbLayerTableRecord
  2
文字
 70
     0
 62
     7
  6
CONTINUOUS
  0
LAYER
  5
12163
330
2
100
AcDbSymbolTableRecord
100
AcDbLayerTableRecord
  2
寸法線
 70
     0
 62
     7
  6
CONTINUOUS
  0
LAYER
  5
122DE
330
2
100
AcDbSymbolTableRecord
100
AcDbLayerTableRecord
  2
DIMENSION
 70
     0
 62
     7
  6
CONTINUOUS
  0
LAYER
  5
15422
330
2
100
AcDbSymbolTableRecord
100
AcDbLayerTableRecord
  2
細線
 70
     0
 62
     7
  6
CONTINUOUS
  0
LAYER
  5
15423
330
2
100
AcDbSymbolTableRecord
100
AcDbLayerTableRecord
  2
CENTER
 70
     0
 62
     7
  6
CENTER
  0
LAYER
  5
15425
330
2
100
AcDbSymbolTableRecord
100
AcDbLayerTableRecord
  2
中心線
 70
     0
 62
     7
  6
CENTER2
  0
LAYER
  5
15426
330
2
100
AcDbSymbolTableRecord
100
AcDbLayerTableRecord
  2
仮想線
 70
     0
 62
     7
  6
PHANTOM2
  0
LAYER
  5
21DD8
330
2
100
AcDbSymbolTableRecord
100
AcDbLayerTableRecord
  2
破線
 70
     0
 62
     7
  6
HIDDEN
  0
LAYER
  5
225CF
330
2
100
AcDbSymbolTableRecord
100
AcDbLayerTableRecord
  2
２点鎖線
 70
     0
 62
     7
  6
PHANTOM
  0
LAYER
  5
2729E
330
2
100
AcDbSymbolTableRecord
100
AcDbLayerTableRecord
  2
ｷｬｯﾌ_ﾎ_ﾙﾄ
 70
     0
 62
     7
  6
CONTINUOUS
  0
ENDTAB
  0
TABLE
  2
STYLE
  5
3
330
0
100
AcDbSymbolTable
 70
     4
  0
STYLE
  5
F
330
3
100
AcDbSymbolTableRecord
100
AcDbTextStyleTableRecord
  2
STANDARD
 70
     0
 40
0.0
 41
1.0
 50
0.0
 71
     0
 42
2.5
  3
isocp.shx
  4
bigfont.shx
  0
STYLE
  5
35
330
3
100
AcDbSymbolTableRecord
100
AcDbTextStyleTableRecord
  2
MSｺ_ｼｯｸ
 70
     0
 40
0.0
 41
1.0
 50
0.0
 71
     0
 42
5.0
  3
MS Gothic.ttf
  4

1001
ACAD
1000
MS Gothic
1071
    32817
  0
STYLE
  5
1275
330
3
100
AcDbSymbolTableRecord
100
AcDbTextStyleTableRecord
  2
BIGFONT
 70
     0
 40
2.0
 41
1.0
 50
0.0
 71
     0
 42
2.0
  3
txt.shx
  4
bigfont.shx
  0
ENDTAB
  0
TABLE
  2
VIEW
  5
6
330
0
100
AcDbSymbolTable
 70
     0
  0
ENDTAB
  0
TABLE
  2
UCS
  5
7
330
0
100
AcDbSymbolTable
 70
     0
  0
ENDTAB
  0
TABLE
  2
APPID
  5
9
330
0
100
AcDbSymbolTable
 70
     3
  0
APPID
  5
10
330
9
100
AcDbSymbolTableRecord
100
AcDbRegAppTableRecord
  2
ACAD
 70
     0
  0
APPID
  5
F013
330
9
100
AcDbSymbolTableRecord
100
AcDbRegAppTableRecord
  2
CONTENTBLOCKDESCRIPTION
 70
     0
  0
APPID
  5
F014
330
9
100
AcDbSymbolTableRecord
100
AcDbRegAppTableRecord
  2
CONTENTBLOCKICON
 70
     0
  0
ENDTAB
  0
TABLE
  2
DIMSTYLE
  5
A
330
0
100
AcDbSymbolTable
 70
     2
  0
DIMSTYLE
105
1D
330
A
100
AcDbSymbolTableRecord
100
AcDbDimStyleTableRecord
  2
STANDARD
 70
     0
  3

  4

  5

  6

  7

 40
1.0
 41
0.18
 42
0.0625
 43
0.38
 44
0.18
 45
0.0
 46
0.0
 47
0.0
 48
0.0
140
0.18
141
0.09
142
0.0
143
25.4
144
1.0
145
0.0
146
1.0
147
0.09
 71
     0
 72
     0
 73
     1
 74
     1
 75
     0
 76
     0
 77
     0
 78
     0
170
     0
171
     2
172
     0
173
     0
174
     0
175
     0
176
     0
177
     0
178
     0
270
     2
271
     4
272
     4
273
     2
274
     2
340
F
275
     0
280
     0
281
     0
282
     0
283
     1
284
     0
285
     0
286
     0
287
     3
288
     0
  0
DIMSTYLE
105
1542A
102
{ACAD_REACTORS
330
247C6
330
254C6
330
25791
330
25C85
330
25CB5
330
25CB6
330
25CD8
330
25CDA
330
26A29
330
27067
330
281A5
330
281AF
330
281B9
330
283E9
330
2853B
330
2853D
102
}
330
A
100
AcDbSymbolTableRecord
100
AcDbDimStyleTableRecord
  2
STD_M_
 70
     0
  3

  4

  5
OPEN30
  6

  7

 40
2.0
 41
3.5
 42
1.0
 43
6.5
 44
1.0
 45
0.005
 46
0.0
 47
0.0
 48
0.0
140
3.0
141
2.5
142
0.0
143
0.0394
144
1.0
145
0.0
146
1.0
147
0.75
 71
     0
 72
     0
 73
     0
 74
     0
 75
     0
 76
     0
 77
     1
 78
     9
170
     0
171
     4
172
     1
173
     0
174
     0
175
     0
176
     4
177
     4
178
     3
270
     2
271
     2
272
     2
273
     8
274
     4
340
F
275
     0
280
     0
281
     0
282
     0
283
     1
284
     9
285
     0
286
     0
287
     3
288
     0
  0
ENDTAB
  0
TABLE
  2
BLOCK_RECORD
  5
1
330
0
100
AcDbSymbolTable
 70
    41
  0
BLOCK_RECORD
  5
18
102
{ACAD_XDICTIONARY
360
EFC6
102
}
330
1
100
AcDbSymbolTableRecord
100
AcDbBlockTableRecord
  2
*MODEL_SPACE
  0
BLOCK_RECORD
  5
15
102
{ACAD_XDICTIONARY
360
EFC4
102
}
330
1
100
AcDbSymbolTableRecord
100
AcDbBlockTableRecord
  2
*PAPER_SPACE
  0
BLOCK_RECORD
  5
115C
330
1
100
AcDbSymbolTableRecord
100
AcDbBlockTableRecord
  2
機械A4横_LBP
  0
BLOCK_RECORD
  5
1215D
330
1
100
AcDbSymbolTableRecord
100
AcDbBlockTableRecord
  2
_OPEN30
  0
ENDTAB
  0
ENDSEC
  0
SECTION
  2
BLOCKS
  0
BLOCK
  5
19
330
18
100
AcDbEntity
  8
0
100
AcDbBlockBegin
  2
*MODEL_SPACE
 70
     0
 10
0.0
 20
0.0
 30
0.0
  3
*MODEL_SPACE
  1

  0
ENDBLK
  5
1A
330
18
100
AcDbEntity
  8
0
100
AcDbBlockEnd
  0
BLOCK
  5
16
330
15
100
AcDbEntity
 67
     1
  8
0
100
AcDbBlockBegin
  2
*PAPER_SPACE
 70
     0
 10
0.0
 20
0.0
 30
0.0
  3
*PAPER_SPACE
  1

  0
ENDBLK
  5
17
330
15
100
AcDbEntity
 67
     1
  8
0
100
AcDbBlockEnd
  0
BLOCK
  5
115D
330
115C
100
AcDbEntity
  8
0
100
AcDbBlockBegin
  2
機械A4横_LBP
 70
     0
 10
0.0
 20
0.0
 30
0.0
  3
機械A4横_LBP
  1

  0
ENDBLK
  5
115E
330
115C
100
AcDbEntity
  8
0
100
AcDbBlockEnd
  0
BLOCK
  5
12161
330
1215D
100
AcDbEntity
  8
0
100
AcDbBlockBegin
  2
_OPEN30
 70
     0
 10
0.0
 20
0.0
 30
0.0
  3
_OPEN30
  1

  0
LINE
  5
1215E
330
1215D
100
AcDbEntity
  8
0
  6
BYBLOCK
 62
     0
100
AcDbLine
 10
-1.0
 20
0.26794919
 30
0.0
 11
0.0
 21
0.0
 31
0.0
  0
LINE
  5
1215F
330
1215D
100
AcDbEntity
  8
0
  6
BYBLOCK
 62
     0
100
AcDbLine
 10
0.0
 20
0.0
 30
0.0
 11
-1.0
 21
-0.26794919
 31
0.0
  0
LINE
  5
12160
330
1215D
100
AcDbEntity
  8
0
  6
BYBLOCK
 62
     0
100
AcDbLine
 10
0.0
 20
0.0
 30
0.0
 11
-1.0
 21
0.0
 31
0.0
  0
ENDBLK
  5
12162
330
1215D
100
AcDbEntity
  8
0
100
AcDbBlockEnd
  0
ENDSEC
  0
SECTION
  2
ENTITIES
  0
INSERT
  5
1160
330
18
100
AcDbEntity
  8
FRAME025
100
AcDbBlockReference
  2
機械A4横_LBP
 10
66.00059629174575
 20
114.43790435724
 30
0.0
  0
MTEXT
  5
1405
330
18
100
AcDbEntity
  8
0
  6
DASHDOT
100
AcDbMText
 10
163.682726410024
 20
430.5785054452221
 30
0.0
 40
1.0
 41
2.0
 71
     1
 72
     5
  1

  7
BIGFONT
1001
ACAD
1000
MTEXTBEGIN
1070
    73
1070
     1
1070
    44
1040
1.0
1070
    74
1070
     0
1000
MTEXTEND
1000
MTEXTBEGIN
1070
    73
1070
     1
1070
    44
1040
1.0
1070
    74
1070
     0
1000
MTEXTEND
  0
MTEXT
  5
1406
330
18
100
AcDbEntity
  8
0
  6
CENTER
100
AcDbMText
 10
401.3606673541956
 20
323.7890106174461
 30
0.0
 40
2.0
 41
15.6417
 71
     1
 72
     5
  1

  7
BIGFONT
1001
ACAD
1000
MTEXTBEGIN
1070
    73
1070
     1
1070
    44
1040
1.0
1070
    74
1070
     0
1000
MTEXTEND
1000
MTEXTBEGIN
1070
    73
1070
     1
1070
    44
1040
1.0
1070
    74
1070
     0
1000
MTEXTEND
  0
MTEXT
  5
1407
330
18
100
AcDbEntity
  8
0
100
AcDbMText
 10
75.77239017043272
 20
222.8564838730205
 30
0.0
 40
2.0
 41
0.0
 71
     1
 72
     5
  1

1001
ACAD
1000
MTEXTBEGIN
1070
    73
1070
     1
1070
    44
1040
1.0
1070
    74
1070
     0
1000
MTEXTEND
1000
MTEXTBEGIN
1070
    73
1070
     1
1070
    44
1040
1.0
1070
    74
1070
     0
1000
MTEXTEND
  0
MTEXT
  5
1408
330
18
100
AcDbEntity
  8
0
100
AcDbMText
 10
120.1718819235825
 20
254.48796746601
 30
0.0
 40
2.0
 41
10.1453
 71
     1
 72
     5
  1

 11
-0.0000000000000002
 21
-1.0
 31
0.0
1001
ACAD
1000
MTEXTBEGIN
1070
    73
1070
     1
1070
    44
1040
1.0
1070
    74
1070
     0
1000
MTEXTEND
1000
MTEXTBEGIN
1070
    73
1070
     1
1070
    44
1040
1.0
1070
    74
1070
     0
1000
MTEXTEND
  0
MTEXT
  5
142F
330
18
100
AcDbEntity
  8
0
  6
BYBLOCK
100
AcDbMText
 10
155.9513799082503
 20
329.2674780082993
 30
0.0
 40
2.0
 41
0.0
 71
     7
 72
     5
  1

 11
0.0000000000000001
 21
1.0
 31
0.0
1001
ACAD
1000
MTEXTBEGIN
1070
    73
1070
     1
1070
    44
1040
1.0
1070
    74
1070
     0
1000
MTEXTEND
1000
MTEXTBEGIN
1070
    73
1070
     1
1070
    44
1040
1.0
1070
    74
1070
     0
1000
MTEXTEND
  0
MTEXT
  5
1430
330
18
100
AcDbEntity
  8
0
  6
BYBLOCK
100
AcDbMText
 10
120.4859915450975
 20
340.0607863667169
 30
0.0
 40
2.0
 41
0.0
 71
     4
 72
     5
  1

 11
-0.0000000000000002
 21
-1.0
 31
0.0
1001
ACAD
1000
MTEXTBEGIN
1070
    73
1070
     1
1070
    44
1040
1.0
1070
    74
1070
     0
1000
MTEXTEND
1000
MTEXTBEGIN
1070
    73
1070
     1
1070
    44
1040
1.0
1070
    74
1070
     0
1000
MTEXTEND
  0
MTEXT
  5
1532
330
18
100
AcDbEntity
  8
0
  6
DASHDOT
100
AcDbMText
 10
163.6828134149741
 20
430.5785054452221
 30
0.0
 40
1.0
 41
2.0
 71
     1
 72
     5
  1

  7
BIGFONT
1001
ACAD
1000
MTEXTBEGIN
1070
    73
1070
     1
1070
    44
1040
1.0
1070
    74
1070
     0
1000
MTEXTEND
1000
MTEXTBEGIN
1070
    73
1070
     1
1070
    44
1040
1.0
1070
    74
1070
     0
1000
MTEXTEND
  0
MTEXT
  5
1533
330
18
100
AcDbEntity
  8
0
  6
CENTER
100
AcDbMText
 10
401.360754359146
 20
323.7890106174461
 30
0.0
 40
2.0
 41
15.6417
 71
     1
 72
     5
  1

  7
BIGFONT
1001
ACAD
1000
MTEXTBEGIN
1070
    73
1070
     1
1070
    44
1040
1.0
1070
    74
1070
     0
1000
MTEXTEND
1000
MTEXTBEGIN
1070
    73
1070
     1
1070
    44
1040
1.0
1070
    74
1070
     0
1000
MTEXTEND
  0
MTEXT
  5
1534
330
18
100
AcDbEntity
  8
0
100
AcDbMText
 10
75.77247717538298
 20
222.8564838730205
 30
0.0
 40
2.0
 41
0.0
 71
     1
 72
     5
  1

1001
ACAD
1000
MTEXTBEGIN
1070
    73
1070
     1
1070
    44
1040
1.0
1070
    74
1070
     0
1000
MTEXTEND
1000
MTEXTBEGIN
1070
    73
1070
     1
1070
    44
1040
1.0
1070
    74
1070
     0
1000
MTEXTEND
  0
MTEXT
  5
1535
330
18
100
AcDbEntity
  8
0
100
AcDbMText
 10
120.1719689285329
 20
254.48796746601
 30
0.0
 40
2.0
 41
10.1453
 71
     1
 72
     5
  1

 11
-0.0000000000000002
 21
-1.0
 31
0.0
1001
ACAD
1000
MTEXTBEGIN
1070
    73
1070
     1
1070
    44
1040
1.0
1070
    74
1070
     0
1000
MTEXTEND
1000
MTEXTBEGIN
1070
    73
1070
     1
1070
    44
1040
1.0
1070
    74
1070
     0
1000
MTEXTEND
  0
MTEXT
  5
155C
330
18
100
AcDbEntity
  8
0
  6
BYBLOCK
100
AcDbMText
 10
155.9514669132004
 20
329.2674780082993
 30
0.0
 40
2.0
 41
0.0
 71
     7
 72
     5
  1

 11
0.0000000000000001
 21
1.0
 31
0.0
1001
ACAD
1000
MTEXTBEGIN
1070
    73
1070
     1
1070
    44
1040
1.0
1070
    74
1070
     0
1000
MTEXTEND
1000
MTEXTBEGIN
1070
    73
1070
     1
1070
    44
1040
1.0
1070
    74
1070
     0
1000
MTEXTEND
  0
MTEXT
  5
155D
330
18
100
AcDbEntity
  8
0
  6
BYBLOCK
100
AcDbMText
 10
120.4860785500478
 20
340.0607863667169
 30
0.0
 40
2.0
 41
0.0
 71
     4
 72
     5
  1

 11
-0.0000000000000002
 21
-1.0
 31
0.0
1001
ACAD
1000
MTEXTBEGIN
1070
    73
1070
     1
1070
    44
1040
1.0
1070
    74
1070
     0
1000
MTEXTEND
1000
MTEXTBEGIN
1070
    73
1070
     1
1070
    44
1040
1.0
1070
    74
1070
     0
1000
MTEXTEND
  0
TEXT
  5
2279
330
18
100
AcDbEntity
  8
A
100
AcDbText
 10
-37.81881037320381
 20
322.0637567728283
 30
0.0
 40
3.524999999999999
  1
�    
100
AcDbText
  0
TEXT
  5
2283
330
18
100
AcDbEntity
  8
A
100
AcDbText
 10
-185.7439103235753
 20
-107.9032633455339
 30
0.0
 40
2.5
  1

 41
0.5
  7
MSｺ_ｼｯｸ
100
AcDbText
  0
TEXT
  5
2293
330
18
100
AcDbEntity
  8
A
100
AcDbText
 10
-177.9189103235753
 20
-107.9032633455339
 30
0.0
 40
2.5
  1

  7
MSｺ_ｼｯｸ
100
AcDbText
  0
LINE
  5
22D71
330
18
100
AcDbEntity
  8
中心線
100
AcDbLine
 10
264.7174044732379
 20
1015.908492925172
 30
0.0
 11
-175.282595526762
 21
1015.908492925172
 31
0.0
  0
ARC
  5
22D75
330
18
100
AcDbEntity
  8
中心線
100
AcDbCircle
 10
50.19042023537941
 20
1016.380106531319
 30
0.0
 40
224.9999999999996
100
AcDbArc
 50
307.8331660771342
 51
321.8266473299883
  0
LINE
  5
22D76
330
18
100
AcDbEntity
  8
中心線
100
AcDbLine
 10
193.1979356972425
 20
872.4279617011738
 30
0.0
 11
226.3670221849143
 21
839.2588752135019
 31
0.0
  0
LINE
  5
22D7A
330
18
100
AcDbEntity
  8
中心線
100
AcDbLine
 10
193.1979356972363
 20
1159.389024149176
 30
0.0
 11
226.3670221849084
 21
1192.558110636848
 31
0.0
  0
LINE
  5
22D7D
330
18
100
AcDbEntity
  8
中心線
100
AcDbLine
 10
49.71740447323793
 20
800.9084929251722
 30
0.0
 11
49.71740447323793
 21
1240.908492925172
 31
0.0
  0
LINE
  5
22D88
330
18
100
AcDbEntity
  8
0
100
AcDbLine
 10
-153.282595526765
 20
1168.908492925175
 30
0.0
 11
-153.2825955267649
 21
1015.908492925172
 31
0.0
  0
LINE
  5
22D90
330
18
100
AcDbEntity
  8
0
100
AcDbLine
 10
-103.282595526765
 20
812.9084929251693
 30
0.0
 11
29.79679408851781
 21
812.9084929251691
 31
0.0
  0
CIRCLE
  5
22D91
330
18
100
AcDbEntity
  8
0
100
AcDbCircle
 10
-109.3816212937325
 20
856.8094671581949
 30
0.0
 40
8.5
  0
LINE
  5
22D95
330
18
100
AcDbEntity
  8
中心線
100
AcDbLine
 10
-93.76312675076054
 20
872.4279617011676
 30
0.0
 11
-126.9322132384323
 21
839.2588752134958
 31
0.0
  0
LINE
  5
22D9F
330
18
100
AcDbEntity
  8
0
100
AcDbLine
 10
-153.2825955267649
 20
1015.908492925172
 30
0.0
 11
-153.282595526765
 21
862.9084929251693
 31
0.0
  0
LINE
  5
22DA0
330
18
100
AcDbEntity
  8
0
100
AcDbLine
 10
-159.2793725612281
 20
926.3965596502005
 30
0.0
 11
-159.2826825404341
 21
945.3965593618859
 31
0.0
  0
LINE
  5
22DA1
330
18
100
AcDbEntity
  8
0
100
AcDbLine
 10
-162.2828567043428
 20
946.3960367184155
 30
0.0
 11
-162.2791983062728
 21
925.3960370370792
 31
0.0
  0
LINE
  5
22DA2
330
18
100
AcDbEntity
  8
0
100
AcDbLine
 10
-154.279198427669
 20
925.3974307125345
 30
0.0
 11
-154.282856825739
 21
946.3974303938709
 31
0.0
  0
LINE
  5
22DA3
330
18
100
AcDbEntity
  8
0
100
AcDbLine
 10
-157.2828567802151
 20
946.396907765575
 30
0.0
 11
-157.2791983821451
 21
925.3969080842388
 31
0.0
  0
LINE
  5
22DA4
330
18
100
AcDbEntity
  8
0
100
AcDbLine
 10
-169.2826525242152
 20
945.2233886987393
 30
0.0
 11
-169.2794022739575
 21
926.5662461247087
 31
0.0
  0
LINE
  5
22DA5
330
18
100
AcDbEntity
  8
0
100
AcDbLine
 10
-168.2828566132956
 20
946.3949914618241
 30
0.0
 11
-172.781938212434
 21
941.1227790279438
 31
0.0
  0
ARC
  5
22DA6
330
18
100
AcDbEntity
  8
0
100
AcDbCircle
 10
-160.3090077649097
 20
946.0952957635441
 30
0.0
 40
9.015903847971634
100
AcDbArc
 50
185.5496147837552
 51
207.8304203210864
  0
LINE
  5
22DA7
330
18
100
AcDbEntity
  8
0
  6
BYBLOCK
100
AcDbLine
 10
-184.731690778599
 20
933.4084929284724
 30
0.0
 11
-344.3194752123681
 21
933.4084929284724
 31
0.0
  0
LINE
  5
22DA8
330
18
100
AcDbEntity
  8
0
  6
BYBLOCK
100
AcDbLine
 10
-184.731690778599
 20
938.4084929218724
 30
0.0
 11
-344.3194752123681
 21
938.4084929218721
 31
0.0
  0
LINE
  5
22DBA
330
18
100
AcDbEntity
  8
0
100
AcDbLine
 10
-168.2791982152256
 20
925.3949917804879
 30
0.0
 11
-172.7801164795176
 21
930.6656363294811
 31
0.0
  0
ARC
  5
22DBB
330
18
100
AcDbEntity
  8
0
  6
BYBLOCK
100
AcDbCircle
 10
-183.3265682252052
 20
934.6584929268225
 30
0.0
 40
1.880656636903949
100
AcDbArc
 50
138.3436407292488
 51
221.6563592707511
  0
LINE
  5
22DBC
330
18
100
AcDbEntity
  8
0
  6
BYBLOCK
100
AcDbLine
 10
-172.781938212434
 20
941.122779027944
 30
0.0
 11
-172.7801164795176
 21
930.6656363294811
 31
0.0
  0
ARC
  5
22DBD
330
18
100
AcDbEntity
  8
0
  6
BYBLOCK
100
AcDbCircle
 10
-181.4339486257287
 20
937.1584929235224
 30
0.0
 40
1.880656636903949
100
AcDbArc
 50
138.3436407292488
 51
221.6563592707511
  0
ARC
  5
22DBE
330
18
100
AcDbEntity
  8
0
  6
BYBLOCK
100
AcDbCircle
 10
-186.1368133319928
 20
937.1584929235224
 30
0.0
 40
1.880656636903949
100
AcDbArc
 50
318.3436407292488
 51
41.6563592707512
  0
ARC
  5
22DBF
330
18
100
AcDbEntity
  8
0
  6
BYBLOCK
100
AcDbCircle
 10
-184.2441937325162
 20
937.1584929235224
 30
0.0
 40
1.880656636903949
100
AcDbArc
 50
318.3436407292488
 51
41.6563592707512
  0
ARC
  5
22DC0
330
18
100
AcDbEntity
  8
0
  6
BYBLOCK
100
AcDbCircle
 10
-181.4339486257293
 20
934.6584929268225
 30
0.0
 40
1.880656636903949
100
AcDbArc
 50
138.3436407292488
 51
221.6563592707511
  0
ARC
  5
22DC1
330
18
100
AcDbEntity
  8
0
  6
BYBLOCK
100
AcDbCircle
 10
-186.1368133319928
 20
934.6584929268225
 30
0.0
 40
1.880656636903949
100
AcDbArc
 50
318.3436407292488
 51
41.6563592707512
  0
LINE
  5
22DC2
330
18
100
AcDbEntity
  8
0
  6
BYBLOCK
100
AcDbLine
 10
-172.782595526765
 20
933.4084929284726
 30
0.0
 11
-182.8390711791231
 21
933.4084929284724
 31
0.0
  0
LINE
  5
22DC3
330
18
100
AcDbEntity
  8
0
  6
BYBLOCK
100
AcDbLine
 10
-172.782595526765
 20
938.4084929218726
 30
0.0
 11
-182.8390711791224
 21
938.4084929218724
 31
0.0
  0
LINE
  5
22DC4
330
18
100
AcDbEntity
  8
0
100
AcDbLine
 10
-157.280248492916
 20
931.4247720377696
 30
0.0
 11
-154.2802485384398
 21
931.4252946660653
 31
0.0
  0
LINE
  5
22DC5
330
18
100
AcDbEntity
  8
0
100
AcDbLine
 10
-157.2799838622728
 20
929.9057346573677
 30
0.0
 11
-154.2799839077966
 21
929.9062572856636
 31
0.0
  0
LINE
  5
22DC6
330
18
100
AcDbEntity
  8
0
100
AcDbLine
 10
-154.279198427669
 20
925.3974307125345
 30
0.0
 11
-157.2791983821451
 21
925.3969080842388
 31
0.0
  0
LINE
  5
22DC7
330
18
100
AcDbEntity
  8
0
100
AcDbLine
 10
-154.2820713456111
 20
941.8886038207421
 30
0.0
 11
-157.2820713000872
 21
941.8880811924463
 31
0.0
  0
LINE
  5
22DC8
330
18
100
AcDbEntity
  8
0
100
AcDbLine
 10
-154.2818067149679
 20
940.36956644034
 30
0.0
 11
-157.2818066694441
 21
940.3690438120444
 31
0.0
  0
LINE
  5
22DC9
330
18
100
AcDbEntity
  8
0
100
AcDbLine
 10
-157.2797384313838
 20
928.4969080371984
 30
0.0
 11
-159.2797384010349
 21
928.4965596183345
 31
0.0
  0
LINE
  5
22DCA
330
18
100
AcDbEntity
  8
0
100
AcDbLine
 10
-157.282316730976
 20
943.2969078126165
 30
0.0
 11
-159.2823167006271
 21
943.2965593937526
 31
0.0
  0
ARC
  5
22DCB
330
18
100
AcDbEntity
  8
0
100
AcDbCircle
 10
-158.7810275584178
 20
935.8966466107592
 30
0.0
 40
10.50000000000042
100
AcDbArc
 50
154.801216168494
 51
205.2187467620018
  0
LINE
  5
22DCC
330
18
100
AcDbEntity
  8
0
100
AcDbLine
 10
-168.2802483259969
 20
931.4228557340188
 30
0.0
 11
-168.2799836953537
 21
929.9038183536168
 31
0.0
  0
LINE
  5
22DCD
330
18
100
AcDbEntity
  8
0
100
AcDbLine
 10
-168.2802483259969
 20
931.4228557340186
 30
0.0
 11
-162.2802484170437
 21
931.4239009906101
 31
0.0
  0
LINE
  5
22DCE
330
18
100
AcDbEntity
  8
0
100
AcDbLine
 10
-168.2799836953537
 20
929.9038183536168
 30
0.0
 11
-162.2799837864005
 21
929.9048636102083
 31
0.0
  0
LINE
  5
22DCF
330
18
100
AcDbEntity
  8
0
100
AcDbLine
 10
-162.2791983062728
 20
925.3960370370792
 30
0.0
 11
-168.2791982152256
 21
925.3949917804879
 31
0.0
  0
ARC
  5
22DD0
330
18
100
AcDbEntity
  8
0
100
AcDbCircle
 10
-160.3054542704684
 20
925.6974656998906
 30
0.0
 40
9.015903847971634
100
AcDbArc
 50
152.189542609415
 51
174.4703481467429
  0
LINE
  5
22DD1
330
18
100
AcDbEntity
  8
0
100
AcDbLine
 10
-168.2820711331681
 20
941.8861648886954
 30
0.0
 11
-168.281806502525
 21
940.3671275082935
 31
0.0
  0
LINE
  5
22DD2
330
18
100
AcDbEntity
  8
0
100
AcDbLine
 10
-162.2820712242149
 20
941.8872101452867
 30
0.0
 11
-168.2820711331681
 21
941.8861648886954
 31
0.0
  0
LINE
  5
22DD3
330
18
100
AcDbEntity
  8
0
100
AcDbLine
 10
-162.2818065935717
 20
940.3681727648848
 30
0.0
 11
-168.281806502525
 21
940.3671275082935
 31
0.0
  0
LINE
  5
22DD4
330
18
100
AcDbEntity
  8
0
100
AcDbLine
 10
-159.2793725612281
 20
926.3965596502005
 30
0.0
 11
-162.2793725157047
 21
926.3960370219049
 31
0.0
  0
LINE
  5
22DD5
330
18
100
AcDbEntity
  8
0
100
AcDbLine
 10
-153.2794597569908
 20
926.8976048992048
 30
0.0
 11
-154.2794597418168
 21
926.8974306897728
 31
0.0
  0
LINE
  5
22DD7
330
18
100
AcDbEntity
  8
0
100
AcDbLine
 10
-154.282856825739
 20
946.3974303938709
 30
0.0
 11
-157.2828567802151
 21
946.396907765575
 31
0.0
  0
LINE
  5
22DD8
330
18
100
AcDbEntity
  8
0
100
AcDbLine
 10
-162.2828567043428
 20
946.3960367184155
 30
0.0
 11
-168.282856613296
 21
946.3949914618241
 31
0.0
  0
LINE
  5
22DD9
330
18
100
AcDbEntity
  8
0
100
AcDbLine
 10
-159.2826825404341
 20
945.3965593618859
 30
0.0
 11
-162.2826824949107
 21
945.39603673359
 31
0.0
  0
LINE
  5
22DDA
330
18
100
AcDbEntity
  8
0
100
AcDbLine
 10
-153.282595526765
 20
944.8976046260645
 30
0.0
 11
-154.282595511591
 21
944.8974304166325
 31
0.0
  0
LINE
  5
22E14
330
18
100
AcDbEntity
  8
0
100
AcDbLine
 10
69.79679408851826
 20
812.9084929251694
 30
0.0
 11
202.7174044732408
 21
812.9084929251694
 31
0.0
  0
LINE
  5
22E7F
330
18
100
AcDbEntity
  8
0
100
AcDbLine
 10
29.6380148579575
 20
1218.908492925175
 30
0.0
 11
-103.282595526765
 21
1218.908492925175
 31
0.0
  0
LINE
  5
22E84
330
18
100
AcDbEntity
  8
0
  6
BYBLOCK
100
AcDbLine
 10
-295.9350470016443
 20
1093.908492925173
 30
0.0
 11
-186.6039145903854
 21
1093.908492925172
 31
0.0
  0
LINE
  5
22E85
330
18
100
AcDbEntity
  8
0
  6
BYBLOCK
100
AcDbLine
 10
-295.6460347258325
 20
1097.908492925172
 30
0.0
 11
-186.6039145903849
 21
1097.908492925172
 31
0.0
  0
LINE
  5
22E8F
330
18
100
AcDbEntity
  8
0
100
AcDbLine
 10
-168.2791982152258
 20
1085.394991780488
 30
0.0
 11
-172.7801164795176
 21
1090.665636329481
 31
0.0
  0
LINE
  5
22E90
330
18
100
AcDbEntity
  8
0
100
AcDbLine
 10
-168.2828566132956
 20
1106.394991461824
 30
0.0
 11
-172.781938212434
 21
1101.122779027944
 31
0.0
  0
ARC
  5
22E91
330
18
100
AcDbEntity
  8
0
  6
BYBLOCK
100
AcDbCircle
 10
-185.9474351515067
 20
1096.908492924772
 30
0.0
 40
1.504525310907322
100
AcDbArc
 50
318.3436407292488
 51
41.6563592707512
  0
LINE
  5
22E92
330
18
100
AcDbEntity
  8
0
  6
BYBLOCK
100
AcDbLine
 10
-184.8233371070458
 20
1093.908492925172
 30
0.0
 11
-172.7770211055868
 21
1093.908492925173
 31
0.0
  0
LINE
  5
22E93
330
18
100
AcDbEntity
  8
0
  6
BYBLOCK
100
AcDbLine
 10
-184.8233371070463
 20
1097.908492925172
 30
0.0
 11
-172.7777179433249
 21
1097.908492925172
 31
0.0
  0
ARC
  5
22E94
330
18
100
AcDbEntity
  8
0
  6
BYBLOCK
100
AcDbCircle
 10
-185.4798165459243
 20
1094.908492925573
 30
0.0
 40
1.504525310907322
100
AcDbArc
 50
138.3436407292488
 51
221.6563592707511
  0
ARC
  5
22E95
330
18
100
AcDbEntity
  8
0
  6
BYBLOCK
100
AcDbCircle
 10
-187.7280126334227
 20
1094.908492925573
 30
0.0
 40
1.504525310907322
100
AcDbArc
 50
318.3436407292488
 51
41.6563592707512
  0
ARC
  5
22E96
330
18
100
AcDbEntity
  8
0
  6
BYBLOCK
100
AcDbCircle
 10
-183.6992390640083
 20
1094.908492925572
 30
0.0
 40
1.504525310907322
100
AcDbArc
 50
138.3436407292488
 51
221.6563592707511
  0
ARC
  5
22E97
330
18
100
AcDbEntity
  8
0
  6
BYBLOCK
100
AcDbCircle
 10
-183.6992390640087
 20
1096.908492924772
 30
0.0
 40
1.504525310907322
100
AcDbArc
 50
138.3436407292488
 51
221.6563592707511
  0
ARC
  5
22E98
330
18
100
AcDbEntity
  8
0
  6
BYBLOCK
100
AcDbCircle
 10
-187.7280126334227
 20
1096.908492924772
 30
0.0
 40
1.504525310907322
100
AcDbArc
 50
318.3436407292488
 51
41.6563592707512
  0
LINE
  5
22E99
330
18
100
AcDbEntity
  8
0
  6
BYBLOCK
100
AcDbLine
 10
-172.781938212434
 20
1101.122779027944
 30
0.0
 11
-172.7801164795176
 21
1090.665636329481
 31
0.0
  0
LINE
  5
22E9A
330
18
100
AcDbEntity
  8
0
100
AcDbLine
 10
-162.2828567043428
 20
1106.396036718415
 30
0.0
 11
-162.2791983062728
 21
1085.396037037079
 31
0.0
  0
LINE
  5
22E9B
330
18
100
AcDbEntity
  8
0
100
AcDbLine
 10
-154.279198427669
 20
1085.397430712534
 30
0.0
 11
-154.282856825739
 21
1106.397430393871
 31
0.0
  0
LINE
  5
22E9C
330
18
100
AcDbEntity
  8
0
100
AcDbLine
 10
-157.2828567802151
 20
1106.396907765575
 30
0.0
 11
-157.2791983821451
 21
1085.396908084238
 31
0.0
  0
LINE
  5
22E9D
330
18
100
AcDbEntity
  8
0
100
AcDbLine
 10
-157.280248492916
 20
1091.424772037769
 30
0.0
 11
-154.2802485384398
 21
1091.425294666065
 31
0.0
  0
LINE
  5
22E9E
330
18
100
AcDbEntity
  8
0
100
AcDbLine
 10
-157.2799838622728
 20
1089.905734657367
 30
0.0
 11
-154.2799839077966
 21
1089.906257285663
 31
0.0
  0
LINE
  5
22E9F
330
18
100
AcDbEntity
  8
0
100
AcDbLine
 10
-154.279198427669
 20
1085.397430712534
 30
0.0
 11
-157.2791983821451
 21
1085.396908084238
 31
0.0
  0
LINE
  5
22EA0
330
18
100
AcDbEntity
  8
0
100
AcDbLine
 10
-154.2820713456111
 20
1101.888603820742
 30
0.0
 11
-157.2820713000872
 21
1101.888081192446
 31
0.0
  0
LINE
  5
22EA1
330
18
100
AcDbEntity
  8
0
100
AcDbLine
 10
-154.2818067149679
 20
1100.36956644034
 30
0.0
 11
-157.2818066694441
 21
1100.369043812044
 31
0.0
  0
LINE
  5
22EA2
330
18
100
AcDbEntity
  8
0
100
AcDbLine
 10
-159.2793725612281
 20
1086.3965596502
 30
0.0
 11
-159.2826825404341
 21
1105.396559361885
 31
0.0
  0
LINE
  5
22EA3
330
18
100
AcDbEntity
  8
0
100
AcDbLine
 10
-157.279738431384
 20
1088.496908037198
 30
0.0
 11
-159.2797384010351
 21
1088.496559618334
 31
0.0
  0
LINE
  5
22EA4
330
18
100
AcDbEntity
  8
0
100
AcDbLine
 10
-157.2823167309762
 20
1103.296907812616
 30
0.0
 11
-159.2823167006273
 21
1103.296559393752
 31
0.0
  0
LINE
  5
22EA5
330
18
100
AcDbEntity
  8
0
100
AcDbLine
 10
-168.2802483259969
 20
1091.422855734018
 30
0.0
 11
-162.2802484170437
 21
1091.42390099061
 31
0.0
  0
LINE
  5
22EA6
330
18
100
AcDbEntity
  8
0
100
AcDbLine
 10
-168.2799836953537
 20
1089.903818353617
 30
0.0
 11
-162.2799837864005
 21
1089.904863610208
 31
0.0
  0
LINE
  5
22EA7
330
18
100
AcDbEntity
  8
0
100
AcDbLine
 10
-162.2791983062728
 20
1085.396037037079
 30
0.0
 11
-168.2791982152258
 21
1085.394991780488
 31
0.0
  0
LINE
  5
22EA8
330
18
100
AcDbEntity
  8
0
100
AcDbLine
 10
-162.2820712242149
 20
1101.887210145287
 30
0.0
 11
-168.2820711331681
 21
1101.886164888695
 31
0.0
  0
LINE
  5
22EA9
330
18
100
AcDbEntity
  8
0
100
AcDbLine
 10
-162.2818065935717
 20
1100.368172764885
 30
0.0
 11
-168.281806502525
 21
1100.367127508293
 31
0.0
  0
LINE
  5
22EAA
330
18
100
AcDbEntity
  8
0
100
AcDbLine
 10
-169.2826525242152
 20
1105.223388698739
 30
0.0
 11
-169.2794022739575
 21
1086.566246124708
 31
0.0
  0
ARC
  5
22EAB
330
18
100
AcDbEntity
  8
0
100
AcDbCircle
 10
-160.30900776491
 20
1106.095295763544
 30
0.0
 40
9.015903847971634
100
AcDbArc
 50
185.5496147837552
 51
207.8304203210864
  0
ARC
  5
22EAC
330
18
100
AcDbEntity
  8
0
100
AcDbCircle
 10
-158.781027558418
 20
1095.896646610759
 30
0.0
 40
10.50000000000042
100
AcDbArc
 50
154.801216168494
 51
205.2187467620018
  0
LINE
  5
22EAD
330
18
100
AcDbEntity
  8
0
100
AcDbLine
 10
-168.2802483259969
 20
1091.422855734019
 30
0.0
 11
-168.2799836953537
 21
1089.903818353617
 31
0.0
  0
ARC
  5
22EAE
330
18
100
AcDbEntity
  8
0
100
AcDbCircle
 10
-160.3054542704686
 20
1085.69746569989
 30
0.0
 40
9.015903847971634
100
AcDbArc
 50
152.189542609415
 51
174.4703481467429
  0
LINE
  5
22EAF
330
18
100
AcDbEntity
  8
0
100
AcDbLine
 10
-168.2820711331681
 20
1101.886164888695
 30
0.0
 11
-168.281806502525
 21
1100.367127508293
 31
0.0
  0
LINE
  5
22EB0
330
18
100
AcDbEntity
  8
0
100
AcDbLine
 10
-159.2793725612281
 20
1086.3965596502
 30
0.0
 11
-162.2793725157047
 21
1086.396037021905
 31
0.0
  0
LINE
  5
22EB1
330
18
100
AcDbEntity
  8
0
100
AcDbLine
 10
-159.2826825404341
 20
1105.396559361885
 30
0.0
 11
-162.2826824949107
 21
1105.39603673359
 31
0.0
  0
LINE
  5
22EB2
330
18
100
AcDbEntity
  8
0
100
AcDbLine
 10
-153.2794597569908
 20
1086.897604899204
 30
0.0
 11
-154.279459741817
 21
1086.897430689772
 31
0.0
  0
LINE
  5
22EB3
330
18
100
AcDbEntity
  8
0
100
AcDbLine
 10
-153.282595526765
 20
1104.897604626064
 30
0.0
 11
-154.282595511591
 21
1104.897430416632
 31
0.0
  0
LINE
  5
22EB4
330
18
100
AcDbEntity
  8
0
100
AcDbLine
 10
-154.282856825739
 20
1106.397430393871
 30
0.0
 11
-157.2828567802151
 21
1106.396907765575
 31
0.0
  0
LINE
  5
22EB5
330
18
100
AcDbEntity
  8
0
100
AcDbLine
 10
-162.2828567043428
 20
1106.396036718415
 30
0.0
 11
-168.282856613296
 21
1106.394991461824
 31
0.0
  0
LINE
  5
22EC8
330
18
100
AcDbEntity
  8
中心線
100
AcDbLine
 10
-93.76312675076666
 20
1159.38902414917
 30
0.0
 11
-126.9322132384385
 21
1192.558110636842
 31
0.0
  0
CIRCLE
  5
22ECB
330
18
100
AcDbEntity
  8
0
100
AcDbCircle
 10
-109.3816212937393
 20
1175.007518692142
 30
0.0
 40
8.5
  0
LINE
  5
22EDB
330
18
100
AcDbEntity
  8
0
100
AcDbLine
 10
202.7174044732409
 20
1218.908492925175
 30
0.0
 11
69.63801485795793
 21
1218.908492925175
 31
0.0
  0
LINE
  5
22F2E
330
18
100
AcDbEntity
  8
0
100
AcDbLine
 10
252.7174044732408
 20
1015.908492925172
 30
0.0
 11
252.7174044732409
 21
1168.908492925175
 31
0.0
  0
CIRCLE
  5
22F30
330
18
100
AcDbEntity
  8
0
100
AcDbCircle
 10
208.8164302402152
 20
856.8094671582015
 30
0.0
 40
8.5
  0
LINE
  5
22F33
330
18
100
AcDbEntity
  8
0
100
AcDbLine
 10
252.7174044732409
 20
862.9084929251694
 30
0.0
 11
252.7174044732408
 21
1015.908492925172
 31
0.0
  0
CIRCLE
  5
22F5C
330
18
100
AcDbEntity
  8
0
100
AcDbCircle
 10
208.8164302402086
 20
1175.007518692149
 30
0.0
 40
8.5
  0
LINE
  5
23AC1
330
18
100
AcDbEntity
  8
0
100
AcDbLine
 10
-151.282595526762
 20
483.2427692718376
 30
0.0
 11
-151.282595526762
 21
482.7427692718374
 31
0.0
  0
LINE
  5
23AD6
330
18
100
AcDbEntity
  8
中心線
100
AcDbLine
 10
49.71740447323773
 20
530.9838618144968
 30
0.0
 11
49.71740447323748
 21
427.6427692718375
 31
0.0
  0
LINE
  5
23B08
330
18
100
AcDbEntity
  8
0
100
AcDbLine
 10
-156.2825955267624
 20
458.5427692718398
 30
0.0
 11
-156.2825955267621
 21
439.5427692718398
 31
0.0
  0
LINE
  5
23B09
330
18
100
AcDbEntity
  8
0
100
AcDbLine
 10
-161.2825955267621
 20
458.5427692718398
 30
0.0
 11
-161.2825955267621
 21
439.5427692718398
 31
0.0
  0
LINE
  5
23B0A
330
18
100
AcDbEntity
  8
0
100
AcDbLine
 10
-158.2825955267621
 20
458.5427692718398
 30
0.0
 11
-158.2825955267621
 21
439.5427692718398
 31
0.0
  0
ARC
  5
23B0B
330
18
100
AcDbEntity
  8
0
100
AcDbCircle
 10
-160.4563356705109
 20
453.7927692718396
 30
0.0
 40
7.84842809899344
100
AcDbArc
 50
150.4309251395753
 51
209.5690748604246
  0
LINE
  5
23B0C
330
18
100
AcDbEntity
  8
0
100
AcDbLine
 10
-168.2825955267621
 20
457.3713407004109
 30
0.0
 11
-168.2825955267621
 21
449.0427692718398
 31
0.0
  0
LINE
  5
23B0D
330
18
100
AcDbEntity
  8
0
100
AcDbLine
 10
-171.7825955267621
 20
453.2713407004108
 30
0.0
 11
-171.7825955267621
 21
444.8141978432686
 31
0.0
  0
LINE
  5
23B0F
330
18
100
AcDbEntity
  8
0
100
AcDbLine
 10
-153.282595526762
 20
458.0427692718374
 30
0.0
 11
-153.282595526762
 21
439.0427692718374
 31
0.0
  0
LINE
  5
23B12
330
18
100
AcDbEntity
  8
0
100
AcDbLine
 10
-158.2825955267621
 20
439.5427692718398
 30
0.0
 11
-161.2825955267621
 21
439.5427692718398
 31
0.0
  0
LINE
  5
23B13
330
18
100
AcDbEntity
  8
0
100
AcDbLine
 10
-167.2825955267621
 20
448.1657526180476
 30
0.0
 11
-167.2825955267621
 21
449.9197859256319
 31
0.0
  0
LINE
  5
23B14
330
18
100
AcDbEntity
  8
0
100
AcDbLine
 10
-167.2825955267621
 20
439.5427692718398
 30
0.0
 11
-171.7825955267621
 21
444.8141978432688
 31
0.0
  0
LINE
  5
23B15
330
18
100
AcDbEntity
  8
0
100
AcDbLine
 10
-167.2825955267621
 20
440.4197859256322
 30
0.0
 11
-167.2825955267621
 21
439.5427692718398
 31
0.0
  0
LINE
  5
23B16
330
18
100
AcDbEntity
  8
0
100
AcDbLine
 10
-168.2825955267621
 20
440.7141978432684
 30
0.0
 11
-168.2825955267621
 21
449.0427692718398
 31
0.0
  0
ARC
  5
23B17
330
18
100
AcDbEntity
  8
0
100
AcDbCircle
 10
-160.4563356705109
 20
444.29276927184
 30
0.0
 40
7.84842809899344
100
AcDbArc
 50
150.4309251395753
 51
209.5690748604246
  0
LINE
  5
23B18
330
18
100
AcDbEntity
  8
0
100
AcDbLine
 10
-161.2825955267621
 20
439.5427692718398
 30
0.0
 11
-167.2825955267621
 21
439.5427692718398
 31
0.0
  0
LINE
  5
23B19
330
18
100
AcDbEntity
  8
0
100
AcDbLine
 10
-167.2825955267621
 20
440.4197859256322
 30
0.0
 11
-161.2825955267621
 21
440.4197859256322
 31
0.0
  0
LINE
  5
23B1A
330
18
100
AcDbEntity
  8
0
100
AcDbLine
 10
-167.2825955267621
 20
449.9197859256319
 30
0.0
 11
-161.2825955267621
 21
449.9197859256319
 31
0.0
  0
LINE
  5
23B1B
330
18
100
AcDbEntity
  8
0
100
AcDbLine
 10
-167.2825955267621
 20
448.1657526180476
 30
0.0
 11
-161.2825955267621
 21
448.1657526180476
 31
0.0
  0
LINE
  5
23B1E
330
18
100
AcDbEntity
  8
0
100
AcDbLine
 10
-153.2825955267623
 20
439.5427692718398
 30
0.0
 11
-156.2825955267621
 21
439.5427692718398
 31
0.0
  0
LINE
  5
23B1F
330
18
100
AcDbEntity
  8
0
100
AcDbLine
 10
-156.2825955267621
 20
441.6427692718393
 30
0.0
 11
-158.2825955267621
 21
441.6427692718393
 31
0.0
  0
LINE
  5
23B25
330
18
100
AcDbEntity
  8
0
100
AcDbLine
 10
-158.2825955267621
 20
458.5427692718351
 30
0.0
 11
-161.2825955267621
 21
458.5427692718351
 31
0.0
  0
LINE
  5
23B26
330
18
100
AcDbEntity
  8
0
100
AcDbLine
 10
-161.2825955267621
 20
458.5427692718398
 30
0.0
 11
-167.2825955267621
 21
458.5427692718398
 31
0.0
  0
LINE
  5
23B27
330
18
100
AcDbEntity
  8
0
100
AcDbLine
 10
-167.2825955267621
 20
458.5427692718398
 30
0.0
 11
-171.7825955267621
 21
453.2713407004108
 31
0.0
  0
LINE
  5
23B28
330
18
100
AcDbEntity
  8
0
100
AcDbLine
 10
-167.2825955267621
 20
457.6657526180474
 30
0.0
 11
-167.2825955267621
 21
458.5427692718398
 31
0.0
  0
LINE
  5
23B29
330
18
100
AcDbEntity
  8
0
100
AcDbLine
 10
-167.2825955267621
 20
457.6657526180474
 30
0.0
 11
-161.2825955267621
 21
457.6657526180474
 31
0.0
  0
LINE
  5
23B2A
330
18
100
AcDbEntity
  8
0
100
AcDbLine
 10
-156.2825955267621
 20
456.4427692718394
 30
0.0
 11
-158.2825955267621
 21
456.4427692718394
 31
0.0
  0
LINE
  5
23B2B
330
18
100
AcDbEntity
  8
0
100
AcDbLine
 10
-153.2825955267621
 20
458.5427692718398
 30
0.0
 11
-156.2825955267621
 21
458.5427692718398
 31
0.0
  0
LINE
  5
23B54
330
18
100
AcDbEntity
  8
0
100
AcDbLine
 10
252.7174044732374
 20
439.0427692718374
 30
0.0
 11
49.71740447323753
 21
439.0427692718374
 31
0.0
  0
LINE
  5
23B5B
330
18
100
AcDbEntity
  8
0
100
AcDbLine
 10
-153.282595526762
 20
439.0427692718376
 30
0.0
 11
49.71740447323788
 21
439.0427692718374
 31
0.0
  0
LINE
  5
23BD3
330
18
100
AcDbEntity
  8
破線
100
AcDbLine
 10
17.21740447323716
 20
487.5427692718373
 30
0.0
 11
17.21740447323691
 21
440.5427692718374
 31
0.0
  0
LINE
  5
23BD8
330
18
100
AcDbEntity
  8
破線
100
AcDbLine
 10
82.21740447323773
 20
487.5427692718374
 30
0.0
 11
82.21740447323771
 21
440.5427692718372
 31
0.0
  0
LINE
  5
23C86
330
18
100
AcDbEntity
  8
0
100
AcDbLine
 10
252.2174044732376
 20
481.7427692718374
 30
0.0
 11
252.2174044732373
 21
460.3427692718375
 31
0.0
  0
LINE
  5
23C8E
330
18
100
AcDbEntity
  8
0
100
AcDbLine
 10
252.7174044732374
 20
458.0427692718374
 30
0.0
 11
252.7174044732374
 21
439.0427692718374
 31
0.0
  0
ARC
  5
23CB0
330
18
100
AcDbEntity
  8
0
100
AcDbCircle
 10
251.7174044732374
 20
458.0427692718374
 30
0.0
 40
1.0
100
AcDbArc
 50
0.0
 51
90.0
  0
LINE
  5
23CB1
330
18
100
AcDbEntity
  8
0
100
AcDbLine
 10
251.7174044732374
 20
459.0427692718375
 30
0.0
 11
249.7174044732374
 21
459.0427692718375
 31
0.0
  0
LINE
  5
23CDA
330
18
100
AcDbEntity
  8
0
100
AcDbLine
 10
49.71740447323788
 20
483.2427692718375
 30
0.0
 11
-151.282595526762
 21
483.2427692718375
 31
0.0
  0
LINE
  5
23CDB
330
18
100
AcDbEntity
  8
0
100
AcDbLine
 10
49.71740447323788
 20
482.7427692718374
 30
0.0
 11
-151.782595526762
 21
482.7427692718376
 31
0.0
  0
LINE
  5
23D08
330
18
100
AcDbEntity
  8
0
100
AcDbLine
 10
179.2174044732377
 20
487.5427692718374
 30
0.0
 11
49.71740447323765
 21
487.5427692718374
 31
0.0
  0
LINE
  5
23D0B
330
18
100
AcDbEntity
  8
0
100
AcDbLine
 10
-79.78259552676212
 20
487.5427692718374
 30
0.0
 11
49.71740447323776
 21
487.5427692718374
 31
0.0
  0
LINE
  5
23D12
330
18
100
AcDbEntity
  8
0
100
AcDbLine
 10
49.71740447323788
 20
484.5427692718374
 30
0.0
 11
-100.2825955267621
 21
484.5427692718374
 31
0.0
  0
LINE
  5
23D1D
330
18
100
AcDbEntity
  8
0
100
AcDbLine
 10
-100.2825955267622
 20
483.2427692718375
 30
0.0
 11
-100.2825955267622
 21
484.5427692718374
 31
0.0
  0
LINE
  5
23D2A
330
18
100
AcDbEntity
  8
0
100
AcDbLine
 10
-80.28259552676212
 20
487.0427692718374
 30
0.0
 11
-80.28259552676212
 21
484.5427692718374
 31
0.0
  0
LINE
  5
23D65
330
18
100
AcDbEntity
  8
0
100
AcDbLine
 10
49.71740447323795
 20
482.7427692718374
 30
0.0
 11
251.2174044732376
 21
482.7427692718374
 31
0.0
  0
LINE
  5
23D66
330
18
100
AcDbEntity
  8
0
100
AcDbLine
 10
49.71740447323788
 20
483.2427692718375
 30
0.0
 11
250.7174044732374
 21
483.2427692718375
 31
0.0
  0
LINE
  5
23DA0
330
18
100
AcDbEntity
  8
0
100
AcDbLine
 10
49.71740447323782
 20
484.5427692718374
 30
0.0
 11
199.7174044732376
 21
484.5427692718374
 31
0.0
  0
LINE
  5
23DAE
330
18
100
AcDbEntity
  8
0
100
AcDbLine
 10
179.7174044732377
 20
487.0427692718374
 30
0.0
 11
179.7174044732377
 21
484.5427692718374
 31
0.0
  0
LINE
  5
23DB5
330
18
100
AcDbEntity
  8
0
100
AcDbLine
 10
199.7174044732377
 20
483.2427692718375
 30
0.0
 11
199.7174044732377
 21
484.5427692718374
 31
0.0
  0
LINE
  5
23DC8
330
18
100
AcDbEntity
  8
0
100
AcDbLine
 10
250.7174044732374
 20
483.2427692718375
 30
0.0
 11
250.7174044732374
 21
482.7427692718374
 31
0.0
  0
LINE
  5
23F85
330
18
100
AcDbEntity
  8
0
100
AcDbLine
 10
-152.782595526762
 20
481.7427692718375
 30
0.0
 11
-152.782595526762
 21
460.3427692718375
 31
0.0
  0
LINE
  5
23FA4
330
18
100
AcDbEntity
  8
0
100
AcDbLine
 10
-153.282595526762
 20
439.0427692718376
 30
0.0
 11
-153.2825955267621
 21
458.0427692718374
 31
0.0
  0
ARC
  5
23FA5
330
18
100
AcDbEntity
  8
0
100
AcDbCircle
 10
-152.2825955267621
 20
458.0427692718374
 30
0.0
 40
1.0
100
AcDbArc
 50
90.0
 51
180.0
  0
LINE
  5
23FA8
330
18
100
AcDbEntity
  8
中心線
100
AcDbLine
 10
-109.3816212937322
 20
434.0427692718375
 30
0.0
 11
-109.3816212937322
 21
464.0427692718374
 31
0.0
  0
LINE
  5
23FAE
330
18
100
AcDbEntity
  8
中心線
100
AcDbLine
 10
208.8164302402081
 20
434.0427692718375
 30
0.0
 11
208.8164302402081
 21
464.0427692718374
 31
0.0
  0
ARC
  5
23FB0
330
18
100
AcDbEntity
  8
0
100
AcDbCircle
 10
251.7174044732378
 20
458.0427692718374
 30
0.0
 40
1.0
100
AcDbArc
 50
0.0
 51
90.0
  0
LINE
  5
23FB1
330
18
100
AcDbEntity
  8
0
100
AcDbLine
 10
252.7174044732378
 20
458.0427692718374
 30
0.0
 11
252.7174044732378
 21
439.0427692718374
 31
0.0
  0
LINE
  5
23FB2
330
18
100
AcDbEntity
  8
0
100
AcDbLine
 10
-152.2825955267621
 20
459.0427692718375
 30
0.0
 11
49.71740447323756
 21
459.0427692718375
 31
0.0
  0
CIRCLE
  5
24581
330
18
100
AcDbEntity
  8
0
100
AcDbCircle
 10
49.71740447323793
 20
1015.908492925172
 30
0.0
 40
150.0
  0
CIRCLE
  5
24587
330
18
100
AcDbEntity
  8
細線
 48
5.0
100
AcDbCircle
 10
29.71740447323827
 20
1050.549509076549
 30
0.0
 40
5.0
  0
CIRCLE
  5
24588
330
18
100
AcDbEntity
  8
0
100
AcDbCircle
 10
29.71740447323827
 20
1050.549509076549
 30
0.0
 40
5.588235294117647
  0
CIRCLE
  5
24589
330
18
100
AcDbEntity
  8
細線
 48
5.0
100
AcDbCircle
 10
69.71740447323805
 20
981.2674767737943
 30
0.0
 40
5.0
  0
CIRCLE
  5
2458A
330
18
100
AcDbEntity
  8
0
100
AcDbCircle
 10
69.71740447323805
 20
981.2674767737943
 30
0.0
 40
5.588235294117647
  0
CIRCLE
  5
2458F
330
18
100
AcDbEntity
  8
中心線
100
AcDbCircle
 10
49.71740447323793
 20
1015.908492925172
 30
0.0
 40
110.0
  0
CIRCLE
  5
24590
330
18
100
AcDbEntity
  8
0
100
AcDbCircle
 10
49.71740447323793
 20
1015.908492925172
 30
0.0
 40
130.0
  0
CIRCLE
  5
245AE
330
18
100
AcDbEntity
  8
細線
 48
5.0
100
AcDbCircle
 10
-60.28259552676207
 20
1015.908492925174
 30
0.0
 40
4.0
  0
CIRCLE
  5
245AF
330
18
100
AcDbEntity
  8
0
100
AcDbCircle
 10
-60.28259552676207
 20
1015.908492925174
 30
0.0
 40
3.277999999999999
  0
CIRCLE
  5
245BA
330
18
100
AcDbEntity
  8
0
100
AcDbCircle
 10
29.7174044732381
 20
981.2674767737947
 30
0.0
 40
5.588235294117647
  0
CIRCLE
  5
245BC
330
18
100
AcDbEntity
  8
細線
 48
5.0
100
AcDbCircle
 10
-5.282595526763543
 20
920.6456985088848
 30
0.0
 40
4.0
  0
LINE
  5
245BD
330
18
100
AcDbEntity
  8
CENTER
100
AcDbLine
 10
-1.004088374118168
 20
928.0562902778102
 30
0.0
 11
-9.533955088231437
 21
913.2821277471753
 31
0.0
  0
CIRCLE
  5
245BE
330
18
100
AcDbEntity
  8
0
100
AcDbCircle
 10
-5.282595526763543
 20
920.6456985088848
 30
0.0
 40
3.277999999999999
  0
LWPOLYLINE
  5
245C1
330
18
100
AcDbEntity
  8
細線
 48
5.0
100
AcDbPolyline
 90
        6
 70
     1
 43
0.0
 10
26.99960871134038
 20
981.2674767737943
 10
28.35850659228907
 20
978.9137966016939
 10
31.07630235418685
 20
978.9137966016939
 10
32.43520023513582
 20
981.2674767737954
 10
31.07630235418616
 20
983.6211569458956
 10
28.35850659228907
 20
983.6211569458951
  0
CIRCLE
  5
245C2
330
18
100
AcDbEntity
  8
細線
 48
5.0
100
AcDbCircle
 10
29.7174044732381
 20
981.2674767737947
 30
0.0
 40
5.0
  0
CIRCLE
  5
245C4
330
18
100
AcDbEntity
  8
0
100
AcDbCircle
 10
9.717404473238218
 20
1015.908492925172
 30
0.0
 40
5.588235294117647
  0
CIRCLE
  5
245C5
330
18
100
AcDbEntity
  8
細線
 48
5.0
100
AcDbCircle
 10
-5.282595526760928
 20
1111.171287341461
 30
0.0
 40
4.0
  0
LINE
  5
245C6
330
18
100
AcDbEntity
  8
CENTER
100
AcDbLine
 10
-1.004088374118168
 20
1103.760695572534
 30
0.0
 11
-9.533955088231664
 21
1118.534858103169
 31
0.0
  0
CIRCLE
  5
245CB
330
18
100
AcDbEntity
  8
0
100
AcDbCircle
 10
-5.282595526760928
 20
1111.171287341461
 30
0.0
 40
3.277999999999999
  0
CIRCLE
  5
245CF
330
18
100
AcDbEntity
  8
細線
 48
5.0
100
AcDbCircle
 10
9.717404473238218
 20
1015.908492925172
 30
0.0
 40
5.0
  0
LWPOLYLINE
  5
245D0
330
18
100
AcDbEntity
  8
細線
 48
5.0
100
AcDbPolyline
 90
        6
 70
     1
 43
0.0
 10
8.358506592289188
 20
1018.262173097273
 10
6.99960871134084
 20
1015.908492925172
 10
8.358506592289813
 20
1013.554812753071
 10
11.07630235418781
 20
1013.554812753071
 10
12.43520023513542
 20
1015.908492925172
 10
11.07630235418662
 20
1018.262173097273
  0
CIRCLE
  5
245E4
330
18
100
AcDbEntity
  8
0
100
AcDbCircle
 10
89.7174044732381
 20
1015.908492925172
 30
0.0
 40
5.588235294117647
  0
CIRCLE
  5
245E5
330
18
100
AcDbEntity
  8
細線
 48
5.0
100
AcDbCircle
 10
89.7174044732381
 20
1015.908492925172
 30
0.0
 40
5.0
  0
LWPOLYLINE
  5
245E6
330
18
100
AcDbEntity
  8
細線
 48
5.0
100
AcDbPolyline
 90
        6
 70
     1
 43
0.0
 10
91.07630235418708
 20
1013.55481275307
 10
92.43520023513553
 20
1015.908492925171
 10
91.07630235418662
 20
1018.262173097272
 10
88.35850659228857
 20
1018.262173097272
 10
86.9996087113409
 20
1015.908492925171
 10
88.3585065922897
 20
1013.55481275307
  0
LWPOLYLINE
  5
245E8
330
18
100
AcDbEntity
  8
細線
 48
5.0
100
AcDbPolyline
 90
        6
 70
     1
 43
0.0
 10
68.3585065922893
 20
978.9137966016934
 10
71.07630235418639
 20
978.9137966016934
 10
72.43520023513525
 20
981.2674767737945
 10
71.07630235418622
 20
983.621156945896
 10
68.35850659228885
 20
983.6211569458949
 10
66.99960871134061
 20
981.2674767737942
  0
CIRCLE
  5
245E9
330
18
100
AcDbEntity
  8
0
100
AcDbCircle
 10
104.7174044732396
 20
920.645698508885
 30
0.0
 40
3.277999999999999
  0
CIRCLE
  5
245EA
330
18
100
AcDbEntity
  8
細線
 48
5.0
100
AcDbCircle
 10
104.7174044732396
 20
920.645698508885
 30
0.0
 40
4.0
  0
LINE
  5
245EB
330
18
100
AcDbEntity
  8
CENTER
100
AcDbLine
 10
100.4388973205945
 20
928.0562902778104
 30
0.0
 11
108.9687640347077
 21
913.2821277471757
 31
0.0
  0
CIRCLE
  5
245EC
330
18
100
AcDbEntity
  8
細線
 48
5.0
100
AcDbCircle
 10
69.71740447323816
 20
1050.549509076549
 30
0.0
 40
5.0
  0
LWPOLYLINE
  5
245ED
330
18
100
AcDbEntity
  8
細線
 48
5.0
100
AcDbPolyline
 90
        6
 70
     1
 43
0.0
 10
72.43520023513593
 20
1050.549509076549
 10
71.07630235418736
 20
1052.90318924865
 10
68.35850659228947
 20
1052.90318924865
 10
66.99960871134044
 20
1050.549509076548
 10
68.35850659229016
 20
1048.195828904448
 10
71.07630235418736
 20
1048.195828904448
  0
CIRCLE
  5
245EF
330
18
100
AcDbEntity
  8
0
100
AcDbCircle
 10
69.71740447323816
 20
1050.549509076549
 30
0.0
 40
5.588235294117647
  0
LWPOLYLINE
  5
245F0
330
18
100
AcDbEntity
  8
細線
 48
5.0
100
AcDbPolyline
 90
        6
 70
     1
 43
0.0
 10
31.07630235418696
 20
1052.90318924865
 10
28.35850659228981
 20
1052.90318924865
 10
26.99960871134101
 20
1050.549509076549
 10
28.35850659229015
 20
1048.195828904447
 10
31.07630235418742
 20
1048.195828904449
 10
32.43520023513565
 20
1050.54950907655
  0
CIRCLE
  5
245F3
330
18
100
AcDbEntity
  8
0
100
AcDbCircle
 10
104.7174044732365
 20
1111.171287341461
 30
0.0
 40
3.277999999999999
  0
CIRCLE
  5
245F4
330
18
100
AcDbEntity
  8
細線
 48
5.0
100
AcDbCircle
 10
104.7174044732365
 20
1111.171287341461
 30
0.0
 40
4.0
  0
LINE
  5
245F5
330
18
100
AcDbEntity
  8
CENTER
100
AcDbLine
 10
100.4388973205945
 20
1103.760695572534
 30
0.0
 11
108.9687640347072
 21
1118.534858103169
 31
0.0
  0
CIRCLE
  5
245F9
330
18
100
AcDbEntity
  8
0
100
AcDbCircle
 10
159.7174044732376
 20
1015.908492925174
 30
0.0
 40
3.277999999999999
  0
CIRCLE
  5
245FA
330
18
100
AcDbEntity
  8
細線
 48
5.0
100
AcDbCircle
 10
159.7174044732376
 20
1015.908492925174
 30
0.0
 40
4.0
  0
LINE
  5
247BE
330
18
100
AcDbEntity
  8
0
100
AcDbLine
 10
-79.78259552676212
 20
487.5427692718374
 30
0.0
 11
-80.28259552676212
 21
487.0427692718374
 31
0.0
  0
LINE
  5
247BF
330
18
100
AcDbEntity
  8
0
100
AcDbLine
 10
179.2174044732377
 20
487.5427692718374
 30
0.0
 11
179.7174044732377
 21
487.0427692718374
 31
0.0
  0
ARC
  5
24968
330
18
100
AcDbEntity
  8
中心線
100
AcDbCircle
 10
49.24579086709111
 20
1016.381508687313
 30
0.0
 40
224.9999999999996
100
AcDbArc
 50
37.83316607713425
 51
51.82664732998828
  0
ARC
  5
24969
330
18
100
AcDbEntity
  8
中心線
100
AcDbCircle
 10
49.24438871109646
 20
1015.436879319025
 30
0.0
 40
224.9999999999996
100
AcDbArc
 50
127.8331660771341
 51
141.8266473299882
  0
ARC
  5
2496A
330
18
100
AcDbEntity
  8
中心線
100
AcDbCircle
 10
50.18901807938477
 20
1015.43547716303
 30
0.0
 40
224.9999999999996
100
AcDbArc
 50
217.8331660771341
 51
231.8266473299882
  0
TEXT
  5
25835
330
18
100
AcDbEntity
  8
A
100
AcDbText
 10
994.0607330628463
 20
1410.353952564317
 30
0.0
 40
2.5
  1

  7
MSｺ_ｼｯｸ
100
AcDbText
  0
TEXT
  5
25836
330
18
100
AcDbEntity
  8
A
100
AcDbText
 10
986.2357330628462
 20
1410.353952564317
 30
0.0
 40
2.5
  1

 41
0.5
  7
MSｺ_ｼｯｸ
100
AcDbText
  0
TEXT
  5
25837
330
18
100
AcDbEntity
  8
A
100
AcDbText
 10
1134.160833013217
 20
1840.320972682679
 30
0.0
 40
3.524999999999999
  1
�    
100
AcDbText
  0
MTEXT
  5
25838
330
18
100
AcDbEntity
  8
0
  6
BYBLOCK
100
AcDbMText
 10
1292.465721936469
 20
1858.318002276568
 30
0.0
 40
2.0
 41
0.0
 71
     4
 72
     5
  1

 11
-0.0000000000000002
 21
-1.0
 31
0.0
1001
ACAD
1000
MTEXTBEGIN
1070
    73
1070
     1
1070
    44
1040
1.0
1070
    74
1070
     0
1000
MTEXTEND
1000
MTEXTBEGIN
1070
    73
1070
     1
1070
    44
1040
1.0
1070
    74
1070
     0
1000
MTEXTEND
  0
MTEXT
  5
25839
330
18
100
AcDbEntity
  8
0
  6
BYBLOCK
100
AcDbMText
 10
1327.931110299622
 20
1847.524693918151
 30
0.0
 40
2.0
 41
0.0
 71
     7
 72
     5
  1

 11
0.0000000000000001
 21
1.0
 31
0.0
1001
ACAD
1000
MTEXTBEGIN
1070
    73
1070
     1
1070
    44
1040
1.0
1070
    74
1070
     0
1000
MTEXTEND
1000
MTEXTBEGIN
1070
    73
1070
     1
1070
    44
1040
1.0
1070
    74
1070
     0
1000
MTEXTEND
  0
MTEXT
  5
2583A
330
18
100
AcDbEntity
  8
0
100
AcDbMText
 10
1292.151612314954
 20
1772.745183375861
 30
0.0
 40
2.0
 41
10.1453
 71
     1
 72
     5
  1

 11
-0.0000000000000002
 21
-1.0
 31
0.0
1001
ACAD
1000
MTEXTBEGIN
1070
    73
1070
     1
1070
    44
1040
1.0
1070
    74
1070
     0
1000
MTEXTEND
1000
MTEXTBEGIN
1070
    73
1070
     1
1070
    44
1040
1.0
1070
    74
1070
     0
1000
MTEXTEND
  0
MTEXT
  5
2583B
330
18
100
AcDbEntity
  8
0
100
AcDbMText
 10
1247.752120561804
 20
1741.113699782872
 30
0.0
 40
2.0
 41
0.0
 71
     1
 72
     5
  1

1001
ACAD
1000
MTEXTBEGIN
1070
    73
1070
     1
1070
    44
1040
1.0
1070
    74
1070
     0
1000
MTEXTEND
1000
MTEXTBEGIN
1070
    73
1070
     1
1070
    44
1040
1.0
1070
    74
1070
     0
1000
MTEXTEND
  0
MTEXT
  5
2583C
330
18
100
AcDbEntity
  8
0
  6
CENTER
100
AcDbMText
 10
1573.340397745567
 20
1842.046226527297
 30
0.0
 40
2.0
 41
15.6417
 71
     1
 72
     5
  1

  7
BIGFONT
1001
ACAD
1000
MTEXTBEGIN
1070
    73
1070
     1
1070
    44
1040
1.0
1070
    74
1070
     0
1000
MTEXTEND
1000
MTEXTBEGIN
1070
    73
1070
     1
1070
    44
1040
1.0
1070
    74
1070
     0
1000
MTEXTEND
  0
MTEXT
  5
2583D
330
18
100
AcDbEntity
  8
0
  6
DASHDOT
100
AcDbMText
 10
1335.662456801395
 20
1948.835721355074
 30
0.0
 40
1.0
 41
2.0
 71
     1
 72
     5
  1

  7
BIGFONT
1001
ACAD
1000
MTEXTBEGIN
1070
    73
1070
     1
1070
    44
1040
1.0
1070
    74
1070
     0
1000
MTEXTEND
1000
MTEXTBEGIN
1070
    73
1070
     1
1070
    44
1040
1.0
1070
    74
1070
     0
1000
MTEXTEND
  0
MTEXT
  5
2583E
330
18
100
AcDbEntity
  8
0
  6
BYBLOCK
100
AcDbMText
 10
1292.465634931519
 20
1858.318002276568
 30
0.0
 40
2.0
 41
0.0
 71
     4
 72
     5
  1

 11
-0.0000000000000002
 21
-1.0
 31
0.0
1001
ACAD
1000
MTEXTBEGIN
1070
    73
1070
     1
1070
    44
1040
1.0
1070
    74
1070
     0
1000
MTEXTEND
1000
MTEXTBEGIN
1070
    73
1070
     1
1070
    44
1040
1.0
1070
    74
1070
     0
1000
MTEXTEND
  0
MTEXT
  5
2583F
330
18
100
AcDbEntity
  8
0
  6
BYBLOCK
100
AcDbMText
 10
1327.931023294672
 20
1847.524693918151
 30
0.0
 40
2.0
 41
0.0
 71
     7
 72
     5
  1

 11
0.0000000000000001
 21
1.0
 31
0.0
1001
ACAD
1000
MTEXTBEGIN
1070
    73
1070
     1
1070
    44
1040
1.0
1070
    74
1070
     0
1000
MTEXTEND
1000
MTEXTBEGIN
1070
    73
1070
     1
1070
    44
1040
1.0
1070
    74
1070
     0
1000
MTEXTEND
  0
MTEXT
  5
25840
330
18
100
AcDbEntity
  8
0
100
AcDbMText
 10
1292.151525310004
 20
1772.745183375861
 30
0.0
 40
2.0
 41
10.1453
 71
     1
 72
     5
  1

 11
-0.0000000000000002
 21
-1.0
 31
0.0
1001
ACAD
1000
MTEXTBEGIN
1070
    73
1070
     1
1070
    44
1040
1.0
1070
    74
1070
     0
1000
MTEXTEND
1000
MTEXTBEGIN
1070
    73
1070
     1
1070
    44
1040
1.0
1070
    74
1070
     0
1000
MTEXTEND
  0
MTEXT
  5
25841
330
18
100
AcDbEntity
  8
0
100
AcDbMText
 10
1247.752033556854
 20
1741.113699782872
 30
0.0
 40
2.0
 41
0.0
 71
     1
 72
     5
  1

1001
ACAD
1000
MTEXTBEGIN
1070
    73
1070
     1
1070
    44
1040
1.0
1070
    74
1070
     0
1000
MTEXTEND
1000
MTEXTBEGIN
1070
    73
1070
     1
1070
    44
1040
1.0
1070
    74
1070
     0
1000
MTEXTEND
  0
MTEXT
  5
25842
330
18
100
AcDbEntity
  8
0
  6
CENTER
100
AcDbMText
 10
1573.340310740617
 20
1842.046226527297
 30
0.0
 40
2.0
 41
15.6417
 71
     1
 72
     5
  1

  7
BIGFONT
1001
ACAD
1000
MTEXTBEGIN
1070
    73
1070
     1
1070
    44
1040
1.0
1070
    74
1070
     0
1000
MTEXTEND
1000
MTEXTBEGIN
1070
    73
1070
     1
1070
    44
1040
1.0
1070
    74
1070
     0
1000
MTEXTEND
  0
MTEXT
  5
25843
330
18
100
AcDbEntity
  8
0
  6
DASHDOT
100
AcDbMText
 10
1335.662369796445
 20
1948.835721355074
 30
0.0
 40
1.0
 41
2.0
 71
     1
 72
     5
  1

  7
BIGFONT
1001
ACAD
1000
MTEXTBEGIN
1070
    73
1070
     1
1070
    44
1040
1.0
1070
    74
1070
     0
1000
MTEXTEND
1000
MTEXTBEGIN
1070
    73
1070
     1
1070
    44
1040
1.0
1070
    74
1070
     0
1000
MTEXTEND
  0
INSERT
  5
25844
330
18
100
AcDbEntity
  8
FRAME025
100
AcDbBlockReference
  2
機械A4横_LBP
 10
1237.980239678167
 20
1632.695120267091
 30
0.0
  0
TEXT
  5
25C9F
330
18
100
AcDbEntity
  8
寸法線
100
AcDbText
 10
329.7745613450056
 20
406.6635612206971
 30
0.0
 40
9.0
  1

 50
90.0
100
AcDbText
  0
LINE
  5
26612
330
18
100
AcDbEntity
  8
２点鎖線
 48
0.5
100
AcDbLine
 10
39.69348180915455
 20
518.7127656303649
 30
0.0
 11
59.69348180915455
 21
518.7127656303649
 31
0.0
  0
LINE
  5
26613
330
18
100
AcDbEntity
  8
中心線
100
AcDbLine
 10
73.81193514550915
 20
498.7127656303646
 30
0.0
 11
25.72951872201457
 21
498.7127656303646
 31
0.0
  0
LINE
  5
26614
330
18
100
AcDbEntity
  8
中心線
 48
0.5
100
AcDbLine
 10
65.67319117587562
 20
475.5427692718382
 30
0.0
 11
32.87941950263433
 21
475.5427692718382
 31
0.0
  0
LINE
  5
26615
330
18
100
AcDbEntity
  8
２点鎖線
 48
0.5
100
AcDbLine
 10
66.69348180915466
 20
468.5427692718377
 30
0.0
 11
32.69348180915443
 21
468.5427692718377
 31
0.0
  0
CIRCLE
  5
26616
330
18
100
AcDbEntity
  8
２点鎖線
 48
0.5
100
AcDbCircle
 10
49.69348180923436
 20
498.7127656303644
 30
0.0
 40
10.0
  0
LINE
  5
26617
330
18
100
AcDbEntity
  8
２点鎖線
 48
0.5
100
AcDbLine
 10
29.69348180915443
 20
471.5427692718377
 30
0.0
 11
29.69348180915455
 21
508.7127656303648
 31
0.0
  0
CIRCLE
  5
26618
330
18
100
AcDbEntity
  8
２点鎖線
 48
0.5
100
AcDbCircle
 10
39.71740447323765
 20
475.5427692718382
 30
0.0
 40
4.25
  0
LINE
  5
26619
330
18
100
AcDbEntity
  8
中心線
 48
0.5
100
AcDbLine
 10
39.71740447323765
 20
481.623254472938
 30
0.0
 11
39.71740447323765
 21
469.5951412738773
 31
0.0
  0
LINE
  5
2661A
330
18
100
AcDbEntity
  8
２点鎖線
 48
0.5
100
AcDbLine
 10
32.69348180915443
 20
468.5427692718377
 30
0.0
 11
29.69348180915443
 21
471.5427692718377
 31
0.0
  0
LINE
  5
2661B
330
18
100
AcDbEntity
  8
２点鎖線
 48
0.5
100
AcDbLine
 10
39.69348180915455
 20
518.7127656303649
 30
0.0
 11
29.69348180915455
 21
508.7127656303648
 31
0.0
  0
LINE
  5
2661C
330
18
100
AcDbEntity
  8
２点鎖線
 48
0.5
100
AcDbLine
 10
69.69348180915455
 20
508.7127656303648
 30
0.0
 11
69.69348180915466
 21
471.5427692718377
 31
0.0
  0
LINE
  5
2661D
330
18
100
AcDbEntity
  8
２点鎖線
 48
0.5
100
AcDbLine
 10
66.69348180915466
 20
468.5427692718377
 30
0.0
 11
69.69348180915466
 21
471.5427692718377
 31
0.0
  0
LINE
  5
2661E
330
18
100
AcDbEntity
  8
中心線
 48
0.5
100
AcDbLine
 10
59.71740447323765
 20
481.623254472938
 30
0.0
 11
59.71740447323765
 21
469.5951412738773
 31
0.0
  0
CIRCLE
  5
2661F
330
18
100
AcDbEntity
  8
２点鎖線
 48
0.5
100
AcDbCircle
 10
59.71740447323765
 20
475.5427692718382
 30
0.0
 40
4.25
  0
LINE
  5
26620
330
18
100
AcDbEntity
  8
２点鎖線
 48
0.5
100
AcDbLine
 10
69.69348180915455
 20
508.7127656303648
 30
0.0
 11
59.69348180915455
 21
518.7127656303649
 31
0.0
  0
LINE
  5
26643
102
{ACAD_REACTORS
330
26661
102
}
330
18
100
AcDbEntity
  8
仮想線
 48
0.5
100
AcDbLine
 10
64.04679408851811
 20
806.6084982327248
 30
0.0
 11
64.04679408851811
 21
801.908498232725
 31
0.0
  0
LINE
  5
26644
102
{ACAD_REACTORS
330
26661
102
}
330
18
100
AcDbEntity
  8
仮想線
  6
BYBLOCK
 48
0.5
100
AcDbLine
 10
69.79679408851857
 20
813.4085034984739
 30
0.0
 11
29.79679408851856
 21
813.4084824354797
 31
0.0
  0
LINE
  5
26645
102
{ACAD_REACTORS
330
26661
102
}
330
18
100
AcDbEntity
  8
仮想線
 48
0.5
100
AcDbLine
 10
69.79679408851879
 20
808.908503498473
 30
0.0
 11
29.7967940885181
 21
808.9084824354793
 31
0.0
  0
LINE
  5
26646
102
{ACAD_REACTORS
330
26661
102
}
330
18
100
AcDbEntity
  8
仮想線
 48
0.5
100
AcDbLine
 10
64.31740447323758
 20
806.6084982327248
 30
0.0
 11
55.11740447323776
 21
806.6084982327248
 31
0.0
  0
LINE
  5
26647
102
{ACAD_REACTORS
330
26661
102
}
330
18
100
AcDbEntity
  8
仮想線
 48
0.5
100
AcDbLine
 10
59.71740447323767
 20
807.9084982327239
 30
0.0
 11
54.71740447323767
 21
807.908498232725
 31
0.0
  0
LINE
  5
26648
102
{ACAD_REACTORS
330
26661
102
}
330
18
100
AcDbEntity
  8
仮想線
 48
0.5
100
AcDbLine
 10
35.11740447323798
 20
806.6084982327248
 30
0.0
 11
44.31740447323781
 21
806.6084982327248
 31
0.0
  0
LINE
  5
26649
102
{ACAD_REACTORS
330
26661
102
}
330
18
100
AcDbEntity
  8
仮想線
 48
0.5
100
AcDbLine
 10
39.71740447323767
 20
807.9084982327239
 30
0.0
 11
44.7174044732379
 21
807.908498232725
 31
0.0
  0
LINE
  5
2664A
102
{ACAD_REACTORS
330
26661
102
}
330
18
100
AcDbEntity
  8
仮想線
 48
0.5
100
AcDbLine
 10
35.68801485795765
 20
801.6084982327248
 30
0.0
 11
43.58801485795728
 21
801.6084982327248
 31
0.0
  0
LINE
  5
2664B
102
{ACAD_REACTORS
330
26661
102
}
330
18
100
AcDbEntity
  8
仮想線
  6
BYBLOCK
 48
0.5
100
AcDbLine
 10
29.7967940885181
 20
808.9084824354793
 30
0.0
 11
29.79679408851856
 21
813.4084824354797
 31
0.0
  0
LINE
  5
2664C
102
{ACAD_REACTORS
330
26661
102
}
330
18
100
AcDbEntity
  8
仮想線
 48
0.5
100
AcDbLine
 10
34.71740447323812
 20
808.908498232725
 30
0.0
 11
34.7174044732379
 21
807.908498232725
 31
0.0
  0
LINE
  5
2664D
102
{ACAD_REACTORS
330
26661
102
}
330
18
100
AcDbEntity
  8
仮想線
 48
0.5
100
AcDbLine
 10
35.11740447323798
 20
807.9084982327245
 30
0.0
 11
35.11740447323798
 21
806.6084982327248
 31
0.0
  0
LINE
  5
2664E
102
{ACAD_REACTORS
330
26661
102
}
330
18
100
AcDbEntity
  8
仮想線
 48
0.5
100
AcDbLine
 10
34.7174044732379
 20
807.908498232725
 30
0.0
 11
39.71740447323767
 21
807.9084982327241
 31
0.0
  0
LINE
  5
2664F
102
{ACAD_REACTORS
330
26661
102
}
330
18
100
AcDbEntity
  8
仮想線
 48
0.5
100
AcDbLine
 10
35.68801485795765
 20
801.6084982327248
 30
0.0
 11
35.38801485795746
 21
801.908498232725
 31
0.0
  0
LINE
  5
26650
102
{ACAD_REACTORS
330
26661
102
}
330
18
100
AcDbEntity
  8
仮想線
 48
0.5
100
AcDbLine
 10
35.38801485795746
 20
806.6084982327248
 30
0.0
 11
35.38801485795746
 21
801.908498232725
 31
0.0
  0
LINE
  5
26651
102
{ACAD_REACTORS
330
26661
102
}
330
18
100
AcDbEntity
  8
仮想線
 48
0.5
100
AcDbLine
 10
44.7174044732379
 20
808.908498232725
 30
0.0
 11
44.7174044732379
 21
807.908498232725
 31
0.0
  0
LINE
  5
26652
102
{ACAD_REACTORS
330
26661
102
}
330
18
100
AcDbEntity
  8
仮想線
 48
0.5
100
AcDbLine
 10
44.31740447323781
 20
807.9084982327245
 30
0.0
 11
44.31740447323781
 21
806.6084982327248
 31
0.0
  0
LINE
  5
26653
102
{ACAD_REACTORS
330
26661
102
}
330
18
100
AcDbEntity
  8
仮想線
 48
0.5
100
AcDbLine
 10
54.71740447323767
 20
808.908498232725
 30
0.0
 11
54.71740447323767
 21
807.908498232725
 31
0.0
  0
LINE
  5
26654
102
{ACAD_REACTORS
330
26661
102
}
330
18
100
AcDbEntity
  8
仮想線
 48
0.5
100
AcDbLine
 10
55.11740447323776
 20
807.9084982327245
 30
0.0
 11
55.11740447323776
 21
806.6084982327248
 31
0.0
  0
LINE
  5
26655
102
{ACAD_REACTORS
330
26661
102
}
330
18
100
AcDbEntity
  8
仮想線
 48
0.5
100
AcDbLine
 10
43.88801485795746
 20
801.9084982327246
 30
0.0
 11
43.58801485795728
 21
801.6084982327248
 31
0.0
  0
LINE
  5
26656
102
{ACAD_REACTORS
330
26661
102
}
330
18
100
AcDbEntity
  8
仮想線
 48
0.5
100
AcDbLine
 10
43.88801485795746
 20
806.6084982327248
 30
0.0
 11
43.88801485795746
 21
801.9084982327246
 31
0.0
  0
LINE
  5
26657
102
{ACAD_REACTORS
330
26661
102
}
330
18
100
AcDbEntity
  8
仮想線
 48
0.5
100
AcDbLine
 10
63.74679408851792
 20
801.6084982327248
 30
0.0
 11
64.04679408851811
 21
801.908498232725
 31
0.0
  0
LINE
  5
26658
102
{ACAD_REACTORS
330
26661
102
}
330
18
100
AcDbEntity
  8
仮想線
 48
0.5
100
AcDbLine
 10
64.71740447323745
 20
808.908498232725
 30
0.0
 11
64.71740447323767
 21
807.908498232725
 31
0.0
  0
LINE
  5
26659
102
{ACAD_REACTORS
330
26661
102
}
330
18
100
AcDbEntity
  8
仮想線
 48
0.5
100
AcDbLine
 10
64.31740447323758
 20
807.9084982327245
 30
0.0
 11
64.31740447323758
 21
806.6084982327248
 31
0.0
  0
LINE
  5
2665A
102
{ACAD_REACTORS
330
26661
102
}
330
18
100
AcDbEntity
  8
仮想線
 48
0.5
100
AcDbLine
 10
64.71740447323767
 20
807.908498232725
 30
0.0
 11
59.71740447323767
 21
807.9084982327239
 31
0.0
  0
LINE
  5
2665B
102
{ACAD_REACTORS
330
26661
102
}
330
18
100
AcDbEntity
  8
仮想線
 48
0.5
100
AcDbLine
 10
55.54679408851811
 20
801.9084982327246
 30
0.0
 11
55.84679408851829
 21
801.6084982327248
 31
0.0
  0
LINE
  5
2665C
102
{ACAD_REACTORS
330
26661
102
}
330
18
100
AcDbEntity
  8
仮想線
 48
0.5
100
AcDbLine
 10
63.74679408851792
 20
801.6084982327248
 30
0.0
 11
55.84679408851829
 21
801.6084982327248
 31
0.0
  0
LINE
  5
2665D
102
{ACAD_REACTORS
330
26661
102
}
330
18
100
AcDbEntity
  8
仮想線
 48
0.5
100
AcDbLine
 10
55.54679408851811
 20
806.6084982327248
 30
0.0
 11
55.54679408851811
 21
801.9084982327246
 31
0.0
  0
LINE
  5
2665E
102
{ACAD_REACTORS
330
26661
102
}
330
18
100
AcDbEntity
  8
仮想線
 48
0.5
100
AcDbLine
 10
69.79679408851857
 20
813.4085034984737
 30
0.0
 11
69.79679408851879
 21
808.908503498473
 31
0.0
  0
LINE
  5
2665F
102
{ACAD_REACTORS
330
26661
102
}
330
18
100
AcDbEntity
  8
中心線
 48
0.5
100
AcDbLine
 10
59.71740447323744
 20
823.9414975510216
 30
0.0
 11
59.71740447323767
 21
798.8506345088495
 31
0.0
  0
LINE
  5
26660
102
{ACAD_REACTORS
330
26661
102
}
330
18
100
AcDbEntity
  8
中心線
 48
0.5
100
AcDbLine
 10
39.7174044732379
 20
823.9414975510216
 30
0.0
 11
39.7174044732379
 21
798.8506345088495
 31
0.0
  0
LINE
  5
26662
102
{ACAD_REACTORS
330
26680
102
}
330
18
100
AcDbEntity
  8
仮想線
 48
0.5
100
AcDbLine
 10
39.71740447323829
 20
1223.90848761762
 30
0.0
 11
44.71740447323829
 21
1223.908487617619
 31
0.0
  0
LINE
  5
26663
102
{ACAD_REACTORS
330
26680
102
}
330
18
100
AcDbEntity
  8
仮想線
 48
0.5
100
AcDbLine
 10
35.11740447323838
 20
1225.208487617619
 30
0.0
 11
44.3174044732382
 21
1225.208487617619
 31
0.0
  0
LINE
  5
26664
102
{ACAD_REACTORS
330
26680
102
}
330
18
100
AcDbEntity
  8
仮想線
 48
0.5
100
AcDbLine
 10
29.63801485795718
 20
1222.908482351871
 30
0.0
 11
69.63801485795787
 21
1222.908503414865
 31
0.0
  0
LINE
  5
26665
102
{ACAD_REACTORS
330
26680
102
}
330
18
100
AcDbEntity
  8
仮想線
 48
0.5
100
AcDbLine
 10
35.68801485795804
 20
1230.208487617619
 30
0.0
 11
43.58801485795768
 21
1230.208487617619
 31
0.0
  0
LINE
  5
26666
102
{ACAD_REACTORS
330
26680
102
}
330
18
100
AcDbEntity
  8
仮想線
  6
BYBLOCK
 48
0.5
100
AcDbLine
 10
29.63801485795739
 20
1218.40848235187
 30
0.0
 11
69.63801485795741
 21
1218.408503414864
 31
0.0
  0
LINE
  5
26667
102
{ACAD_REACTORS
330
26680
102
}
330
18
100
AcDbEntity
  8
仮想線
 48
0.5
100
AcDbLine
 10
63.74679408851832
 20
1230.208487617619
 30
0.0
 11
55.84679408851869
 21
1230.208487617619
 31
0.0
  0
LINE
  5
26668
102
{ACAD_REACTORS
330
26680
102
}
330
18
100
AcDbEntity
  8
仮想線
 48
0.5
100
AcDbLine
 10
59.71740447323829
 20
1223.90848761762
 30
0.0
 11
54.71740447323806
 21
1223.908487617619
 31
0.0
  0
LINE
  5
26669
102
{ACAD_REACTORS
330
26680
102
}
330
18
100
AcDbEntity
  8
仮想線
 48
0.5
100
AcDbLine
 10
64.31740447323798
 20
1225.208487617619
 30
0.0
 11
55.11740447323815
 21
1225.208487617619
 31
0.0
  0
LINE
  5
2666A
102
{ACAD_REACTORS
330
26680
102
}
330
18
100
AcDbEntity
  8
仮想線
 48
0.5
100
AcDbLine
 10
64.04679408851851
 20
1225.208487617619
 30
0.0
 11
64.04679408851851
 21
1229.908487617619
 31
0.0
  0
LINE
  5
2666B
102
{ACAD_REACTORS
330
26680
102
}
330
18
100
AcDbEntity
  8
仮想線
 48
0.5
100
AcDbLine
 10
63.74679408851832
 20
1230.208487617619
 30
0.0
 11
64.04679408851851
 21
1229.908487617619
 31
0.0
  0
LINE
  5
2666C
102
{ACAD_REACTORS
330
26680
102
}
330
18
100
AcDbEntity
  8
仮想線
 48
0.5
100
AcDbLine
 10
64.71740447323807
 20
1223.908487617619
 30
0.0
 11
59.71740447323829
 21
1223.90848761762
 31
0.0
  0
LINE
  5
2666D
102
{ACAD_REACTORS
330
26680
102
}
330
18
100
AcDbEntity
  8
仮想線
 48
0.5
100
AcDbLine
 10
64.31740447323798
 20
1223.908487617619
 30
0.0
 11
64.31740447323798
 21
1225.208487617619
 31
0.0
  0
LINE
  5
2666E
102
{ACAD_REACTORS
330
26680
102
}
330
18
100
AcDbEntity
  8
仮想線
 48
0.5
100
AcDbLine
 10
64.71740447323785
 20
1222.908487617619
 30
0.0
 11
64.71740447323807
 21
1223.908487617619
 31
0.0
  0
LINE
  5
2666F
102
{ACAD_REACTORS
330
26680
102
}
330
18
100
AcDbEntity
  8
仮想線
  6
BYBLOCK
 48
0.5
100
AcDbLine
 10
69.63801485795787
 20
1222.908503414865
 30
0.0
 11
69.63801485795741
 21
1218.408503414864
 31
0.0
  0
LINE
  5
26670
102
{ACAD_REACTORS
330
26680
102
}
330
18
100
AcDbEntity
  8
仮想線
 48
0.5
100
AcDbLine
 10
43.88801485795785
 20
1225.208487617619
 30
0.0
 11
43.88801485795786
 21
1229.90848761762
 31
0.0
  0
LINE
  5
26671
102
{ACAD_REACTORS
330
26680
102
}
330
18
100
AcDbEntity
  8
仮想線
 48
0.5
100
AcDbLine
 10
43.88801485795786
 20
1229.90848761762
 30
0.0
 11
43.58801485795768
 21
1230.208487617619
 31
0.0
  0
LINE
  5
26672
102
{ACAD_REACTORS
330
26680
102
}
330
18
100
AcDbEntity
  8
仮想線
 48
0.5
100
AcDbLine
 10
55.5467940885185
 20
1225.208487617619
 30
0.0
 11
55.5467940885185
 21
1229.90848761762
 31
0.0
  0
LINE
  5
26673
102
{ACAD_REACTORS
330
26680
102
}
330
18
100
AcDbEntity
  8
仮想線
 48
0.5
100
AcDbLine
 10
55.5467940885185
 20
1229.90848761762
 30
0.0
 11
55.84679408851869
 21
1230.208487617619
 31
0.0
  0
LINE
  5
26674
102
{ACAD_REACTORS
330
26680
102
}
330
18
100
AcDbEntity
  8
仮想線
 48
0.5
100
AcDbLine
 10
44.3174044732382
 20
1223.908487617619
 30
0.0
 11
44.3174044732382
 21
1225.208487617619
 31
0.0
  0
LINE
  5
26675
102
{ACAD_REACTORS
330
26680
102
}
330
18
100
AcDbEntity
  8
仮想線
 48
0.5
100
AcDbLine
 10
44.71740447323829
 20
1222.908487617619
 30
0.0
 11
44.71740447323829
 21
1223.908487617619
 31
0.0
  0
LINE
  5
26676
102
{ACAD_REACTORS
330
26680
102
}
330
18
100
AcDbEntity
  8
仮想線
 48
0.5
100
AcDbLine
 10
55.11740447323815
 20
1223.908487617619
 30
0.0
 11
55.11740447323815
 21
1225.208487617619
 31
0.0
  0
LINE
  5
26677
102
{ACAD_REACTORS
330
26680
102
}
330
18
100
AcDbEntity
  8
仮想線
 48
0.5
100
AcDbLine
 10
54.71740447323806
 20
1222.908487617619
 30
0.0
 11
54.71740447323806
 21
1223.908487617619
 31
0.0
  0
LINE
  5
26678
102
{ACAD_REACTORS
330
26680
102
}
330
18
100
AcDbEntity
  8
仮想線
 48
0.5
100
AcDbLine
 10
29.63801485795739
 20
1218.40848235187
 30
0.0
 11
29.63801485795718
 21
1222.908482351871
 31
0.0
  0
LINE
  5
26679
102
{ACAD_REACTORS
330
26680
102
}
330
18
100
AcDbEntity
  8
仮想線
 48
0.5
100
AcDbLine
 10
34.7174044732383
 20
1223.908487617619
 30
0.0
 11
39.71740447323829
 21
1223.90848761762
 31
0.0
  0
LINE
  5
2667A
102
{ACAD_REACTORS
330
26680
102
}
330
18
100
AcDbEntity
  8
仮想線
 48
0.5
100
AcDbLine
 10
35.11740447323838
 20
1223.908487617619
 30
0.0
 11
35.11740447323838
 21
1225.208487617619
 31
0.0
  0
LINE
  5
2667B
102
{ACAD_REACTORS
330
26680
102
}
330
18
100
AcDbEntity
  8
仮想線
 48
0.5
100
AcDbLine
 10
34.71740447323852
 20
1222.908487617619
 30
0.0
 11
34.7174044732383
 21
1223.908487617619
 31
0.0
  0
LINE
  5
2667C
102
{ACAD_REACTORS
330
26680
102
}
330
18
100
AcDbEntity
  8
仮想線
 48
0.5
100
AcDbLine
 10
35.68801485795804
 20
1230.208487617619
 30
0.0
 11
35.38801485795786
 21
1229.908487617619
 31
0.0
  0
LINE
  5
2667D
102
{ACAD_REACTORS
330
26680
102
}
330
18
100
AcDbEntity
  8
仮想線
 48
0.5
100
AcDbLine
 10
35.38801485795786
 20
1225.208487617619
 30
0.0
 11
35.38801485795786
 21
1229.908487617619
 31
0.0
  0
LINE
  5
2667E
102
{ACAD_REACTORS
330
26680
102
}
330
18
100
AcDbEntity
  8
中心線
 48
0.5
100
AcDbLine
 10
59.71740447323806
 20
1207.875488299323
 30
0.0
 11
59.71740447323806
 21
1232.966351341494
 31
0.0
  0
LINE
  5
2667F
102
{ACAD_REACTORS
330
26680
102
}
330
18
100
AcDbEntity
  8
中心線
 48
0.5
100
AcDbLine
 10
39.71740447323851
 20
1207.875488299323
 30
0.0
 11
39.7174044732383
 21
1232.966351341494
 31
0.0
  0
SOLID
  5
26A2D
330
18
100
AcDbEntity
  8
0
  6
BYBLOCK
 62
     0
100
AcDbTrace
 10
-95.78259552676206
 20
1018.217894005172
 30
0.0
 11
-99.78259552676206
 21
1015.908492925172
 31
0.0
 12
-95.78259552676206
 22
1013.599091845172
 32
0.0
 13
-95.78259552676206
 23
1013.599091845172
 33
0.0
  0
SOLID
  5
26A2E
330
18
100
AcDbEntity
  8
0
  6
BYBLOCK
 62
     0
100
AcDbTrace
 10
-104.782595526762
 20
1018.217894005172
 30
0.0
 11
-100.782595526762
 21
1015.908492925172
 31
0.0
 12
-104.782595526762
 22
1013.599091845172
 32
0.0
 13
-104.782595526762
 23
1013.599091845172
 33
0.0
  0
LINE
  5
26F44
330
18
100
AcDbEntity
  8
中心線
100
AcDbLine
 10
605.5155639446294
 20
796.0801549322329
 30
0.0
 11
605.5155639446294
 21
1238.185440000217
 31
0.0
  0
LINE
  5
26F45
330
18
100
AcDbEntity
  8
0
100
AcDbLine
 10
808.5155639446325
 20
862.9084929251687
 30
0.0
 11
808.5155639446325
 21
1168.908492925174
 31
0.0
  0
LINE
  5
26F46
330
18
100
AcDbEntity
  8
0
100
AcDbLine
 10
402.5155639446264
 20
1168.908492925175
 30
0.0
 11
402.5155639446264
 21
862.9084929251687
 31
0.0
  0
LINE
  5
26F48
330
18
100
AcDbEntity
  8
0
100
AcDbLine
 10
452.5155639446264
 20
812.9084929251687
 30
0.0
 11
758.5155639446325
 21
812.9084929251687
 31
0.0
  0
LINE
  5
26F49
330
18
100
AcDbEntity
  8
中心線
100
AcDbLine
 10
818.0155639446294
 20
1015.908492925172
 30
0.0
 11
393.0155639446294
 21
1015.908492925172
 31
0.0
  0
CIRCLE
  5
26F4C
330
18
100
AcDbEntity
  8
0
100
AcDbCircle
 10
446.4165381776561
 20
856.8094671581988
 30
0.0
 40
8.5
  0
ARC
  5
26F4D
330
18
100
AcDbEntity
  8
中心線
100
AcDbCircle
 10
605.5155639446294
 20
1015.908492925172
 30
0.0
 40
225.0
100
AcDbArc
 50
220.6699551863043
 51
229.3300448136956
  0
LINE
  5
26F4E
330
18
100
AcDbEntity
  8
中心線
100
AcDbLine
 10
434.3957228974848
 20
844.7886518780277
 30
0.0
 11
458.4373534578274
 21
868.8302824383702
 31
0.0
  0
ARC
  5
26F5E
330
18
100
AcDbEntity
  8
0
100
AcDbCircle
 10
395.4801121337737
 20
946.2952945347426
 30
0.0
 40
9.015903847971634
100
AcDbArc
 50
185.5496147837552
 51
207.8304203210879
  0
LINE
  5
26F5F
330
18
100
AcDbEntity
  8
0
100
AcDbLine
 10
387.5062632853881
 20
946.5949902330224
 30
0.0
 11
383.0071816862495
 21
941.3227777991423
 31
0.0
  0
LINE
  5
26F60
330
18
100
AcDbEntity
  8
0
100
AcDbLine
 10
387.5099216834579
 20
925.5949905516862
 30
0.0
 11
383.0090034191661
 21
930.8656351006794
 31
0.0
  0
ARC
  5
26F61
330
18
100
AcDbEntity
  8
0
100
AcDbCircle
 10
395.4836656282151
 20
925.8974644710891
 30
0.0
 40
9.015903847971634
100
AcDbArc
 50
152.1895426094165
 51
174.4703481467429
  0
ARC
  5
26F62
330
18
100
AcDbEntity
  8
0
100
AcDbCircle
 10
397.0080923402657
 20
936.0966453819575
 30
0.0
 40
10.50000000000042
100
AcDbArc
 50
154.8012161684953
 51
205.2187467620091
  0
LINE
  5
26F63
330
18
100
AcDbEntity
  8
0
100
AcDbLine
 10
386.5064673744683
 20
945.4233874699376
 30
0.0
 11
386.5097176247262
 21
926.766244895907
 31
0.0
  0
LINE
  5
26F64
330
18
100
AcDbEntity
  8
0
100
AcDbLine
 10
370.9924003919299
 20
934.1050989034567
 30
0.0
 11
383.0331419722107
 21
934.1050989034567
 31
0.0
  0
LINE
  5
26F65
330
18
100
AcDbEntity
  8
0
100
AcDbLine
 10
370.9924003919294
 20
938.1050989034566
 30
0.0
 11
383.0331419722107
 21
938.1050989034566
 31
0.0
  0
ARC
  5
26F66
330
18
100
AcDbEntity
  8
0
100
AcDbCircle
 10
372.1164984349674
 20
935.1050989038567
 30
0.0
 40
1.504525310907322
100
AcDbArc
 50
138.3436407292488
 51
221.6563592707511
  0
ARC
  5
26F67
330
18
100
AcDbEntity
  8
0
100
AcDbCircle
 10
369.868302347469
 20
937.1050989030564
 30
0.0
 40
1.504525310907322
100
AcDbArc
 50
318.3436407292488
 51
41.6563592707512
  0
ARC
  5
26F68
330
18
100
AcDbEntity
  8
0
100
AcDbCircle
 10
372.1164984349668
 20
937.1050989030564
 30
0.0
 40
1.504525310907322
100
AcDbArc
 50
138.3436407292488
 51
221.6563592707511
  0
LINE
  5
26F69
330
18
100
AcDbEntity
  8
0
100
AcDbLine
 10
383.0071816862495
 20
941.3227777991423
 30
0.0
 11
383.0090034191661
 21
930.8656351006794
 31
0.0
  0
LINE
  5
26F6A
330
18
100
AcDbEntity
  8
0
100
AcDbLine
 10
398.5062631184686
 20
946.5969065367735
 30
0.0
 11
398.5099215165386
 21
925.5969068554371
 31
0.0
  0
LINE
  5
26F6B
330
18
100
AcDbEntity
  8
0
100
AcDbLine
 10
401.5099214710147
 20
925.5974294837329
 30
0.0
 11
401.5062630729447
 21
946.5974291650692
 31
0.0
  0
LINE
  5
26F6C
330
18
100
AcDbEntity
  8
0
100
AcDbLine
 10
393.5062631943409
 20
946.5960354896139
 30
0.0
 11
393.5099215924109
 21
925.5960358082775
 31
0.0
  0
LINE
  5
26F6D
330
18
100
AcDbEntity
  8
0
100
AcDbLine
 10
396.5097473374557
 20
926.596558421399
 30
0.0
 11
396.5064373582494
 21
945.5965581330842
 31
0.0
  0
LINE
  5
26F6E
330
18
100
AcDbEntity
  8
0
100
AcDbLine
 10
401.5073131837156
 20
940.5695652115385
 30
0.0
 11
398.5073132292394
 21
940.5690425832428
 31
0.0
  0
LINE
  5
26F6F
330
18
100
AcDbEntity
  8
0
100
AcDbLine
 10
401.5070485530726
 20
942.0886025919404
 30
0.0
 11
398.5070485985965
 21
942.0880799636448
 31
0.0
  0
LINE
  5
26F70
330
18
100
AcDbEntity
  8
0
100
AcDbLine
 10
401.5099214710147
 20
925.5974294837329
 30
0.0
 11
398.5099215165386
 21
925.5969068554371
 31
0.0
  0
LINE
  5
26F71
330
18
100
AcDbEntity
  8
0
100
AcDbLine
 10
398.5091360364107
 20
930.1057334285662
 30
0.0
 11
401.5091359908868
 21
930.106256056862
 31
0.0
  0
LINE
  5
26F72
330
18
100
AcDbEntity
  8
0
100
AcDbLine
 10
398.5088714057677
 20
931.6247708089679
 30
0.0
 11
401.5088713602438
 21
931.6252934372638
 31
0.0
  0
LINE
  5
26F73
330
18
100
AcDbEntity
  8
0
100
AcDbLine
 10
387.5070487655156
 20
942.0861636598937
 30
0.0
 11
387.5073133961585
 21
940.5671262794919
 31
0.0
  0
LINE
  5
26F74
330
18
100
AcDbEntity
  8
0
100
AcDbLine
 10
393.5073133051117
 20
940.5681715360833
 30
0.0
 11
387.5073133961585
 21
940.5671262794918
 31
0.0
  0
LINE
  5
26F75
330
18
100
AcDbEntity
  8
0
100
AcDbLine
 10
393.5070486744688
 20
942.0872089164852
 30
0.0
 11
387.5070487655156
 21
942.0861636598937
 31
0.0
  0
LINE
  5
26F76
330
18
100
AcDbEntity
  8
0
100
AcDbLine
 10
398.5093814672996
 20
928.6969068083967
 30
0.0
 11
396.5093814976486
 21
928.6965583895328
 31
0.0
  0
LINE
  5
26F77
330
18
100
AcDbEntity
  8
0
100
AcDbLine
 10
393.5099215924109
 20
925.5960358082775
 30
0.0
 11
387.5099216834579
 21
925.5949905516862
 31
0.0
  0
LINE
  5
26F78
330
18
100
AcDbEntity
  8
0
100
AcDbLine
 10
387.5088715726868
 20
931.6228545052171
 30
0.0
 11
387.5091362033298
 21
930.1038171248151
 31
0.0
  0
LINE
  5
26F79
330
18
100
AcDbEntity
  8
0
100
AcDbLine
 10
387.5091362033298
 20
930.1038171248151
 30
0.0
 11
393.509136112283
 21
930.1048623814066
 31
0.0
  0
LINE
  5
26F7A
330
18
100
AcDbEntity
  8
0
100
AcDbLine
 10
387.5088715726868
 20
931.6228545052169
 30
0.0
 11
393.5088714816401
 21
931.6238997618084
 31
0.0
  0
LINE
  5
26F7B
330
18
100
AcDbEntity
  8
0
100
AcDbLine
 10
396.5097473374557
 20
926.596558421399
 30
0.0
 11
393.509747382979
 21
926.5960357931032
 31
0.0
  0
LINE
  5
26F7C
330
18
100
AcDbEntity
  8
0
100
AcDbLine
 10
402.509660141693
 20
927.0976036704031
 30
0.0
 11
401.5096601568667
 21
927.0974294609713
 31
0.0
  0
LINE
  5
26F7D
330
18
100
AcDbEntity
  8
0
100
AcDbLine
 10
401.5062630729447
 20
946.5974291650692
 30
0.0
 11
398.5062631184686
 21
946.5969065367735
 31
0.0
  0
LINE
  5
26F7E
330
18
100
AcDbEntity
  8
0
100
AcDbLine
 10
398.5068031677075
 20
943.4969065838147
 30
0.0
 11
396.5068031980564
 21
943.496558164951
 31
0.0
  0
LINE
  5
26F7F
330
18
100
AcDbEntity
  8
0
100
AcDbLine
 10
393.5062631943409
 20
946.5960354896139
 30
0.0
 11
387.5062632853877
 21
946.5949902330224
 31
0.0
  0
LINE
  5
26F80
330
18
100
AcDbEntity
  8
0
100
AcDbLine
 10
396.5064373582494
 20
945.5965581330842
 30
0.0
 11
393.5064374037727
 21
945.5960355047885
 31
0.0
  0
LINE
  5
26F81
330
18
100
AcDbEntity
  8
0
100
AcDbLine
 10
402.5065243719185
 20
945.0976033972628
 30
0.0
 11
401.5065243870926
 21
945.0974291878308
 31
0.0
  0
ARC
  5
26F87
330
18
100
AcDbEntity
  8
0
100
AcDbCircle
 10
395.4801121337737
 20
1105.895294534742
 30
0.0
 40
9.015903847971634
100
AcDbArc
 50
185.5496147837552
 51
207.8304203210879
  0
LINE
  5
26F88
330
18
100
AcDbEntity
  8
0
100
AcDbLine
 10
387.5062632853881
 20
1106.194990233022
 30
0.0
 11
383.0071816862495
 21
1100.922777799142
 31
0.0
  0
LINE
  5
26F89
330
18
100
AcDbEntity
  8
0
100
AcDbLine
 10
387.5099216834579
 20
1085.194990551686
 30
0.0
 11
383.0090034191661
 21
1090.465635100679
 31
0.0
  0
ARC
  5
26F8A
330
18
100
AcDbEntity
  8
0
100
AcDbCircle
 10
395.4836656282151
 20
1085.497464471089
 30
0.0
 40
9.015903847971634
100
AcDbArc
 50
152.1895426094165
 51
174.4703481467429
  0
ARC
  5
26F8B
330
18
100
AcDbEntity
  8
0
100
AcDbCircle
 10
397.0080923402657
 20
1095.696645381957
 30
0.0
 40
10.50000000000042
100
AcDbArc
 50
154.8012161684953
 51
205.2187467620091
  0
ARC
  5
26F8C
330
18
100
AcDbEntity
  8
0
100
AcDbCircle
 10
371.5557952338151
 20
1096.955096158263
 30
0.0
 40
1.880656636903949
100
AcDbArc
 50
318.3436407292488
 51
41.6563592707512
  0
LINE
  5
26F8D
330
18
100
AcDbEntity
  8
0
100
AcDbLine
 10
383.0173934395665
 20
1093.205096163213
 30
0.0
 11
372.9609177872083
 21
1093.205096163213
 31
0.0
  0
LINE
  5
26F8E
330
18
100
AcDbEntity
  8
0
100
AcDbLine
 10
383.0173934395665
 20
1098.205096156613
 30
0.0
 11
372.960917787209
 21
1098.205096156613
 31
0.0
  0
ARC
  5
26F8F
330
18
100
AcDbEntity
  8
0
100
AcDbCircle
 10
374.3660403406021
 20
1094.455096161563
 30
0.0
 40
1.880656636903949
100
AcDbArc
 50
138.3436407292488
 51
221.6563592707511
  0
ARC
  5
26F90
330
18
100
AcDbEntity
  8
0
100
AcDbCircle
 10
374.3660403406027
 20
1096.955096158263
 30
0.0
 40
1.880656636903949
100
AcDbArc
 50
138.3436407292488
 51
221.6563592707511
  0
LINE
  5
26F91
330
18
100
AcDbEntity
  8
0
100
AcDbLine
 10
386.5064673744683
 20
1105.023387469937
 30
0.0
 11
386.5097176247262
 21
1086.366244895907
 31
0.0
  0
LINE
  5
26F92
330
18
100
AcDbEntity
  8
0
100
AcDbLine
 10
383.0071816862495
 20
1100.922777799142
 30
0.0
 11
383.0090034191661
 21
1090.465635100679
 31
0.0
  0
LINE
  5
26F96
330
18
100
AcDbEntity
  8
0
100
AcDbLine
 10
401.5062630729447
 20
1106.197429165069
 30
0.0
 11
398.5062631184686
 21
1106.196906536773
 31
0.0
  0
LINE
  5
26F97
330
18
100
AcDbEntity
  8
0
100
AcDbLine
 10
401.5073131837156
 20
1100.169565211538
 30
0.0
 11
398.5073132292394
 21
1100.169042583242
 31
0.0
  0
LINE
  5
26F98
330
18
100
AcDbEntity
  8
0
100
AcDbLine
 10
401.5070485530726
 20
1101.68860259194
 30
0.0
 11
398.5070485985965
 21
1101.688079963644
 31
0.0
  0
LINE
  5
26F99
330
18
100
AcDbEntity
  8
0
100
AcDbLine
 10
401.5099214710147
 20
1085.197429483732
 30
0.0
 11
398.5099215165386
 21
1085.196906855437
 31
0.0
  0
LINE
  5
26F9A
330
18
100
AcDbEntity
  8
0
100
AcDbLine
 10
398.5091360364107
 20
1089.705733428566
 30
0.0
 11
401.5091359908868
 21
1089.706256056862
 31
0.0
  0
LINE
  5
26F9B
330
18
100
AcDbEntity
  8
0
100
AcDbLine
 10
398.5088714057677
 20
1091.224770808967
 30
0.0
 11
401.5088713602438
 21
1091.225293437263
 31
0.0
  0
LINE
  5
26F9C
330
18
100
AcDbEntity
  8
0
100
AcDbLine
 10
398.5068031677075
 20
1103.096906583814
 30
0.0
 11
396.5068031980564
 21
1103.096558164951
 31
0.0
  0
LINE
  5
26F9D
330
18
100
AcDbEntity
  8
0
100
AcDbLine
 10
393.5062631943409
 20
1106.196035489614
 30
0.0
 11
387.5062632853877
 21
1106.194990233022
 31
0.0
  0
LINE
  5
26F9E
330
18
100
AcDbEntity
  8
0
100
AcDbLine
 10
387.5070487655156
 20
1101.686163659893
 30
0.0
 11
387.5073133961585
 21
1100.167126279491
 31
0.0
  0
LINE
  5
26F9F
330
18
100
AcDbEntity
  8
0
100
AcDbLine
 10
393.5073133051117
 20
1100.168171536083
 30
0.0
 11
387.5073133961585
 21
1100.167126279491
 31
0.0
  0
LINE
  5
26FA0
330
18
100
AcDbEntity
  8
0
100
AcDbLine
 10
393.5070486744688
 20
1101.687208916485
 30
0.0
 11
387.5070487655156
 21
1101.686163659893
 31
0.0
  0
LINE
  5
26FA1
330
18
100
AcDbEntity
  8
0
100
AcDbLine
 10
396.5064373582494
 20
1105.196558133084
 30
0.0
 11
393.5064374037727
 21
1105.196035504788
 31
0.0
  0
LINE
  5
26FA2
330
18
100
AcDbEntity
  8
0
100
AcDbLine
 10
398.5093814672996
 20
1088.296906808396
 30
0.0
 11
396.5093814976486
 21
1088.296558389532
 31
0.0
  0
LINE
  5
26FA3
330
18
100
AcDbEntity
  8
0
100
AcDbLine
 10
393.5099215924109
 20
1085.196035808277
 30
0.0
 11
387.5099216834579
 21
1085.194990551686
 31
0.0
  0
LINE
  5
26FA4
330
18
100
AcDbEntity
  8
0
100
AcDbLine
 10
387.5088715726868
 20
1091.222854505217
 30
0.0
 11
387.5091362033298
 21
1089.703817124815
 31
0.0
  0
LINE
  5
26FA5
330
18
100
AcDbEntity
  8
0
100
AcDbLine
 10
387.5091362033298
 20
1089.703817124815
 30
0.0
 11
393.509136112283
 21
1089.704862381406
 31
0.0
  0
LINE
  5
26FA6
330
18
100
AcDbEntity
  8
0
100
AcDbLine
 10
387.5088715726868
 20
1091.222854505217
 30
0.0
 11
393.5088714816401
 21
1091.223899761808
 31
0.0
  0
LINE
  5
26FA7
330
18
100
AcDbEntity
  8
0
100
AcDbLine
 10
396.5097473374557
 20
1086.196558421399
 30
0.0
 11
393.509747382979
 21
1086.196035793103
 31
0.0
  0
LINE
  5
26FA8
330
18
100
AcDbEntity
  8
0
100
AcDbLine
 10
398.5062631184686
 20
1106.196906536773
 30
0.0
 11
398.5099215165386
 21
1085.196906855437
 31
0.0
  0
LINE
  5
26FA9
330
18
100
AcDbEntity
  8
0
100
AcDbLine
 10
393.5062631943409
 20
1106.196035489614
 30
0.0
 11
393.5099215924109
 21
1085.196035808277
 31
0.0
  0
LINE
  5
26FAA
330
18
100
AcDbEntity
  8
0
100
AcDbLine
 10
396.5097473374557
 20
1086.196558421399
 30
0.0
 11
396.5064373582494
 21
1105.196558133084
 31
0.0
  0
LINE
  5
26FAB
330
18
100
AcDbEntity
  8
0
100
AcDbLine
 10
402.5065243719185
 20
1104.697603397262
 30
0.0
 11
401.5065243870926
 21
1104.697429187831
 31
0.0
  0
LINE
  5
26FAC
330
18
100
AcDbEntity
  8
0
100
AcDbLine
 10
402.509660141693
 20
1086.697603670403
 30
0.0
 11
401.5096601568667
 21
1086.697429460971
 31
0.0
  0
LINE
  5
26FAD
330
18
100
AcDbEntity
  8
0
100
AcDbLine
 10
401.5099214710147
 20
1085.197429483732
 30
0.0
 11
401.5062630729447
 21
1106.197429165069
 31
0.0
  0
LINE
  5
26FCC
330
18
100
AcDbEntity
  8
中心線
100
AcDbLine
 10
776.6354049917739
 20
844.7886518780277
 30
0.0
 11
752.5937744314314
 21
868.8302824383702
 31
0.0
  0
ARC
  5
26FCD
330
18
100
AcDbEntity
  8
中心線
100
AcDbCircle
 10
605.5155639446294
 20
1015.908492925172
 30
0.0
 40
225.0
100
AcDbArc
 50
310.6699551863043
 51
319.3300448136956
  0
LINE
  5
26FD0
102
{ACAD_REACTORS
330
28F06
102
}
330
18
100
AcDbEntity
  8
中心線
 48
0.5
100
AcDbLine
 10
595.5155639446295
 20
819.3776210927339
 30
0.0
 11
595.5155639446295
 21
798.3506503478974
 31
0.0
  0
LINE
  5
26FD1
102
{ACAD_REACTORS
330
28F06
102
}
330
18
100
AcDbEntity
  8
中心線
 48
0.5
100
AcDbLine
 10
615.5155639446291
 20
819.3776210927337
 30
0.0
 11
615.5155639446295
 21
798.3506503478972
 31
0.0
  0
LINE
  5
26FD4
102
{ACAD_REACTORS
330
28F06
102
}
330
18
100
AcDbEntity
  8
仮想線
100
AcDbLine
 10
585.4361743293481
 20
808.9085193375231
 30
0.0
 11
625.4361743293491
 21
808.9084982745292
 31
0.0
  0
LINE
  5
26FD5
102
{ACAD_REACTORS
330
28F06
102
}
330
18
100
AcDbEntity
  8
仮想線
100
AcDbLine
 10
590.5949542444575
 20
807.9085088060264
 30
0.0
 11
595.5949542444575
 21
807.9085088060264
 31
0.0
  0
LINE
  5
26FD6
102
{ACAD_REACTORS
330
28F06
102
}
330
18
100
AcDbEntity
  8
仮想線
100
AcDbLine
 10
590.9949542444572
 20
806.6085088060262
 30
0.0
 11
600.1949542444569
 21
806.6085088060262
 31
0.0
  0
LINE
  5
26FD7
102
{ACAD_REACTORS
330
28F06
102
}
330
18
100
AcDbEntity
  8
仮想線
100
AcDbLine
 10
599.5449542444573
 20
801.6085088060263
 30
0.0
 11
591.6449542444577
 21
801.6085088060263
 31
0.0
  0
LINE
  5
26FD8
102
{ACAD_REACTORS
330
28F06
102
}
330
18
100
AcDbEntity
  8
仮想線
100
AcDbLine
 10
590.9949542444572
 20
807.9085088060264
 30
0.0
 11
590.9949542444572
 21
806.6085088060262
 31
0.0
  0
LINE
  5
26FD9
102
{ACAD_REACTORS
330
28F06
102
}
330
18
100
AcDbEntity
  8
仮想線
100
AcDbLine
 10
590.5949542444575
 20
808.9085088060265
 30
0.0
 11
590.5949542444575
 21
807.9085088060264
 31
0.0
  0
LINE
  5
26FDA
102
{ACAD_REACTORS
330
28F06
102
}
330
18
100
AcDbEntity
  8
仮想線
100
AcDbLine
 10
591.3449542444575
 20
806.6085088060262
 30
0.0
 11
591.3449542444575
 21
801.9085088060259
 31
0.0
  0
LINE
  5
26FDB
102
{ACAD_REACTORS
330
28F06
102
}
330
18
100
AcDbEntity
  8
仮想線
100
AcDbLine
 10
591.3449542444575
 20
801.9085088060259
 30
0.0
 11
591.6449542444577
 21
801.6085088060263
 31
0.0
  0
LINE
  5
26FDC
102
{ACAD_REACTORS
330
28F06
102
}
330
18
100
AcDbEntity
  8
仮想線
100
AcDbLine
 10
585.4361743293488
 20
812.9084929251687
 30
0.0
 11
585.4361743293481
 21
808.9085193375231
 31
0.0
  0
LINE
  5
26FDE
102
{ACAD_REACTORS
330
28F06
102
}
330
18
100
AcDbEntity
  8
仮想線
100
AcDbLine
 10
600.1949542444574
 20
807.9085088060264
 30
0.0
 11
600.1949542444569
 21
806.6085088060262
 31
0.0
  0
LINE
  5
26FDF
102
{ACAD_REACTORS
330
28F06
102
}
330
18
100
AcDbEntity
  8
仮想線
100
AcDbLine
 10
600.5949542444575
 20
808.9085088060265
 30
0.0
 11
600.5949542444575
 21
807.9085088060264
 31
0.0
  0
LINE
  5
26FE0
102
{ACAD_REACTORS
330
28F06
102
}
330
18
100
AcDbEntity
  8
仮想線
100
AcDbLine
 10
599.5449542444573
 20
801.6085088060263
 30
0.0
 11
599.8449542444575
 21
801.9085088060265
 31
0.0
  0
LINE
  5
26FE1
102
{ACAD_REACTORS
330
28F06
102
}
330
18
100
AcDbEntity
  8
仮想線
100
AcDbLine
 10
599.8449542444575
 20
806.6085088060262
 30
0.0
 11
599.8449542444575
 21
801.9085088060265
 31
0.0
  0
LINE
  5
26FE2
102
{ACAD_REACTORS
330
28F06
102
}
330
18
100
AcDbEntity
  8
仮想線
100
AcDbLine
 10
595.5949542444575
 20
807.908508806026
 30
0.0
 11
600.5949542444575
 21
807.9085088060264
 31
0.0
  0
LINE
  5
26FE3
102
{ACAD_REACTORS
330
28F06
102
}
330
18
100
AcDbEntity
  8
仮想線
100
AcDbLine
 10
610.8361736448012
 20
807.9085088060264
 30
0.0
 11
610.8361736448016
 21
806.6085088060262
 31
0.0
  0
LINE
  5
26FE4
102
{ACAD_REACTORS
330
28F06
102
}
330
18
100
AcDbEntity
  8
仮想線
100
AcDbLine
 10
610.436173644801
 20
808.9085088060263
 30
0.0
 11
610.436173644801
 21
807.9085088060264
 31
0.0
  0
LINE
  5
26FE5
102
{ACAD_REACTORS
330
28F06
102
}
330
18
100
AcDbEntity
  8
仮想線
100
AcDbLine
 10
611.4861736448013
 20
801.6085088060261
 30
0.0
 11
611.1861736448011
 21
801.9085088060263
 31
0.0
  0
LINE
  5
26FE6
102
{ACAD_REACTORS
330
28F06
102
}
330
18
100
AcDbEntity
  8
仮想線
100
AcDbLine
 10
611.1861736448011
 20
806.6085088060262
 30
0.0
 11
611.1861736448011
 21
801.9085088060263
 31
0.0
  0
LINE
  5
26FE7
102
{ACAD_REACTORS
330
28F06
102
}
330
18
100
AcDbEntity
  8
仮想線
100
AcDbLine
 10
615.436173644801
 20
807.9085088060258
 30
0.0
 11
610.436173644801
 21
807.9085088060264
 31
0.0
  0
LINE
  5
26FE8
102
{ACAD_REACTORS
330
28F06
102
}
330
18
100
AcDbEntity
  8
仮想線
100
AcDbLine
 10
620.0361736448014
 20
807.9085088060264
 30
0.0
 11
620.0361736448014
 21
806.6085088060262
 31
0.0
  0
LINE
  5
26FE9
102
{ACAD_REACTORS
330
28F06
102
}
330
18
100
AcDbEntity
  8
仮想線
100
AcDbLine
 10
620.4361736448011
 20
808.9085088060263
 30
0.0
 11
620.4361736448011
 21
807.9085088060264
 31
0.0
  0
LINE
  5
26FEA
102
{ACAD_REACTORS
330
28F06
102
}
330
18
100
AcDbEntity
  8
仮想線
100
AcDbLine
 10
619.6861736448011
 20
801.9085088060259
 30
0.0
 11
619.3861736448009
 21
801.6085088060261
 31
0.0
  0
LINE
  5
26FEB
102
{ACAD_REACTORS
330
28F06
102
}
330
18
100
AcDbEntity
  8
仮想線
100
AcDbLine
 10
619.6861736448011
 20
806.6085088060262
 30
0.0
 11
619.6861736448011
 21
801.9085088060259
 31
0.0
  0
LINE
  5
26FEC
102
{ACAD_REACTORS
330
28F06
102
}
330
18
100
AcDbEntity
  8
仮想線
100
AcDbLine
 10
620.4361736448011
 20
807.9085088060264
 30
0.0
 11
615.436173644801
 21
807.9085088060264
 31
0.0
  0
LINE
  5
26FED
102
{ACAD_REACTORS
330
28F06
102
}
330
18
100
AcDbEntity
  8
仮想線
100
AcDbLine
 10
620.0361736448014
 20
806.6085088060262
 30
0.0
 11
610.8361736448016
 21
806.6085088060262
 31
0.0
  0
LINE
  5
26FEE
102
{ACAD_REACTORS
330
28F06
102
}
330
18
100
AcDbEntity
  8
仮想線
100
AcDbLine
 10
611.4861736448013
 20
801.6085088060261
 30
0.0
 11
619.3861736448009
 21
801.6085088060261
 31
0.0
  0
LINE
  5
26FEF
102
{ACAD_REACTORS
330
28F06
102
}
330
18
100
AcDbEntity
  8
仮想線
100
AcDbLine
 10
625.4361743293491
 20
808.9084982745292
 30
0.0
 11
625.4361743293479
 21
812.9084929251687
 31
0.0
  0
ARC
  5
26FF0
330
18
100
AcDbEntity
  8
中心線
100
AcDbCircle
 10
605.5155639446294
 20
1015.908492925172
 30
0.0
 40
195.5
100
AcDbArc
 50
292.6681725786418
 51
307.3318274213581
  0
LINE
  5
26FF4
330
18
100
AcDbEntity
  8
DIMENSION
  6
BYBLOCK
 62
     0
100
AcDbLine
 10
699.8014623294917
 20
844.6005264853139
 30
0.0
 11
706.7296655597671
 21
848.6005264853138
 31
0.0
  0
HATCH
  5
26FF5
330
18
100
AcDbEntity
  8
DIMENSION
  6
BYBLOCK
 62
     0
100
AcDbHatch
 10
0.0
 20
0.0
 30
0.0
210
0.0
220
0.0
230
1.0
  2
ANSI31
 70
     0
 71
     0
 91
        4
 92
        7
 72
     1
 73
     1
 93
        3
 10
699.6707292000951
 20
848.354710956654
 42
0.0088242164717323
 10
703.2655639446292
 20
846.6005264853139
 42
0.0
 10
699.8014623294915
 20
844.6005264853139
 42
-0.2493796996436278
 97
        0
 92
        7
 72
     1
 73
     1
 93
        3
 10
703.2655639446292
 20
846.6005264853139
 42
-0.0088242164717323
 10
699.6707292000951
 20
848.354710956654
 42
-0.1494012440317256
 10
701.2655639446294
 20
850.0646281004518
 42
0.0
 97
        0
 92
        7
 72
     1
 73
     1
 93
        3
 10
703.2655639446292
 20
846.6005264853139
 42
0.0
 10
706.7296655597671
 20
848.6005264853138
 42
-0.2400272838228544
 10
706.920062443762
 20
844.9742913486145
 42
-0.0088242164717324
 97
        0
 92
        7
 72
     1
 73
     1
 93
        3
 10
706.920062443762
 20
844.9742913486145
 42
-0.1584343322340092
 10
705.2655639446292
 20
843.1364248701763
 42
0.0
 10
703.2655639446292
 20
846.6005264853139
 42
0.0088242164717324
 97
        0
 75
     0
 76
     1
 52
409.9999999999999
 41
1.333333333333333
 77
     0
 78
     1
 53
255.0
 43
136.209094517845
 44
1021.563084625936
 45
-0.1609876377148447
 46
0.0431365075170868
 79
     0
 47
0.0130930922504628
 98
        4
 10
699.8313866476485
 20
846.977607036357
 10
701.2731400516785
 20
848.4956317519131
 10
705.3810187595978
 20
846.6527283066557
 10
705.9397142473113
 20
844.7772533106261
  0
LINE
  5
26FF6
330
18
100
AcDbEntity
  8
中心線
100
AcDbLine
 10
699.2782869327417
 20
853.5487008065272
 30
0.0
 11
707.2782869327417
 21
839.6922943459763
 31
0.0
  0
LINE
  5
26FF7
330
18
100
AcDbEntity
  8
DIMENSION
  6
BYBLOCK
 62
     0
100
AcDbLine
 10
701.2655639446294
 20
850.0646281004518
 30
0.0
 11
705.2655639446294
 21
843.1364248701763
 31
0.0
  0
CIRCLE
  5
26FF8
330
18
100
AcDbEntity
  8
0
100
AcDbCircle
 10
703.2655639446292
 20
846.6005264853142
 30
0.0
 40
4.0
  0
CIRCLE
  5
26FF9
330
18
100
AcDbEntity
  8
0
100
AcDbCircle
 10
764.6145897116026
 20
856.8094671581988
 30
0.0
 40
8.5
  0
CIRCLE
  5
27001
330
18
100
AcDbEntity
  8
0
100
AcDbCircle
 10
605.5155639446294
 20
1015.908492925172
 30
0.0
 40
32.5
  0
LINE
  5
27061
330
18
100
AcDbEntity
  8
0
100
AcDbLine
 10
758.5155639446326
 20
1218.908492925175
 30
0.0
 11
452.5155639446265
 21
1218.908492925175
 31
0.0
  0
CIRCLE
  5
27068
330
18
100
AcDbEntity
  8
0
100
AcDbCircle
 10
446.4165381776561
 20
1175.007518692145
 30
0.0
 40
8.5
  0
LINE
  5
27069
330
18
100
AcDbEntity
  8
中心線
100
AcDbLine
 10
434.3957228974849
 20
1187.028333972316
 30
0.0
 11
458.4373534578275
 21
1162.986703411973
 31
0.0
  0
ARC
  5
2706A
330
18
100
AcDbEntity
  8
中心線
100
AcDbCircle
 10
605.5155639446294
 20
1015.908492925172
 30
0.0
 40
225.0
100
AcDbArc
 50
130.6699551863043
 51
139.3300448136956
  0
ARC
  5
27070
330
18
100
AcDbEntity
  8
中心線
100
AcDbCircle
 10
605.5155639446294
 20
1015.908492925172
 30
0.0
 40
195.5
100
AcDbArc
 50
112.6681725786419
 51
127.3318274213581
  0
HATCH
  5
27077
330
18
100
AcDbEntity
  8
DIMENSION
  6
BYBLOCK
 62
     0
100
AcDbHatch
 10
0.0
 20
0.0
 30
0.0
210
0.0
220
0.0
230
1.0
  2
ANSI31
 70
     0
 71
     0
 91
        4
 92
        7
 72
     1
 73
     1
 93
        3
 10
511.3603986891635
 20
1183.46227489369
 42
0.0088242164717323
 10
507.7655639446294
 20
1185.21645936503
 42
0.0
 10
511.229665559767
 20
1187.21645936503
 42
-0.2493796996436278
 97
        0
 92
        7
 72
     1
 73
     1
 93
        3
 10
507.7655639446294
 20
1185.21645936503
 42
-0.0088242164717323
 10
511.3603986891635
 20
1183.46227489369
 42
-0.1494012440317256
 10
509.7655639446291
 20
1181.752357749892
 42
0.0
 97
        0
 92
        7
 72
     1
 73
     1
 93
        3
 10
507.7655639446294
 20
1185.21645936503
 42
0.0
 10
504.3014623294915
 20
1183.21645936503
 42
-0.2400272838228544
 10
504.1110654454966
 20
1186.842694501729
 42
-0.0088242164717324
 97
        0
 92
        7
 72
     1
 73
     1
 93
        3
 10
504.1110654454966
 20
1186.842694501729
 42
-0.1584343322340092
 10
505.7655639446294
 20
1188.680560980167
 42
0.0
 10
507.7655639446294
 20
1185.21645936503
 42
0.0088242164717324
 97
        0
 75
     0
 76
     1
 52
230.0
 41
1.333333333333333
 77
     0
 78
     1
 53
75.00000000000007
 43
1074.822033371413
 44
1010.253901224408
 45
0.1609876377148447
 46
-0.0431365075170867
 79
     0
 47
0.0130930922504628
 98
        4
 10
511.19974124161
 20
1184.839378813987
 10
509.7579878375801
 20
1183.321354098431
 10
505.6501091296608
 20
1185.164257543688
 10
505.0914136419473
 20
1187.039732539717
  0
CIRCLE
  5
27078
330
18
100
AcDbEntity
  8
0
100
AcDbCircle
 10
507.7655639446294
 20
1185.216459365029
 30
0.0
 40
4.0
  0
LINE
  5
27079
330
18
100
AcDbEntity
  8
中心線
100
AcDbLine
 10
511.752840956517
 20
1178.268285043816
 30
0.0
 11
503.7528409565168
 21
1192.124691504367
 31
0.0
  0
LINE
  5
2707A
330
18
100
AcDbEntity
  8
DIMENSION
  6
BYBLOCK
 62
     0
100
AcDbLine
 10
511.229665559767
 20
1187.21645936503
 30
0.0
 11
504.3014623294915
 21
1183.21645936503
 31
0.0
  0
LINE
  5
2707B
330
18
100
AcDbEntity
  8
DIMENSION
  6
BYBLOCK
 62
     0
100
AcDbLine
 10
509.7655639446291
 20
1181.752357749892
 30
0.0
 11
505.7655639446293
 21
1188.680560980167
 31
0.0
  0
ARC
  5
27082
330
18
100
AcDbEntity
  8
中心線
100
AcDbCircle
 10
605.5155639446294
 20
1015.908492925172
 30
0.0
 40
225.0
100
AcDbArc
 50
40.66995518630434
 51
49.33004481369565
  0
LINE
  5
27083
330
18
100
AcDbEntity
  8
中心線
100
AcDbLine
 10
776.6354049917739
 20
1187.028333972316
 30
0.0
 11
752.5937744314314
 21
1162.986703411973
 31
0.0
  0
LINE
  5
27085
102
{ACAD_REACTORS
330
28F05
102
}
330
18
100
AcDbEntity
  8
仮想線
100
AcDbLine
 10
625.5949535599104
 20
1222.908487575815
 30
0.0
 11
585.5949535599095
 21
1222.908508638809
 31
0.0
  0
CIRCLE
  5
27086
330
18
100
AcDbEntity
  8
DIMENSION
  6
CONTINUOUS
100
AcDbCircle
 10
656.1146872621723
 20
1204.746991964685
 30
0.0
 40
3.5
  0
CIRCLE
  5
27087
330
18
100
AcDbEntity
  8
0
100
AcDbCircle
 10
656.1146872621723
 20
1204.746991964685
 30
0.0
 40
4.0
  0
LINE
  5
27088
102
{ACAD_REACTORS
330
28F05
102
}
330
18
100
AcDbEntity
  8
中心線
 48
0.5
100
AcDbLine
 10
595.5155639446295
 20
1212.439385820605
 30
0.0
 11
595.5155639446291
 21
1233.466356565442
 31
0.0
  0
LINE
  5
27089
102
{ACAD_REACTORS
330
28F05
102
}
330
18
100
AcDbEntity
  8
仮想線
100
AcDbLine
 10
599.8449542444575
 20
1225.208498107312
 30
0.0
 11
599.8449542444575
 21
1229.908498107312
 31
0.0
  0
LINE
  5
2708A
102
{ACAD_REACTORS
330
28F05
102
}
330
18
100
AcDbEntity
  8
仮想線
100
AcDbLine
 10
591.3449542444575
 20
1225.208498107312
 30
0.0
 11
591.3449542444575
 21
1229.908498107312
 31
0.0
  0
LINE
  5
2708B
102
{ACAD_REACTORS
330
28F05
102
}
330
18
100
AcDbEntity
  8
仮想線
100
AcDbLine
 10
590.9949542444572
 20
1225.208498107312
 30
0.0
 11
600.1949542444569
 21
1225.208498107312
 31
0.0
  0
LINE
  5
2708C
102
{ACAD_REACTORS
330
28F05
102
}
330
18
100
AcDbEntity
  8
仮想線
100
AcDbLine
 10
590.5949542444575
 20
1223.908498107312
 30
0.0
 11
595.5949542444575
 21
1223.908498107312
 31
0.0
  0
LINE
  5
2708D
102
{ACAD_REACTORS
330
28F05
102
}
330
18
100
AcDbEntity
  8
仮想線
100
AcDbLine
 10
590.5949542444575
 20
1222.908498107312
 30
0.0
 11
590.5949542444575
 21
1223.908498107312
 31
0.0
  0
LINE
  5
2708E
102
{ACAD_REACTORS
330
28F05
102
}
330
18
100
AcDbEntity
  8
仮想線
100
AcDbLine
 10
590.9949542444572
 20
1223.908498107312
 30
0.0
 11
590.9949542444572
 21
1225.208498107312
 31
0.0
  0
LINE
  5
2708F
102
{ACAD_REACTORS
330
28F05
102
}
330
18
100
AcDbEntity
  8
仮想線
100
AcDbLine
 10
585.5949535599095
 20
1222.908508638809
 30
0.0
 11
585.5949535599108
 21
1218.908492925175
 31
0.0
  0
LINE
  5
27090
102
{ACAD_REACTORS
330
28F05
102
}
330
18
100
AcDbEntity
  8
仮想線
100
AcDbLine
 10
595.5949542444575
 20
1223.908498107312
 30
0.0
 11
600.5949542444575
 21
1223.908498107312
 31
0.0
  0
LINE
  5
27091
102
{ACAD_REACTORS
330
28F05
102
}
330
18
100
AcDbEntity
  8
仮想線
100
AcDbLine
 10
600.5949542444575
 20
1222.908498107312
 30
0.0
 11
600.5949542444575
 21
1223.908498107312
 31
0.0
  0
LINE
  5
27092
102
{ACAD_REACTORS
330
28F05
102
}
330
18
100
AcDbEntity
  8
仮想線
100
AcDbLine
 10
600.1949542444574
 20
1223.908498107312
 30
0.0
 11
600.1949542444569
 21
1225.208498107312
 31
0.0
  0
LWPOLYLINE
  5
27093
330
18
100
AcDbEntity
  8
DIMENSION
  6
CONTINUOUS
100
AcDbPolyline
 90
        6
 70
     1
 43
0.0
 10
654.8899423919205
 20
1205.971736834937
 10
656.562974997839
 20
1206.420024570603
 10
657.7877198680911
 20
1205.195279700352
 10
657.3394321324244
 20
1203.522247094433
 10
655.6663995265059
 20
1203.073959358766
 10
654.4416546562537
 20
1204.298704229017
  0
LINE
  5
27094
102
{ACAD_REACTORS
330
28F05
102
}
330
18
100
AcDbEntity
  8
仮想線
100
AcDbLine
 10
599.5449542444573
 20
1230.208498107312
 30
0.0
 11
591.6449542444577
 21
1230.208498107312
 31
0.0
  0
LINE
  5
27095
102
{ACAD_REACTORS
330
28F05
102
}
330
18
100
AcDbEntity
  8
仮想線
100
AcDbLine
 10
591.3449542444575
 20
1229.908498107312
 30
0.0
 11
591.6449542444577
 21
1230.208498107312
 31
0.0
  0
LINE
  5
27096
102
{ACAD_REACTORS
330
28F05
102
}
330
18
100
AcDbEntity
  8
仮想線
100
AcDbLine
 10
599.5449542444573
 20
1230.208498107312
 30
0.0
 11
599.8449542444575
 21
1229.908498107312
 31
0.0
  0
LINE
  5
27097
102
{ACAD_REACTORS
330
28F05
102
}
330
18
100
AcDbEntity
  8
中心線
 48
0.5
100
AcDbLine
 10
615.5155639446291
 20
1212.439385820605
 30
0.0
 11
615.5155639446291
 21
1233.466356565442
 31
0.0
  0
LINE
  5
27098
102
{ACAD_REACTORS
330
28F05
102
}
330
18
100
AcDbEntity
  8
仮想線
100
AcDbLine
 10
611.1861736448011
 20
1225.208498107312
 30
0.0
 11
611.1861736448011
 21
1229.908498107312
 31
0.0
  0
LINE
  5
27099
102
{ACAD_REACTORS
330
28F05
102
}
330
18
100
AcDbEntity
  8
仮想線
100
AcDbLine
 10
619.6861736448011
 20
1225.208498107312
 30
0.0
 11
619.6861736448011
 21
1229.908498107312
 31
0.0
  0
LINE
  5
2709A
102
{ACAD_REACTORS
330
28F05
102
}
330
18
100
AcDbEntity
  8
仮想線
100
AcDbLine
 10
620.0361736448014
 20
1225.208498107312
 30
0.0
 11
610.8361736448016
 21
1225.208498107312
 31
0.0
  0
LINE
  5
2709B
102
{ACAD_REACTORS
330
28F05
102
}
330
18
100
AcDbEntity
  8
仮想線
100
AcDbLine
 10
615.436173644801
 20
1223.908498107312
 30
0.0
 11
610.436173644801
 21
1223.908498107312
 31
0.0
  0
LINE
  5
2709C
102
{ACAD_REACTORS
330
28F05
102
}
330
18
100
AcDbEntity
  8
仮想線
100
AcDbLine
 10
610.436173644801
 20
1222.908498107312
 30
0.0
 11
610.436173644801
 21
1223.908498107312
 31
0.0
  0
LINE
  5
2709D
102
{ACAD_REACTORS
330
28F05
102
}
330
18
100
AcDbEntity
  8
仮想線
100
AcDbLine
 10
610.8361736448012
 20
1223.908498107312
 30
0.0
 11
610.8361736448016
 21
1225.208498107312
 31
0.0
  0
LINE
  5
2709E
102
{ACAD_REACTORS
330
28F05
102
}
330
18
100
AcDbEntity
  8
仮想線
100
AcDbLine
 10
620.4361736448011
 20
1222.908498107312
 30
0.0
 11
620.4361736448011
 21
1223.908498107312
 31
0.0
  0
LINE
  5
2709F
102
{ACAD_REACTORS
330
28F05
102
}
330
18
100
AcDbEntity
  8
仮想線
100
AcDbLine
 10
620.4361736448011
 20
1223.908498107312
 30
0.0
 11
615.436173644801
 21
1223.908498107312
 31
0.0
  0
LINE
  5
270A0
102
{ACAD_REACTORS
330
28F05
102
}
330
18
100
AcDbEntity
  8
仮想線
100
AcDbLine
 10
620.0361736448014
 20
1223.908498107312
 30
0.0
 11
620.0361736448014
 21
1225.208498107312
 31
0.0
  0
LINE
  5
270A1
102
{ACAD_REACTORS
330
28F05
102
}
330
18
100
AcDbEntity
  8
仮想線
100
AcDbLine
 10
625.5949535599098
 20
1218.908492925175
 30
0.0
 11
625.5949535599104
 21
1222.908487575815
 31
0.0
  0
LINE
  5
270A2
102
{ACAD_REACTORS
330
28F05
102
}
330
18
100
AcDbEntity
  8
仮想線
100
AcDbLine
 10
611.4861736448013
 20
1230.208498107312
 30
0.0
 11
619.3861736448009
 21
1230.208498107312
 31
0.0
  0
LINE
  5
270A3
102
{ACAD_REACTORS
330
28F05
102
}
330
18
100
AcDbEntity
  8
仮想線
100
AcDbLine
 10
611.4861736448013
 20
1230.208498107312
 30
0.0
 11
611.1861736448011
 21
1229.908498107312
 31
0.0
  0
LINE
  5
270A4
102
{ACAD_REACTORS
330
28F05
102
}
330
18
100
AcDbEntity
  8
仮想線
100
AcDbLine
 10
619.6861736448011
 20
1229.908498107312
 30
0.0
 11
619.3861736448009
 21
1230.208498107312
 31
0.0
  0
CIRCLE
  5
270AB
330
18
100
AcDbEntity
  8
0
100
AcDbCircle
 10
764.6145897116026
 20
1175.007518692145
 30
0.0
 40
8.5
  0
CIRCLE
  5
270F1
330
18
100
AcDbEntity
  8
0
  6
BYBLOCK
100
AcDbCircle
 10
49.71740447323185
 20
1015.908492925172
 30
0.0
 40
202.4999999999999
  0
LINE
  5
271BD
330
18
100
AcDbEntity
  8
0
100
AcDbLine
 10
-162.2844246044038
 20
1136.407099090385
 30
0.0
 11
-168.284424513357
 21
1136.406053833794
 31
0.0
  0
LINE
  5
271BE
330
18
100
AcDbEntity
  8
0
100
AcDbLine
 10
-162.2833744936327
 20
1130.379235136855
 30
0.0
 11
-168.283374402586
 21
1130.378189880263
 31
0.0
  0
LINE
  5
271BF
330
18
100
AcDbEntity
  8
0
100
AcDbLine
 10
-162.2836391242759
 20
1131.898272517257
 30
0.0
 11
-168.2836390332291
 21
1131.897227260665
 31
0.0
  0
LINE
  5
271C0
330
18
100
AcDbEntity
  8
0
100
AcDbLine
 10
-162.2807662063338
 20
1115.407099409049
 30
0.0
 11
-168.2807661152868
 21
1115.406054152457
 31
0.0
  0
LINE
  5
271C1
330
18
100
AcDbEntity
  8
0
100
AcDbLine
 10
-168.2815515954147
 20
1119.914880725586
 30
0.0
 11
-162.2815516864615
 21
1119.915925982178
 31
0.0
  0
LINE
  5
271C2
330
18
100
AcDbEntity
  8
0
100
AcDbLine
 10
-168.2818162260579
 20
1121.433918105988
 30
0.0
 11
-162.2818163171046
 21
1121.434963362579
 31
0.0
  0
LINE
  5
271C6
330
18
100
AcDbEntity
  8
0
  6
BYBLOCK
100
AcDbLine
 10
-184.8249050071073
 20
1127.919555297142
 30
0.0
 11
-172.7829461535306
 21
1127.919555297142
 31
0.0
  0
LINE
  5
271C7
330
18
100
AcDbEntity
  8
0
  6
BYBLOCK
100
AcDbLine
 10
-184.8249050071068
 20
1123.919555297142
 30
0.0
 11
-172.7822493157924
 21
1123.919555297142
 31
0.0
  0
ARC
  5
271C8
330
18
100
AcDbEntity
  8
0
  6
BYBLOCK
100
AcDbCircle
 10
-187.7295805334837
 20
1126.919555296742
 30
0.0
 40
1.504525310907322
100
AcDbArc
 50
318.3436407292488
 51
41.6563592707512
  0
ARC
  5
271C9
330
18
100
AcDbEntity
  8
0
  6
BYBLOCK
100
AcDbCircle
 10
-183.7008069640697
 20
1126.919555296742
 30
0.0
 40
1.504525310907322
100
AcDbArc
 50
138.3436407292488
 51
221.6563592707511
  0
ARC
  5
271CA
330
18
100
AcDbEntity
  8
0
  6
BYBLOCK
100
AcDbCircle
 10
-183.7008069640693
 20
1124.919555297542
 30
0.0
 40
1.504525310907322
100
AcDbArc
 50
138.3436407292488
 51
221.6563592707511
  0
ARC
  5
271CB
330
18
100
AcDbEntity
  8
0
  6
BYBLOCK
100
AcDbCircle
 10
-187.7295805334837
 20
1124.919555297543
 30
0.0
 40
1.504525310907322
100
AcDbArc
 50
318.3436407292488
 51
41.6563592707512
  0
ARC
  5
271CC
330
18
100
AcDbEntity
  8
0
  6
BYBLOCK
100
AcDbCircle
 10
-185.4813844459853
 20
1124.919555297543
 30
0.0
 40
1.504525310907322
100
AcDbArc
 50
138.3436407292488
 51
221.6563592707511
  0
ARC
  5
271CD
330
18
100
AcDbEntity
  8
0
  6
BYBLOCK
100
AcDbCircle
 10
-185.9490030515677
 20
1126.919555296742
 30
0.0
 40
1.504525310907322
100
AcDbArc
 50
318.3436407292488
 51
41.6563592707512
  0
LINE
  5
271CE
330
18
100
AcDbEntity
  8
0
100
AcDbLine
 10
-168.2836390332291
 20
1131.897227260665
 30
0.0
 11
-168.283374402586
 21
1130.378189880263
 31
0.0
  0
ARC
  5
271CF
330
18
100
AcDbEntity
  8
0
100
AcDbCircle
 10
-160.3070221705296
 20
1115.70852807186
 30
0.0
 40
9.015903847971634
100
AcDbArc
 50
152.189542609415
 51
174.4703481467429
  0
LINE
  5
271D0
330
18
100
AcDbEntity
  8
0
100
AcDbLine
 10
-168.2818162260579
 20
1121.433918105988
 30
0.0
 11
-168.2815515954147
 21
1119.914880725586
 31
0.0
  0
ARC
  5
271D1
330
18
100
AcDbEntity
  8
0
100
AcDbCircle
 10
-158.782595458479
 20
1125.907708982729
 30
0.0
 40
10.50000000000042
100
AcDbArc
 50
154.801216168494
 51
205.2187467620018
  0
ARC
  5
271D2
330
18
100
AcDbEntity
  8
0
100
AcDbCircle
 10
-160.310575664971
 20
1136.106358135514
 30
0.0
 40
9.015903847971634
100
AcDbArc
 50
185.5496147837552
 51
207.8304203210864
  0
LINE
  5
271D3
330
18
100
AcDbEntity
  8
0
100
AcDbLine
 10
-169.2842204242762
 20
1135.234451070709
 30
0.0
 11
-169.2809701740185
 21
1116.577308496679
 31
0.0
  0
LINE
  5
271D4
330
18
100
AcDbEntity
  8
0
  6
BYBLOCK
100
AcDbLine
 10
-172.783506112495
 20
1131.133841399914
 30
0.0
 11
-172.7816843795786
 21
1120.676698701451
 31
0.0
  0
LINE
  5
271D5
330
18
100
AcDbEntity
  8
0
100
AcDbLine
 10
-168.2844245133566
 20
1136.406053833794
 30
0.0
 11
-172.783506112495
 21
1131.133841399914
 31
0.0
  0
LINE
  5
271D6
330
18
100
AcDbEntity
  8
0
100
AcDbLine
 10
-168.2807661152868
 20
1115.406054152457
 30
0.0
 11
-172.7816843795786
 21
1120.676698701451
 31
0.0
  0
LINE
  5
271D7
330
18
100
AcDbEntity
  8
0
100
AcDbLine
 10
-154.2844247258
 20
1136.40849276584
 30
0.0
 11
-157.2844246802761
 21
1136.407970137545
 31
0.0
  0
LINE
  5
271D8
330
18
100
AcDbEntity
  8
0
100
AcDbLine
 10
-153.284163426826
 20
1134.908666998034
 30
0.0
 11
-154.284163411652
 21
1134.908492788602
 31
0.0
  0
LINE
  5
271D9
330
18
100
AcDbEntity
  8
0
100
AcDbLine
 10
-153.2810276570518
 20
1116.908667271174
 30
0.0
 11
-154.281027641878
 21
1116.908493061742
 31
0.0
  0
LINE
  5
271DA
330
18
100
AcDbEntity
  8
0
100
AcDbLine
 10
-159.2842504404951
 20
1135.407621733856
 30
0.0
 11
-162.2842503949717
 21
1135.40709910556
 31
0.0
  0
LINE
  5
271DB
330
18
100
AcDbEntity
  8
0
100
AcDbLine
 10
-159.2809404612891
 20
1116.40762202217
 30
0.0
 11
-162.2809404157657
 21
1116.407099393874
 31
0.0
  0
LINE
  5
271DC
330
18
100
AcDbEntity
  8
0
100
AcDbLine
 10
-157.2838846310372
 20
1133.307970184586
 30
0.0
 11
-159.2838846006883
 21
1133.307621765722
 31
0.0
  0
LINE
  5
271DD
330
18
100
AcDbEntity
  8
0
100
AcDbLine
 10
-157.281306331445
 20
1118.507970409168
 30
0.0
 11
-159.2813063010961
 21
1118.507621990304
 31
0.0
  0
LINE
  5
271DE
330
18
100
AcDbEntity
  8
0
100
AcDbLine
 10
-159.2809404612891
 20
1116.40762202217
 30
0.0
 11
-159.2842504404951
 21
1135.407621733856
 31
0.0
  0
LINE
  5
271DF
330
18
100
AcDbEntity
  8
0
100
AcDbLine
 10
-154.2833746150289
 20
1130.38062881231
 30
0.0
 11
-157.283374569505
 21
1130.380106184014
 31
0.0
  0
LINE
  5
271E0
330
18
100
AcDbEntity
  8
0
100
AcDbLine
 10
-154.2836392456721
 20
1131.899666192712
 30
0.0
 11
-157.2836392001482
 21
1131.899143564416
 31
0.0
  0
LINE
  5
271E1
330
18
100
AcDbEntity
  8
0
100
AcDbLine
 10
-154.28076632773
 20
1115.408493084504
 30
0.0
 11
-157.2807662822061
 21
1115.407970456208
 31
0.0
  0
LINE
  5
271E2
330
18
100
AcDbEntity
  8
0
100
AcDbLine
 10
-157.2815517623338
 20
1119.916797029337
 30
0.0
 11
-154.2815518078576
 21
1119.917319657633
 31
0.0
  0
LINE
  5
271E3
330
18
100
AcDbEntity
  8
0
100
AcDbLine
 10
-157.281816392977
 20
1121.435834409739
 30
0.0
 11
-154.2818164385008
 21
1121.436357038035
 31
0.0
  0
LINE
  5
271E4
330
18
100
AcDbEntity
  8
0
100
AcDbLine
 10
-157.2844246802761
 20
1136.407970137545
 30
0.0
 11
-157.2807662822061
 21
1115.407970456208
 31
0.0
  0
LINE
  5
271E5
330
18
100
AcDbEntity
  8
0
100
AcDbLine
 10
-154.28076632773
 20
1115.408493084504
 30
0.0
 11
-154.2844247258
 21
1136.40849276584
 31
0.0
  0
LINE
  5
271E6
330
18
100
AcDbEntity
  8
0
100
AcDbLine
 10
-162.2844246044038
 20
1136.407099090385
 30
0.0
 11
-162.2807662063338
 21
1115.407099409049
 31
0.0
  0
LINE
  5
27207
330
18
100
AcDbEntity
  8
中心線
100
AcDbLine
 10
-147.9414146774306
 20
1095.908492925172
 30
0.0
 11
-174.2825955267619
 21
1095.908492925172
 31
0.0
  0
LINE
  5
27215
330
18
100
AcDbEntity
  8
中心線
100
AcDbLine
 10
-147.5097775260455
 20
1125.908492925172
 30
0.0
 11
-174.2825955267619
 21
1125.908492925172
 31
0.0
  0
LINE
  5
2724C
330
18
100
AcDbEntity
  8
中心線
100
AcDbLine
 10
407.992630781031
 20
1095.908492925172
 30
0.0
 11
379.0128454144605
 21
1095.908492925172
 31
0.0
  0
LINE
  5
2724D
330
18
100
AcDbEntity
  8
中心線
100
AcDbLine
 10
407.7896513064051
 20
935.908492925172
 30
0.0
 11
376.783310339344
 21
935.908492925172
 31
0.0
  0
LINE
  5
272CB
330
18
100
AcDbEntity
  8
ｷｬｯﾌ_ﾎ_ﾙﾄ
100
AcDbLine
 10
247.6674044732375
 20
484.0427692718371
 30
0.0
 11
242.7674044732378
 21
484.0427692718371
 31
0.0
  0
LINE
  5
272CC
330
18
100
AcDbEntity
  8
ｷｬｯﾌ_ﾎ_ﾙﾄ
100
AcDbLine
 10
248.7174044732376
 20
483.742769271837
 30
0.0
 11
241.7174044732377
 21
483.742769271837
 31
0.0
  0
LINE
  5
272CD
330
18
100
AcDbEntity
  8
ｷｬｯﾌ_ﾎ_ﾙﾄ
100
AcDbLine
 10
248.7174044732376
 20
483.2427692718375
 30
0.0
 11
241.7174044732377
 21
483.2427692718375
 31
0.0
  0
LINE
  5
272CE
330
18
100
AcDbEntity
  8
ｷｬｯﾌ_ﾎ_ﾙﾄ
100
AcDbLine
 10
241.7174044732377
 20
483.742769271837
 30
0.0
 11
241.7174044732377
 21
483.2427692718375
 31
0.0
  0
LINE
  5
272CF
330
18
100
AcDbEntity
  8
ｷｬｯﾌ_ﾎ_ﾙﾄ
100
AcDbLine
 10
241.7174044732377
 20
483.742769271837
 30
0.0
 11
242.7674044732378
 21
484.0427692718371
 31
0.0
  0
LINE
  5
272D0
330
18
100
AcDbEntity
  8
中心線
 48
0.5
100
AcDbLine
 10
245.2174044732377
 20
485.0427692718372
 30
0.0
 11
245.2174044732377
 21
476.2427692718374
 31
0.0
  0
LINE
  5
272D1
330
18
100
AcDbEntity
  8
中心線
 48
0.2
100
AcDbLine
 10
245.2174044732377
 20
472.5013007828547
 30
0.0
 11
245.2174044732377
 21
483.6117358500389
 31
0.0
  0
LINE
  5
272D2
330
18
100
AcDbEntity
  8
ｷｬｯﾌ_ﾎ_ﾙﾄ
100
AcDbLine
 10
248.7174044732376
 20
483.742769271837
 30
0.0
 11
248.7174044732376
 21
483.2427692718375
 31
0.0
  0
LINE
  5
272D3
330
18
100
AcDbEntity
  8
ｷｬｯﾌ_ﾎ_ﾙﾄ
100
AcDbLine
 10
248.7174044732376
 20
483.742769271837
 30
0.0
 11
247.6674044732375
 21
484.0427692718371
 31
0.0
  0
LINE
  5
272D4
330
18
100
AcDbEntity
  8
ｷｬｯﾌ_ﾎ_ﾙﾄ
100
AcDbLine
 10
-143.3325955267623
 20
484.0427692718371
 30
0.0
 11
-148.232595526762
 21
484.0427692718371
 31
0.0
  0
LINE
  5
272D5
330
18
100
AcDbEntity
  8
ｷｬｯﾌ_ﾎ_ﾙﾄ
100
AcDbLine
 10
-142.2825955267621
 20
483.742769271837
 30
0.0
 11
-149.2825955267621
 21
483.742769271837
 31
0.0
  0
LINE
  5
272D6
330
18
100
AcDbEntity
  8
ｷｬｯﾌ_ﾎ_ﾙﾄ
100
AcDbLine
 10
-142.2825955267621
 20
483.2427692718375
 30
0.0
 11
-149.2825955267621
 21
483.2427692718375
 31
0.0
  0
LINE
  5
272D7
330
18
100
AcDbEntity
  8
ｷｬｯﾌ_ﾎ_ﾙﾄ
100
AcDbLine
 10
-149.2825955267621
 20
483.742769271837
 30
0.0
 11
-149.2825955267621
 21
483.2427692718375
 31
0.0
  0
LINE
  5
272D8
330
18
100
AcDbEntity
  8
ｷｬｯﾌ_ﾎ_ﾙﾄ
100
AcDbLine
 10
-149.2825955267621
 20
483.742769271837
 30
0.0
 11
-148.232595526762
 21
484.0427692718371
 31
0.0
  0
LINE
  5
272D9
330
18
100
AcDbEntity
  8
中心線
 48
0.5
100
AcDbLine
 10
-145.7825955267621
 20
485.0427692718372
 30
0.0
 11
-145.7825955267621
 21
476.2427692718374
 31
0.0
  0
LINE
  5
272DA
330
18
100
AcDbEntity
  8
中心線
 48
0.2
100
AcDbLine
 10
-145.7825955267621
 20
472.5013007828547
 30
0.0
 11
-145.7825955267621
 21
483.6117358500389
 31
0.0
  0
LINE
  5
272DB
330
18
100
AcDbEntity
  8
ｷｬｯﾌ_ﾎ_ﾙﾄ
100
AcDbLine
 10
-142.2825955267621
 20
483.742769271837
 30
0.0
 11
-142.2825955267621
 21
483.2427692718375
 31
0.0
  0
LINE
  5
272DC
330
18
100
AcDbEntity
  8
ｷｬｯﾌ_ﾎ_ﾙﾄ
100
AcDbLine
 10
-142.2825955267621
 20
483.742769271837
 30
0.0
 11
-143.3325955267623
 21
484.0427692718371
 31
0.0
  0
CIRCLE
  5
27363
330
18
100
AcDbEntity
  8
0
  6
BYBLOCK
100
AcDbCircle
 10
605.5155639446293
 20
1015.908492925172
 30
0.0
 40
34.39999999999999
  0
LWPOLYLINE
  5
27364
330
18
100
AcDbEntity
  8
DIMENSION
  6
CONTINUOUS
100
AcDbPolyline
 90
        6
 70
     1
 43
0.0
 10
553.2434080211677
 20
1205.195279700352
 10
554.4681528914197
 20
1206.420024570603
 10
556.1411854973384
 20
1205.971736834937
 10
556.5894732330057
 20
1204.298704229018
 10
555.3647283627539
 20
1203.073959358766
 10
553.691695756835
 20
1203.522247094433
  0
CIRCLE
  5
27365
330
18
100
AcDbEntity
  8
DIMENSION
  6
CONTINUOUS
100
AcDbCircle
 10
554.9164406270866
 20
1204.746991964685
 30
0.0
 40
3.5
  0
CIRCLE
  5
27366
330
18
100
AcDbEntity
  8
0
100
AcDbCircle
 10
554.9164406270866
 20
1204.746991964685
 30
0.0
 40
4.0
  0
LWPOLYLINE
  5
27367
330
18
100
AcDbEntity
  8
DIMENSION
  6
CONTINUOUS
100
AcDbPolyline
 90
        6
 70
     1
 43
0.0
 10
465.6031556167399
 20
1153.699580911476
 10
466.0514433524074
 20
1155.372613517394
 10
467.7244759583259
 20
1155.820901253061
 10
468.9492208285782
 20
1154.596156382809
 10
468.5009330929114
 20
1152.923123776891
 10
466.8279004869928
 20
1152.474836041223
  0
CIRCLE
  5
27368
330
18
100
AcDbEntity
  8
DIMENSION
  6
CONTINUOUS
100
AcDbCircle
 10
467.2761882226592
 20
1154.147868647142
 30
0.0
 40
3.5
  0
CIRCLE
  5
27369
330
18
100
AcDbEntity
  8
0
100
AcDbCircle
 10
467.2761882226592
 20
1154.147868647142
 30
0.0
 40
4.0
  0
LWPOLYLINE
  5
2736A
330
18
100
AcDbEntity
  8
DIMENSION
  6
CONTINUOUS
100
AcDbPolyline
 90
        6
 70
     1
 43
0.0
 10
415.4523200348637
 20
1065.282871372463
 10
415.0040322991976
 20
1066.955903978381
 10
416.2287771694491
 20
1068.180648848633
 10
417.9018097753685
 20
1067.732361112967
 10
418.3500975110351
 20
1066.059328507048
 10
417.1253526407836
 20
1064.834583636796
  0
CIRCLE
  5
2736B
330
18
100
AcDbEntity
  8
DIMENSION
  6
CONTINUOUS
100
AcDbCircle
 10
416.6770649051164
 20
1066.507616242714
 30
0.0
 40
3.5
  0
CIRCLE
  5
2736C
330
18
100
AcDbEntity
  8
0
100
AcDbCircle
 10
416.6770649051164
 20
1066.507616242714
 30
0.0
 40
4.0
  0
LWPOLYLINE
  5
2736D
330
18
100
AcDbEntity
  8
DIMENSION
  6
CONTINUOUS
100
AcDbPolyline
 90
        6
 70
     1
 43
0.0
 10
416.2287771694487
 20
963.6363370017102
 10
415.0040322991976
 20
964.8610818719623
 10
415.452320034864
 20
966.5341144778809
 10
417.1253526407833
 20
966.9824022135482
 10
418.3500975110346
 20
965.7576573432963
 10
417.9018097753685
 20
964.0846247373776
  0
CIRCLE
  5
2736E
330
18
100
AcDbEntity
  8
DIMENSION
  6
CONTINUOUS
100
AcDbCircle
 10
416.6770649051165
 20
965.3093696076293
 30
0.0
 40
3.5
  0
CIRCLE
  5
2736F
330
18
100
AcDbEntity
  8
0
100
AcDbCircle
 10
416.6770649051165
 20
965.3093696076293
 30
0.0
 40
4.0
  0
LWPOLYLINE
  5
27370
330
18
100
AcDbEntity
  8
DIMENSION
  6
CONTINUOUS
100
AcDbPolyline
 90
        6
 70
     1
 43
0.0
 10
467.7244759583256
 20
875.9960845972827
 10
466.0514433524077
 20
876.4443723329501
 10
465.6031556167404
 20
878.1174049388685
 10
466.8279004869923
 20
879.3421498091211
 10
468.5009330929108
 20
878.8938620734539
 10
468.9492208285781
 20
877.2208294675357
  0
CIRCLE
  5
27371
330
18
100
AcDbEntity
  8
DIMENSION
  6
CONTINUOUS
100
AcDbCircle
 10
467.2761882226593
 20
877.669117203202
 30
0.0
 40
3.5
  0
CIRCLE
  5
27372
330
18
100
AcDbEntity
  8
0
100
AcDbCircle
 10
467.2761882226593
 20
877.669117203202
 30
0.0
 40
4.0
  0
LWPOLYLINE
  5
27373
330
18
100
AcDbEntity
  8
DIMENSION
  6
CONTINUOUS
100
AcDbPolyline
 90
        6
 70
     1
 43
0.0
 10
556.1411854973382
 20
825.8452490154066
 10
554.4681528914197
 20
825.3969612797405
 10
553.2434080211677
 20
826.6217061499919
 10
553.6916957568344
 20
828.2947387559113
 10
555.364728362753
 20
828.7430264915778
 10
556.5894732330051
 20
827.5182816213265
  0
CIRCLE
  5
27374
330
18
100
AcDbEntity
  8
DIMENSION
  6
CONTINUOUS
100
AcDbCircle
 10
554.9164406270866
 20
827.0699938856591
 30
0.0
 40
3.5
  0
CIRCLE
  5
27375
330
18
100
AcDbEntity
  8
0
100
AcDbCircle
 10
554.9164406270866
 20
827.0699938856591
 30
0.0
 40
4.0
  0
LWPOLYLINE
  5
27376
330
18
100
AcDbEntity
  8
DIMENSION
  6
CONTINUOUS
100
AcDbPolyline
 90
        6
 70
     1
 43
0.0
 10
657.7877198680911
 20
826.6217061499915
 10
656.562974997839
 20
825.3969612797401
 10
654.8899423919205
 20
825.8452490154066
 10
654.4416546562531
 20
827.5182816213259
 10
655.6663995265049
 20
828.7430264915775
 10
657.3394321324237
 20
828.2947387559111
  0
CIRCLE
  5
27377
330
18
100
AcDbEntity
  8
DIMENSION
  6
CONTINUOUS
100
AcDbCircle
 10
656.1146872621719
 20
827.0699938856591
 30
0.0
 40
3.5
  0
CIRCLE
  5
27378
330
18
100
AcDbEntity
  8
0
100
AcDbCircle
 10
656.1146872621719
 20
827.0699938856591
 30
0.0
 40
4.0
  0
LWPOLYLINE
  5
27379
330
18
100
AcDbEntity
  8
DIMENSION
  6
CONTINUOUS
100
AcDbPolyline
 90
        6
 70
     1
 43
0.0
 10
745.4279722725189
 20
878.1174049388678
 10
744.9796845368514
 20
876.4443723329497
 10
743.3066519309329
 20
875.9960845972827
 10
742.0819070606805
 20
877.2208294675348
 10
742.5301947963474
 20
878.893862073453
 10
744.203227402266
 20
879.3421498091204
  0
CIRCLE
  5
2737A
330
18
100
AcDbEntity
  8
DIMENSION
  6
CONTINUOUS
100
AcDbCircle
 10
743.7549396665994
 20
877.6691172032016
 30
0.0
 40
3.5
  0
CIRCLE
  5
2737B
330
18
100
AcDbEntity
  8
0
100
AcDbCircle
 10
743.7549396665994
 20
877.6691172032016
 30
0.0
 40
4.0
  0
LWPOLYLINE
  5
2737C
330
18
100
AcDbEntity
  8
DIMENSION
  6
CONTINUOUS
100
AcDbPolyline
 90
        6
 70
     1
 43
0.0
 10
795.578807854395
 20
966.5341144778809
 10
796.0270955900611
 20
964.8610818719623
 10
794.8023507198096
 20
963.6363370017104
 10
793.1293181138902
 20
964.0846247373771
 10
792.6810303782237
 20
965.7576573432956
 10
793.9057752484751
 20
966.9824022135477
  0
CIRCLE
  5
2737D
330
18
100
AcDbEntity
  8
DIMENSION
  6
CONTINUOUS
100
AcDbCircle
 10
794.3540629841424
 20
965.3093696076293
 30
0.0
 40
3.5
  0
CIRCLE
  5
2737E
330
18
100
AcDbEntity
  8
0
100
AcDbCircle
 10
794.3540629841424
 20
965.3093696076293
 30
0.0
 40
4.0
  0
LWPOLYLINE
  5
2737F
330
18
100
AcDbEntity
  8
DIMENSION
  6
CONTINUOUS
100
AcDbPolyline
 90
        6
 70
     1
 43
0.0
 10
794.8023507198101
 20
1068.180648848634
 10
796.0270955900613
 20
1066.955903978381
 10
795.5788078543947
 20
1065.282871372462
 10
793.9057752484756
 20
1064.834583636795
 10
792.6810303782241
 20
1066.059328507047
 10
793.1293181138904
 20
1067.732361112966
  0
CIRCLE
  5
27380
330
18
100
AcDbEntity
  8
DIMENSION
  6
CONTINUOUS
100
AcDbCircle
 10
794.3540629841424
 20
1066.507616242714
 30
0.0
 40
3.5
  0
CIRCLE
  5
27381
330
18
100
AcDbEntity
  8
0
100
AcDbCircle
 10
794.3540629841424
 20
1066.507616242714
 30
0.0
 40
4.0
  0
LWPOLYLINE
  5
27382
330
18
100
AcDbEntity
  8
DIMENSION
  6
CONTINUOUS
100
AcDbPolyline
 90
        6
 70
     1
 43
0.0
 10
743.306651930933
 20
1155.820901253061
 10
744.9796845368513
 20
1155.372613517394
 10
745.4279722725186
 20
1153.699580911475
 10
744.2032274022664
 20
1152.474836041223
 10
742.5301947963479
 20
1152.923123776889
 10
742.0819070606807
 20
1154.596156382808
  0
CIRCLE
  5
27383
330
18
100
AcDbEntity
  8
DIMENSION
  6
CONTINUOUS
100
AcDbCircle
 10
743.7549396665994
 20
1154.147868647142
 30
0.0
 40
3.5
  0
CIRCLE
  5
27384
330
18
100
AcDbEntity
  8
0
100
AcDbCircle
 10
743.7549396665994
 20
1154.147868647142
 30
0.0
 40
4.0
  0
CIRCLE
  5
2757F
330
18
100
AcDbEntity
  8
破線
100
AcDbCircle
 10
605.5155639446294
 20
1015.908492925171
 30
0.0
 40
202.4999999999999
  0
ARC
  5
275C6
330
18
100
AcDbEntity
  8
0
100
AcDbCircle
 10
-103.282595526765
 20
1168.908492925175
 30
0.0
 40
50.0
100
AcDbArc
 50
90.0
 51
180.0
  0
ARC
  5
275C7
330
18
100
AcDbEntity
  8
0
100
AcDbCircle
 10
202.7174044732409
 20
1168.908492925175
 30
0.0
 40
50.0
100
AcDbArc
 50
0.0
 51
90.0
  0
ARC
  5
275C8
330
18
100
AcDbEntity
  8
0
100
AcDbCircle
 10
-103.282595526765
 20
862.9084929251693
 30
0.0
 40
50.0
100
AcDbArc
 50
180.0
 51
269.9999999999999
  0
ARC
  5
275C9
330
18
100
AcDbEntity
  8
0
100
AcDbCircle
 10
202.7174044732409
 20
862.9084929251694
 30
0.0
 40
50.0
100
AcDbArc
 50
269.9999999999998
 51
0.0000000000000127
  0
ARC
  5
27600
330
18
100
AcDbEntity
  8
0
100
AcDbCircle
 10
452.5155639446264
 20
1168.908492925175
 30
0.0
 40
50.0
100
AcDbArc
 50
89.99999999999992
 51
180.0
  0
ARC
  5
27601
330
18
100
AcDbEntity
  8
0
100
AcDbCircle
 10
758.5155639446325
 20
1168.908492925174
 30
0.0
 40
50.0
100
AcDbArc
 50
0.0
 51
89.99999999999992
  0
ARC
  5
27602
330
18
100
AcDbEntity
  8
0
100
AcDbCircle
 10
758.5155639446325
 20
862.9084929251687
 30
0.0
 40
50.0
100
AcDbArc
 50
270.0
 51
0.0
  0
ARC
  5
27603
330
18
100
AcDbEntity
  8
0
100
AcDbCircle
 10
452.5155639446264
 20
862.9084929251687
 30
0.0
 40
50.0
100
AcDbArc
 50
180.0
 51
270.0
  0
CIRCLE
  5
27740
330
18
100
AcDbEntity
  8
細線
 48
5.0
100
AcDbCircle
 10
-58.61144835810399
 20
1035.00979246854
 30
0.0
 40
2.399999999999999
  0
CIRCLE
  5
27741
330
18
100
AcDbEntity
  8
細線
 48
5.0
100
AcDbCircle
 10
-58.61144835810399
 20
1035.00979246854
 30
0.0
 40
3.0
  0
LINE
  5
27840
330
18
100
AcDbEntity
  8
0
100
AcDbLine
 10
393.5062631943409
 20
916.5960354896141
 30
0.0
 11
387.5062632853877
 21
916.5949902330224
 31
0.0
  0
LINE
  5
27841
330
18
100
AcDbEntity
  8
0
100
AcDbLine
 10
387.5088715726868
 20
901.622854505217
 30
0.0
 11
393.5088714816401
 21
901.6238997618085
 31
0.0
  0
LINE
  5
27842
330
18
100
AcDbEntity
  8
0
100
AcDbLine
 10
387.5091362033298
 20
900.1038171248152
 30
0.0
 11
393.509136112283
 21
900.1048623814066
 31
0.0
  0
LINE
  5
27843
330
18
100
AcDbEntity
  8
0
100
AcDbLine
 10
393.5099215924109
 20
895.5960358082776
 30
0.0
 11
387.5099216834579
 21
895.5949905516861
 31
0.0
  0
LINE
  5
27844
330
18
100
AcDbEntity
  8
0
100
AcDbLine
 10
393.5070486744688
 20
912.0872089164851
 30
0.0
 11
387.5070487655156
 21
912.0861636598936
 31
0.0
  0
LINE
  5
27845
330
18
100
AcDbEntity
  8
0
100
AcDbLine
 10
393.5073133051117
 20
910.5681715360832
 30
0.0
 11
387.5073133961585
 21
910.5671262794919
 31
0.0
  0
LINE
  5
27846
330
18
100
AcDbEntity
  8
0
100
AcDbLine
 10
387.5088715726868
 20
901.622854505217
 30
0.0
 11
387.5091362033298
 21
900.1038171248152
 31
0.0
  0
LINE
  5
27847
330
18
100
AcDbEntity
  8
0
100
AcDbLine
 10
386.5064673744683
 20
915.4233874699377
 30
0.0
 11
386.5097176247262
 21
896.7662448959071
 31
0.0
  0
LINE
  5
27848
330
18
100
AcDbEntity
  8
0
100
AcDbLine
 10
387.5099216834579
 20
895.5949905516861
 30
0.0
 11
383.0090034191661
 21
900.8656351006795
 31
0.0
  0
ARC
  5
27849
330
18
100
AcDbEntity
  8
0
100
AcDbCircle
 10
395.4836656282151
 20
895.897464471089
 30
0.0
 40
9.015903847971634
100
AcDbArc
 50
152.1895426094165
 51
174.4703481467429
  0
LINE
  5
2784A
330
18
100
AcDbEntity
  8
0
100
AcDbLine
 10
370.9924003919294
 20
908.1050989034567
 30
0.0
 11
383.0331419722107
 21
908.1050989034565
 31
0.0
  0
LINE
  5
2784B
330
18
100
AcDbEntity
  8
0
100
AcDbLine
 10
370.9924003919299
 20
904.1050989034566
 30
0.0
 11
383.0331419722107
 21
904.1050989034566
 31
0.0
  0
ARC
  5
2784C
330
18
100
AcDbEntity
  8
0
100
AcDbCircle
 10
372.1164984349668
 20
907.1050989030565
 30
0.0
 40
1.504525310907322
100
AcDbArc
 50
138.3436407292488
 51
221.6563592707511
  0
ARC
  5
2784D
330
18
100
AcDbEntity
  8
0
100
AcDbCircle
 10
369.868302347469
 20
907.1050989030565
 30
0.0
 40
1.504525310907322
100
AcDbArc
 50
318.3436407292488
 51
41.6563592707512
  0
ARC
  5
2784E
330
18
100
AcDbEntity
  8
0
100
AcDbCircle
 10
372.1164984349674
 20
905.1050989038566
 30
0.0
 40
1.504525310907322
100
AcDbArc
 50
138.3436407292488
 51
221.6563592707511
  0
LINE
  5
2784F
330
18
100
AcDbEntity
  8
0
100
AcDbLine
 10
387.5070487655156
 20
912.0861636598936
 30
0.0
 11
387.5073133961585
 21
910.5671262794919
 31
0.0
  0
LINE
  5
27850
330
18
100
AcDbEntity
  8
0
100
AcDbLine
 10
383.0071816862495
 20
911.3227777991424
 30
0.0
 11
383.0090034191661
 21
900.8656351006795
 31
0.0
  0
ARC
  5
27851
330
18
100
AcDbEntity
  8
0
100
AcDbCircle
 10
397.0080923402657
 20
906.0966453819574
 30
0.0
 40
10.50000000000042
100
AcDbArc
 50
154.8012161684953
 51
205.2187467620091
  0
LINE
  5
27852
330
18
100
AcDbEntity
  8
0
100
AcDbLine
 10
387.5062632853881
 20
916.5949902330224
 30
0.0
 11
383.0071816862495
 21
911.3227777991422
 31
0.0
  0
ARC
  5
27853
330
18
100
AcDbEntity
  8
0
100
AcDbCircle
 10
395.4801121337737
 20
916.2952945347425
 30
0.0
 40
9.015903847971634
100
AcDbArc
 50
185.5496147837552
 51
207.8304203210879
  0
LINE
  5
27854
330
18
100
AcDbEntity
  8
0
100
AcDbLine
 10
396.5097473374557
 20
896.5965584213989
 30
0.0
 11
396.5064373582494
 21
915.5965581330841
 31
0.0
  0
LINE
  5
27855
330
18
100
AcDbEntity
  8
0
100
AcDbLine
 10
393.5062631943409
 20
916.5960354896141
 30
0.0
 11
393.5099215924109
 21
895.5960358082776
 31
0.0
  0
LINE
  5
27856
330
18
100
AcDbEntity
  8
0
100
AcDbLine
 10
401.5099214710147
 20
895.597429483733
 30
0.0
 11
401.5062630729447
 21
916.5974291650693
 31
0.0
  0
LINE
  5
27857
330
18
100
AcDbEntity
  8
0
100
AcDbLine
 10
398.5062631184686
 20
916.5969065367734
 30
0.0
 11
398.5099215165386
 21
895.5969068554372
 31
0.0
  0
LINE
  5
27858
330
18
100
AcDbEntity
  8
0
100
AcDbLine
 10
402.509660141693
 20
897.0976036704032
 30
0.0
 11
401.5096601568667
 21
897.0974294609712
 31
0.0
  0
LINE
  5
27859
330
18
100
AcDbEntity
  8
0
100
AcDbLine
 10
396.5097473374557
 20
896.5965584213989
 30
0.0
 11
393.509747382979
 21
896.5960357931031
 31
0.0
  0
LINE
  5
2785A
330
18
100
AcDbEntity
  8
0
100
AcDbLine
 10
398.5093814672996
 20
898.6969068083967
 30
0.0
 11
396.5093814976486
 21
898.6965583895329
 31
0.0
  0
LINE
  5
2785B
330
18
100
AcDbEntity
  8
0
100
AcDbLine
 10
398.5091360364107
 20
900.1057334285661
 30
0.0
 11
401.5091359908868
 21
900.106256056862
 31
0.0
  0
LINE
  5
2785C
330
18
100
AcDbEntity
  8
0
100
AcDbLine
 10
401.5099214710147
 20
895.597429483733
 30
0.0
 11
398.5099215165386
 21
895.5969068554372
 31
0.0
  0
LINE
  5
2785D
330
18
100
AcDbEntity
  8
中心線
100
AcDbLine
 10
407.1816863045714
 20
905.9084929251721
 30
0.0
 11
376.884638538947
 21
905.9084929251721
 31
0.0
  0
LINE
  5
2785E
330
18
100
AcDbEntity
  8
0
100
AcDbLine
 10
402.5065243719185
 20
915.0976033972627
 30
0.0
 11
401.5065243870926
 21
915.0974291878309
 31
0.0
  0
LINE
  5
2785F
330
18
100
AcDbEntity
  8
0
100
AcDbLine
 10
396.5064373582494
 20
915.5965581330841
 30
0.0
 11
393.5064374037727
 21
915.5960355047884
 31
0.0
  0
LINE
  5
27860
330
18
100
AcDbEntity
  8
0
100
AcDbLine
 10
398.5068031677075
 20
913.4969065838149
 30
0.0
 11
396.5068031980564
 21
913.4965581649511
 31
0.0
  0
LINE
  5
27861
330
18
100
AcDbEntity
  8
0
100
AcDbLine
 10
401.5062630729447
 20
916.5974291650693
 30
0.0
 11
398.5062631184686
 21
916.5969065367734
 31
0.0
  0
LINE
  5
27862
330
18
100
AcDbEntity
  8
0
100
AcDbLine
 10
398.5088714057677
 20
901.6247708089681
 30
0.0
 11
401.5088713602438
 21
901.6252934372639
 31
0.0
  0
LINE
  5
27863
330
18
100
AcDbEntity
  8
0
100
AcDbLine
 10
401.5070485530726
 20
912.0886025919404
 30
0.0
 11
398.5070485985965
 21
912.0880799636447
 31
0.0
  0
LINE
  5
27864
330
18
100
AcDbEntity
  8
0
100
AcDbLine
 10
401.5073131837156
 20
910.5695652115384
 30
0.0
 11
398.5073132292394
 21
910.5690425832428
 31
0.0
  0
CIRCLE
  5
27873
330
18
100
AcDbEntity
  8
細線
100
AcDbCircle
 10
49.71740447323793
 20
1211.408492925159
 30
0.0
 40
3.5
  0
ARC
  5
27874
330
18
100
AcDbEntity
  8
細線
100
AcDbCircle
 10
49.71740447323793
 20
1210.328492925159
 30
0.0
 40
0.5
100
AcDbArc
 50
42.3463876628233
 51
137.6536123371767
  0
ARC
  5
27875
330
18
100
AcDbEntity
  8
細線
100
AcDbCircle
 10
48.78209703715072
 20
1210.868492925159
 30
0.0
 40
0.5
100
AcDbArc
 50
342.3463876628193
 51
77.65361233717704
  0
ARC
  5
27876
330
18
100
AcDbEntity
  8
細線
100
AcDbCircle
 10
50.65271190932515
 20
1210.868492925159
 30
0.0
 40
0.5
100
AcDbArc
 50
102.3463876628245
 51
197.6536123371806
  0
ARC
  5
27877
330
18
100
AcDbEntity
  8
細線
100
AcDbCircle
 10
49.71740447323793
 20
1212.488492925159
 30
0.0
 40
0.5
100
AcDbArc
 50
222.3463876628232
 51
317.6536123371767
  0
ARC
  5
27878
330
18
100
AcDbEntity
  8
細線
100
AcDbCircle
 10
48.78209703715078
 20
1211.948492925159
 30
0.0
 40
0.5
100
AcDbArc
 50
282.3463876628244
 51
17.65361233718062
  0
CIRCLE
  5
27879
330
18
100
AcDbEntity
  8
細線
100
AcDbCircle
 10
49.71740447323793
 20
1211.408492925159
 30
0.0
 40
0.8299999999999998
  0
ARC
  5
2787A
330
18
100
AcDbEntity
  8
細線
100
AcDbCircle
 10
50.65271190932509
 20
1211.948492925159
 30
0.0
 40
0.5
100
AcDbArc
 50
162.3463876628193
 51
257.653612337177
  0
CIRCLE
  5
2787C
330
18
100
AcDbEntity
  8
細線
100
AcDbCircle
 10
-88.52197124871805
 20
1154.147868647135
 30
0.0
 40
3.5
  0
ARC
  5
2787D
330
18
100
AcDbEntity
  8
細線
100
AcDbCircle
 10
-87.75829592503658
 20
1153.384193323453
 30
0.0
 40
0.5
100
AcDbArc
 50
87.34638766282328
 51
182.6536123371767
  0
ARC
  5
2787E
330
18
100
AcDbEntity
  8
細線
100
AcDbCircle
 10
-88.80149581742875
 20
1153.104668754743
 30
0.0
 40
0.5
100
AcDbArc
 50
27.34638766281937
 51
122.653612337177
  0
ARC
  5
2787F
330
18
100
AcDbEntity
  8
細線
100
AcDbCircle
 10
-87.47877135632586
 20
1154.427393215846
 30
0.0
 40
0.5
100
AcDbArc
 50
147.3463876628245
 51
242.6536123371806
  0
ARC
  5
27880
330
18
100
AcDbEntity
  8
細線
100
AcDbCircle
 10
-89.28564657239951
 20
1154.911543970816
 30
0.0
 40
0.5
100
AcDbArc
 50
267.3463876628232
 51
2.653612337176678
  0
ARC
  5
27881
330
18
100
AcDbEntity
  8
細線
100
AcDbCircle
 10
-89.56517114111012
 20
1153.868344078424
 30
0.0
 40
0.5
100
AcDbArc
 50
327.3463876628244
 51
62.65361233718062
  0
CIRCLE
  5
27882
330
18
100
AcDbEntity
  8
細線
100
AcDbCircle
 10
-88.52197124871805
 20
1154.147868647135
 30
0.0
 40
0.8299999999999998
  0
ARC
  5
27883
330
18
100
AcDbEntity
  8
細線
100
AcDbCircle
 10
-88.24244668000734
 20
1155.191068539527
 30
0.0
 40
0.5
100
AcDbArc
 50
207.3463876628193
 51
302.6536123371769
  0
CIRCLE
  5
27884
330
18
100
AcDbEntity
  8
細線
100
AcDbCircle
 10
-145.7825955267418
 20
1015.908492925179
 30
0.0
 40
3.5
  0
ARC
  5
27885
330
18
100
AcDbEntity
  8
細線
100
AcDbCircle
 10
-144.7025955267419
 20
1015.908492925179
 30
0.0
 40
0.5
100
AcDbArc
 50
132.3463876628233
 51
227.6536123371766
  0
ARC
  5
27886
330
18
100
AcDbEntity
  8
細線
100
AcDbCircle
 10
-145.2425955267419
 20
1014.973185489092
 30
0.0
 40
0.5
100
AcDbArc
 50
72.34638766281938
 51
167.653612337177
  0
ARC
  5
27887
330
18
100
AcDbEntity
  8
細線
100
AcDbCircle
 10
-145.2425955267419
 20
1016.843800361266
 30
0.0
 40
0.5
100
AcDbArc
 50
192.3463876628245
 51
287.6536123371806
  0
ARC
  5
27888
330
18
100
AcDbEntity
  8
細線
100
AcDbCircle
 10
-146.8625955267418
 20
1015.908492925179
 30
0.0
 40
0.5
100
AcDbArc
 50
312.3463876628232
 51
47.65361233717667
  0
ARC
  5
27889
330
18
100
AcDbEntity
  8
細線
100
AcDbCircle
 10
-146.3225955267418
 20
1014.973185489092
 30
0.0
 40
0.5
100
AcDbArc
 50
12.34638766282438
 51
107.6536123371806
  0
CIRCLE
  5
2788A
330
18
100
AcDbEntity
  8
細線
100
AcDbCircle
 10
-145.7825955267418
 20
1015.908492925179
 30
0.0
 40
0.8299999999999998
  0
ARC
  5
2788B
330
18
100
AcDbEntity
  8
細線
100
AcDbCircle
 10
-146.3225955267418
 20
1016.843800361266
 30
0.0
 40
0.5
100
AcDbArc
 50
252.3463876628194
 51
347.6536123371769
  0
CIRCLE
  5
2788C
330
18
100
AcDbEntity
  8
細線
100
AcDbCircle
 10
-88.5219712487181
 20
877.6691172032238
 30
0.0
 40
3.5
  0
ARC
  5
2788D
330
18
100
AcDbEntity
  8
細線
100
AcDbCircle
 10
-87.75829592503669
 20
878.4327925269051
 30
0.0
 40
0.5
100
AcDbArc
 50
177.3463876628232
 51
272.6536123371766
  0
ARC
  5
2788E
330
18
100
AcDbEntity
  8
細線
100
AcDbCircle
 10
-87.47877135632597
 20
877.3895926345131
 30
0.0
 40
0.5
100
AcDbArc
 50
117.3463876628193
 51
212.653612337177
  0
ARC
  5
2788F
330
18
100
AcDbEntity
  8
細線
100
AcDbCircle
 10
-88.80149581742893
 20
878.712317095616
 30
0.0
 40
0.5
100
AcDbArc
 50
237.3463876628244
 51
332.6536123371805
  0
ARC
  5
27890
330
18
100
AcDbEntity
  8
細線
100
AcDbCircle
 10
-89.28564657239951
 20
876.9054418795423
 30
0.0
 40
0.5
100
AcDbArc
 50
357.3463876628232
 51
92.65361233717667
  0
ARC
  5
27891
330
18
100
AcDbEntity
  8
細線
100
AcDbCircle
 10
-88.24244668000744
 20
876.6259173108316
 30
0.0
 40
0.5
100
AcDbArc
 50
57.34638766282438
 51
152.6536123371806
  0
CIRCLE
  5
27892
330
18
100
AcDbEntity
  8
細線
100
AcDbCircle
 10
-88.5219712487181
 20
877.6691172032238
 30
0.0
 40
0.8299999999999998
  0
ARC
  5
27893
330
18
100
AcDbEntity
  8
細線
100
AcDbCircle
 10
-89.56517114111022
 20
877.9486417719345
 30
0.0
 40
0.5
100
AcDbArc
 50
297.3463876628193
 51
32.65361233717696
  0
CIRCLE
  5
27894
330
18
100
AcDbEntity
  8
細線
100
AcDbCircle
 10
49.71740447323782
 20
820.4084929251996
 30
0.0
 40
3.5
  0
ARC
  5
27895
330
18
100
AcDbEntity
  8
細線
100
AcDbCircle
 10
49.71740447323782
 20
821.4884929251995
 30
0.0
 40
0.5
100
AcDbArc
 50
222.3463876628232
 51
317.6536123371767
  0
ARC
  5
27896
330
18
100
AcDbEntity
  8
細線
100
AcDbCircle
 10
50.65271190932502
 20
820.9484929251996
 30
0.0
 40
0.5
100
AcDbArc
 50
162.3463876628193
 51
257.653612337177
  0
ARC
  5
27897
330
18
100
AcDbEntity
  8
細線
100
AcDbCircle
 10
48.7820970371506
 20
820.9484929251996
 30
0.0
 40
0.5
100
AcDbArc
 50
282.3463876628244
 51
17.65361233718062
  0
ARC
  5
27898
330
18
100
AcDbEntity
  8
細線
100
AcDbCircle
 10
49.71740447323782
 20
819.3284929251998
 30
0.0
 40
0.5
100
AcDbArc
 50
42.34638766282324
 51
137.6536123371766
  0
ARC
  5
27899
330
18
100
AcDbEntity
  8
細線
100
AcDbCircle
 10
50.65271190932497
 20
819.8684929251996
 30
0.0
 40
0.5
100
AcDbArc
 50
102.3463876628243
 51
197.6536123371806
  0
CIRCLE
  5
2789A
330
18
100
AcDbEntity
  8
細線
100
AcDbCircle
 10
49.71740447323782
 20
820.4084929251996
 30
0.0
 40
0.8299999999999998
  0
ARC
  5
2789B
330
18
100
AcDbEntity
  8
細線
100
AcDbCircle
 10
48.78209703715065
 20
819.8684929251996
 30
0.0
 40
0.5
100
AcDbArc
 50
342.3463876628193
 51
77.65361233717698
  0
CIRCLE
  5
2789C
330
18
100
AcDbEntity
  8
細線
100
AcDbCircle
 10
187.9567801951937
 20
877.6691172032236
 30
0.0
 40
3.5
  0
ARC
  5
2789D
330
18
100
AcDbEntity
  8
細線
100
AcDbCircle
 10
187.1931048715124
 20
878.4327925269051
 30
0.0
 40
0.5
100
AcDbArc
 50
267.3463876628232
 51
2.653612337176678
  0
ARC
  5
2789E
330
18
100
AcDbEntity
  8
細線
100
AcDbCircle
 10
188.2363047639046
 20
878.7123170956158
 30
0.0
 40
0.5
100
AcDbArc
 50
207.3463876628193
 51
302.6536123371769
  0
ARC
  5
2789F
330
18
100
AcDbEntity
  8
細線
100
AcDbCircle
 10
186.9135803028016
 20
877.3895926345128
 30
0.0
 40
0.5
100
AcDbArc
 50
327.3463876628245
 51
62.6536123371806
  0
ARC
  5
278A0
330
18
100
AcDbEntity
  8
細線
100
AcDbCircle
 10
188.7204555188752
 20
876.9054418795422
 30
0.0
 40
0.5
100
AcDbArc
 50
87.34638766282325
 51
182.6536123371766
  0
ARC
  5
278A1
330
18
100
AcDbEntity
  8
細線
100
AcDbCircle
 10
188.9999800875859
 20
877.9486417719343
 30
0.0
 40
0.5
100
AcDbArc
 50
147.3463876628244
 51
242.6536123371806
  0
CIRCLE
  5
278A2
330
18
100
AcDbEntity
  8
細線
100
AcDbCircle
 10
187.9567801951937
 20
877.6691172032236
 30
0.0
 40
0.8299999999999998
  0
ARC
  5
278A3
330
18
100
AcDbEntity
  8
細線
100
AcDbCircle
 10
187.6772556264831
 20
876.6259173108316
 30
0.0
 40
0.5
100
AcDbArc
 50
27.34638766281936
 51
122.6536123371769
  0
CIRCLE
  5
278A4
330
18
100
AcDbEntity
  8
細線
100
AcDbCircle
 10
245.2174044732178
 20
1015.908492925179
 30
0.0
 40
3.5
  0
ARC
  5
278A5
330
18
100
AcDbEntity
  8
細線
100
AcDbCircle
 10
244.1374044732179
 20
1015.908492925179
 30
0.0
 40
0.5
100
AcDbArc
 50
312.3463876628231
 51
47.65361233717664
  0
ARC
  5
278A6
330
18
100
AcDbEntity
  8
細線
100
AcDbCircle
 10
244.6774044732179
 20
1016.843800361266
 30
0.0
 40
0.5
100
AcDbArc
 50
252.3463876628193
 51
347.6536123371769
  0
ARC
  5
278A7
330
18
100
AcDbEntity
  8
細線
100
AcDbCircle
 10
244.6774044732179
 20
1014.973185489092
 30
0.0
 40
0.5
100
AcDbArc
 50
12.34638766282444
 51
107.6536123371805
  0
ARC
  5
278A8
330
18
100
AcDbEntity
  8
細線
100
AcDbCircle
 10
246.2974044732177
 20
1015.908492925179
 30
0.0
 40
0.5
100
AcDbArc
 50
132.3463876628232
 51
227.6536123371766
  0
ARC
  5
278A9
330
18
100
AcDbEntity
  8
細線
100
AcDbCircle
 10
245.7574044732178
 20
1016.843800361266
 30
0.0
 40
0.5
100
AcDbArc
 50
192.3463876628243
 51
287.6536123371804
  0
CIRCLE
  5
278AA
330
18
100
AcDbEntity
  8
細線
100
AcDbCircle
 10
245.2174044732178
 20
1015.908492925179
 30
0.0
 40
0.8299999999999998
  0
ARC
  5
278AB
330
18
100
AcDbEntity
  8
細線
100
AcDbCircle
 10
245.7574044732178
 20
1014.973185489092
 30
0.0
 40
0.5
100
AcDbArc
 50
72.34638766281932
 51
167.6536123371769
  0
CIRCLE
  5
278AC
102
{ACAD_REACTORS
330
27DE3
102
}
330
18
100
AcDbEntity
  8
細線
100
AcDbCircle
 10
187.9567801951937
 20
1154.147868647135
 30
0.0
 40
3.5
  0
ARC
  5
278AD
102
{ACAD_REACTORS
330
27DE3
102
}
330
18
100
AcDbEntity
  8
細線
100
AcDbCircle
 10
187.1931048715124
 20
1153.384193323453
 30
0.0
 40
0.5
100
AcDbArc
 50
357.3463876628232
 51
92.65361233717664
  0
ARC
  5
278AE
102
{ACAD_REACTORS
330
27DE3
102
}
330
18
100
AcDbEntity
  8
細線
100
AcDbCircle
 10
186.9135803028016
 20
1154.427393215846
 30
0.0
 40
0.5
100
AcDbArc
 50
297.3463876628193
 51
32.65361233717697
  0
ARC
  5
278AF
102
{ACAD_REACTORS
330
27DE3
102
}
330
18
100
AcDbEntity
  8
細線
100
AcDbCircle
 10
188.2363047639046
 20
1153.104668754743
 30
0.0
 40
0.5
100
AcDbArc
 50
57.34638766282444
 51
152.6536123371806
  0
ARC
  5
278B0
102
{ACAD_REACTORS
330
27DE3
102
}
330
18
100
AcDbEntity
  8
細線
100
AcDbCircle
 10
188.7204555188752
 20
1154.911543970816
 30
0.0
 40
0.5
100
AcDbArc
 50
177.3463876628232
 51
272.6536123371766
  0
ARC
  5
278B1
102
{ACAD_REACTORS
330
27DE3
102
}
330
18
100
AcDbEntity
  8
細線
100
AcDbCircle
 10
187.677255626483
 20
1155.191068539527
 30
0.0
 40
0.5
100
AcDbArc
 50
237.3463876628243
 51
332.6536123371805
  0
CIRCLE
  5
278B2
102
{ACAD_REACTORS
330
27DE3
102
}
330
18
100
AcDbEntity
  8
細線
100
AcDbCircle
 10
187.9567801951937
 20
1154.147868647135
 30
0.0
 40
0.8299999999999998
  0
ARC
  5
278B3
102
{ACAD_REACTORS
330
27DE3
102
}
330
18
100
AcDbEntity
  8
細線
100
AcDbCircle
 10
188.9999800875858
 20
1153.868344078424
 30
0.0
 40
0.5
100
AcDbArc
 50
117.3463876628193
 51
212.6536123371769
  0
LINE
  5
27903
330
18
100
AcDbEntity
  8
0
100
AcDbLine
 10
-184.7316907785961
 20
451.5427692685376
 30
0.0
 11
-344.3194752123681
 21
451.5427692685372
 31
0.0
  0
LINE
  5
27904
330
18
100
AcDbEntity
  8
0
100
AcDbLine
 10
-184.7316907785961
 20
446.5427692751374
 30
0.0
 11
-344.3194752123681
 21
446.5427692751375
 31
0.0
  0
LINE
  5
27905
330
18
100
AcDbEntity
  8
0
100
AcDbLine
 10
-171.7825955267621
 20
451.5427692685378
 30
0.0
 11
-182.8390711791195
 21
451.5427692685376
 31
0.0
  0
LINE
  5
27906
330
18
100
AcDbEntity
  8
0
100
AcDbLine
 10
-171.7825955267621
 20
446.5427692751377
 30
0.0
 11
-182.8390711791202
 21
446.5427692751374
 31
0.0
  0
ARC
  5
27907
330
18
100
AcDbEntity
  8
0
100
AcDbCircle
 10
-186.1368133319898
 20
447.7927692734876
 30
0.0
 40
1.880656636903949
100
AcDbArc
 50
318.3436407292488
 51
41.6563592707512
  0
ARC
  5
27908
330
18
100
AcDbEntity
  8
0
100
AcDbCircle
 10
-181.4339486257264
 20
447.7927692734876
 30
0.0
 40
1.880656636903949
100
AcDbArc
 50
138.3436407292488
 51
221.6563592707511
  0
ARC
  5
27909
330
18
100
AcDbEntity
  8
0
100
AcDbCircle
 10
-184.2441937325133
 20
450.2927692701875
 30
0.0
 40
1.880656636903949
100
AcDbArc
 50
318.3436407292488
 51
41.6563592707512
  0
ARC
  5
2790A
330
18
100
AcDbEntity
  8
0
100
AcDbCircle
 10
-186.1368133319898
 20
450.2927692701875
 30
0.0
 40
1.880656636903949
100
AcDbArc
 50
318.3436407292488
 51
41.6563592707512
  0
ARC
  5
2790B
330
18
100
AcDbEntity
  8
0
100
AcDbCircle
 10
-181.4339486257257
 20
450.2927692701875
 30
0.0
 40
1.880656636903949
100
AcDbArc
 50
138.3436407292488
 51
221.6563592707511
  0
ARC
  5
2790C
330
18
100
AcDbEntity
  8
0
100
AcDbCircle
 10
-183.3265682252023
 20
447.7927692734876
 30
0.0
 40
1.880656636903949
100
AcDbArc
 50
138.3436407292488
 51
221.6563592707511
  0
LINE
  5
27AA6
330
18
100
AcDbEntity
  8
0
100
AcDbLine
 10
-152.782595526762
 20
460.3427692718375
 30
0.0
 11
49.71740447323756
 21
460.3427692718374
 31
0.0
  0
LINE
  5
27AA9
330
18
100
AcDbEntity
  8
0
  6
BYBLOCK
100
AcDbLine
 10
249.7174044732375
 20
460.3427692718375
 30
0.0
 11
249.7174044732375
 21
459.0427692718375
 31
0.0
  0
LINE
  5
27AAA
330
18
100
AcDbEntity
  8
0
  6
BYBLOCK
100
AcDbLine
 10
-150.2825955267624
 20
460.3427692718375
 30
0.0
 11
-150.2825955267624
 21
459.0427692718375
 31
0.0
  0
CIRCLE
  5
27B91
330
18
100
AcDbEntity
  8
細線
 48
5.0
100
AcDbCircle
 10
-58.61144835810569
 20
996.8071933818148
 30
0.0
 40
3.0
  0
CIRCLE
  5
27B92
330
18
100
AcDbEntity
  8
細線
 48
5.0
100
AcDbCircle
 10
-58.61144835810569
 20
996.8071933818148
 30
0.0
 40
2.399999999999999
  0
CIRCLE
  5
27B94
330
18
100
AcDbEntity
  8
細線
 48
5.0
100
AcDbCircle
 10
-45.54538994305227
 20
960.9084929251755
 30
0.0
 40
3.0
  0
CIRCLE
  5
27B95
330
18
100
AcDbEntity
  8
細線
 48
5.0
100
AcDbCircle
 10
-45.54538994305227
 20
960.9084929251755
 30
0.0
 40
2.399999999999999
  0
CIRCLE
  5
27B97
330
18
100
AcDbEntity
  8
細線
 48
5.0
100
AcDbCircle
 10
-20.98923259228411
 20
931.6436041820862
 30
0.0
 40
3.0
  0
CIRCLE
  5
27B98
330
18
100
AcDbEntity
  8
細線
 48
5.0
100
AcDbCircle
 10
-20.98923259228411
 20
931.6436041820862
 30
0.0
 40
2.399999999999999
  0
CIRCLE
  5
27B9A
330
18
100
AcDbEntity
  8
細線
 48
5.0
100
AcDbCircle
 10
12.09518870741155
 20
912.5423046387219
 30
0.0
 40
3.0
  0
CIRCLE
  5
27B9B
330
18
100
AcDbEntity
  8
細線
 48
5.0
100
AcDbCircle
 10
12.09518870741155
 20
912.5423046387219
 30
0.0
 40
2.399999999999999
  0
LINE
  5
27B9C
330
18
100
AcDbEntity
  8
CENTER
100
AcDbLine
 10
49.71740447323566
 20
911.5353950573242
 30
0.0
 11
49.71740447323577
 21
900.9084929251701
 31
0.0
  0
CIRCLE
  5
27B9D
330
18
100
AcDbEntity
  8
細線
 48
5.0
100
AcDbCircle
 10
49.71740447323577
 20
905.9084929251703
 30
0.0
 40
3.0
  0
CIRCLE
  5
27B9E
330
18
100
AcDbEntity
  8
細線
 48
5.0
100
AcDbCircle
 10
49.71740447323577
 20
905.9084929251703
 30
0.0
 40
2.399999999999999
  0
CIRCLE
  5
27BA0
330
18
100
AcDbEntity
  8
細線
 48
5.0
100
AcDbCircle
 10
87.33962023906048
 20
912.5423046387188
 30
0.0
 40
3.0
  0
CIRCLE
  5
27BA1
330
18
100
AcDbEntity
  8
細線
 48
5.0
100
AcDbCircle
 10
87.33962023906048
 20
912.5423046387188
 30
0.0
 40
2.399999999999999
  0
CIRCLE
  5
27BA3
330
18
100
AcDbEntity
  8
細線
 48
5.0
100
AcDbCircle
 10
120.4240415387575
 20
931.6436041820798
 30
0.0
 40
3.0
  0
CIRCLE
  5
27BA4
330
18
100
AcDbEntity
  8
細線
 48
5.0
100
AcDbCircle
 10
120.4240415387575
 20
931.6436041820798
 30
0.0
 40
2.399999999999999
  0
CIRCLE
  5
27BA6
330
18
100
AcDbEntity
  8
細線
 48
5.0
100
AcDbCircle
 10
144.9801988895285
 20
960.9084929251675
 30
0.0
 40
3.0
  0
CIRCLE
  5
27BA7
330
18
100
AcDbEntity
  8
細線
 48
5.0
100
AcDbCircle
 10
144.9801988895285
 20
960.9084929251675
 30
0.0
 40
2.399999999999999
  0
CIRCLE
  5
27BA9
330
18
100
AcDbEntity
  8
細線
 48
5.0
100
AcDbCircle
 10
158.0462573045849
 20
996.807193381805
 30
0.0
 40
3.0
  0
CIRCLE
  5
27BAA
330
18
100
AcDbEntity
  8
細線
 48
5.0
100
AcDbCircle
 10
158.0462573045849
 20
996.807193381805
 30
0.0
 40
2.399999999999999
  0
CIRCLE
  5
27BAC
330
18
100
AcDbEntity
  8
細線
 48
5.0
100
AcDbCircle
 10
158.0462573045865
 20
1035.00979246853
 30
0.0
 40
3.0
  0
CIRCLE
  5
27BAD
330
18
100
AcDbEntity
  8
細線
 48
5.0
100
AcDbCircle
 10
158.0462573045865
 20
1035.00979246853
 30
0.0
 40
2.399999999999999
  0
CIRCLE
  5
27BAF
330
18
100
AcDbEntity
  8
細線
 48
5.0
100
AcDbCircle
 10
144.9801988895332
 20
1070.908492925169
 30
0.0
 40
3.0
  0
CIRCLE
  5
27BB0
330
18
100
AcDbEntity
  8
細線
 48
5.0
100
AcDbCircle
 10
144.9801988895332
 20
1070.908492925169
 30
0.0
 40
2.399999999999999
  0
CIRCLE
  5
27BB2
330
18
100
AcDbEntity
  8
細線
 48
5.0
100
AcDbCircle
 10
120.4240415387652
 20
1100.173381668258
 30
0.0
 40
3.0
  0
CIRCLE
  5
27BB3
330
18
100
AcDbEntity
  8
細線
 48
5.0
100
AcDbCircle
 10
120.4240415387652
 20
1100.173381668258
 30
0.0
 40
2.399999999999999
  0
CIRCLE
  5
27BB5
330
18
100
AcDbEntity
  8
細線
 48
5.0
100
AcDbCircle
 10
87.33962023906945
 20
1119.274681211623
 30
0.0
 40
3.0
  0
CIRCLE
  5
27BB6
330
18
100
AcDbEntity
  8
細線
 48
5.0
100
AcDbCircle
 10
87.33962023906945
 20
1119.274681211623
 30
0.0
 40
2.399999999999999
  0
LINE
  5
27BB7
330
18
100
AcDbEntity
  8
CENTER
100
AcDbLine
 10
49.71740447324544
 20
1120.281590793021
 30
0.0
 11
49.71740447324532
 21
1130.908492925175
 31
0.0
  0
CIRCLE
  5
27BB8
330
18
100
AcDbEntity
  8
細線
 48
5.0
100
AcDbCircle
 10
49.71740447324524
 20
1125.908492925175
 30
0.0
 40
3.0
  0
CIRCLE
  5
27BB9
330
18
100
AcDbEntity
  8
細線
 48
5.0
100
AcDbCircle
 10
49.71740447324524
 20
1125.908492925175
 30
0.0
 40
2.399999999999999
  0
CIRCLE
  5
27BBB
330
18
100
AcDbEntity
  8
細線
 48
5.0
100
AcDbCircle
 10
12.09518870742073
 20
1119.274681211626
 30
0.0
 40
3.0
  0
CIRCLE
  5
27BBC
330
18
100
AcDbEntity
  8
細線
 48
5.0
100
AcDbCircle
 10
12.09518870742073
 20
1119.274681211626
 30
0.0
 40
2.399999999999999
  0
CIRCLE
  5
27BBE
330
18
100
AcDbEntity
  8
細線
 48
5.0
100
AcDbCircle
 10
-20.98923259227649
 20
1100.173381668265
 30
0.0
 40
3.0
  0
CIRCLE
  5
27BBF
330
18
100
AcDbEntity
  8
細線
 48
5.0
100
AcDbCircle
 10
-20.98923259227649
 20
1100.173381668265
 30
0.0
 40
2.399999999999999
  0
CIRCLE
  5
27BC1
330
18
100
AcDbEntity
  8
細線
 48
5.0
100
AcDbCircle
 10
-45.54538994304738
 20
1070.908492925178
 30
0.0
 40
3.0
  0
CIRCLE
  5
27BC2
330
18
100
AcDbEntity
  8
細線
 48
5.0
100
AcDbCircle
 10
-45.54538994304738
 20
1070.908492925178
 30
0.0
 40
2.399999999999999
  0
CIRCLE
  5
27BCF
330
18
100
AcDbEntity
  8
0
100
AcDbCircle
 10
-66.19369468144722
 20
1046.966778337477
 30
0.0
 40
4.75
  0
CIRCLE
  5
27BD0
330
18
100
AcDbEntity
  8
細線
100
AcDbCircle
 10
-66.19369468144722
 20
1046.966778337477
 30
0.0
 40
4.25
  0
LWPOLYLINE
  5
27BD1
330
18
100
AcDbEntity
  8
細線
100
AcDbPolyline
 90
        6
 70
     1
 43
0.0
 10
-67.82668834314418
 20
1045.333782697389
 10
-68.42441011685434
 20
1047.564491228209
 10
-66.7914207475811
 20
1049.197487734047
 10
-64.56070960459752
 20
1048.599775709065
 10
-63.96298783088735
 20
1046.369067178245
 10
-65.595977200161
 20
1044.736070672407
  0
LWPOLYLINE
  5
27BD3
330
18
100
AcDbEntity
  8
細線
100
AcDbPolyline
 90
        6
 70
     1
 43
0.0
 10
-66.7914108566531
 20
982.6194949734384
 10
-68.42440736249102
 20
984.2524843427121
 10
-67.82669533750925
 20
986.4831954856953
 10
-65.59598680668966
 20
987.0809172594055
 10
-63.96299030085174
 20
985.4479278901321
 10
-64.56070232583375
 20
983.2172167471483
  0
CIRCLE
  5
27BD4
330
18
100
AcDbEntity
  8
0
100
AcDbCircle
 10
-66.19369468144833
 20
984.850207512872
 30
0.0
 40
4.75
  0
CIRCLE
  5
27BD5
330
18
100
AcDbEntity
  8
細線
100
AcDbCircle
 10
-66.19369468144833
 20
984.850207512872
 30
0.0
 40
4.25
  0
LWPOLYLINE
  5
27BD6
330
18
100
AcDbEntity
  8
細線
100
AcDbPolyline
 90
        6
 70
     1
 43
0.0
 10
-34.53769039141025
 20
928.8249673674961
 10
-36.768401534394
 20
929.4226793924778
 10
-37.36612330810385
 20
931.6533879232972
 10
-35.73313393883063
 20
933.2863844291352
 10
-33.502422795847
 20
932.6886724041534
 10
-32.90470102213703
 20
930.4579638733336
  0
CIRCLE
  5
27BD7
330
18
100
AcDbEntity
  8
0
100
AcDbCircle
 10
-35.13540926914675
 20
931.0556791827883
 30
0.0
 40
4.75
  0
CIRCLE
  5
27BD8
330
18
100
AcDbEntity
  8
細線
100
AcDbCircle
 10
-35.13540926914675
 20
931.0556791827883
 30
0.0
 40
4.25
  0
LWPOLYLINE
  5
27BD9
330
18
100
AcDbEntity
  8
細線
100
AcDbPolyline
 90
        6
 70
     1
 43
0.0
 10
20.29211470102359
 20
898.3644001087879
 10
18.06140617020378
 20
897.7666783350779
 10
16.4284096643662
 20
899.399667704351
 10
17.02612168934774
 20
901.6303788473345
 10
19.25683022016755
 20
902.2281006210446
 10
20.88982672600536
 20
900.595111251771
  0
CIRCLE
  5
27BDA
330
18
100
AcDbEntity
  8
0
100
AcDbCircle
 10
18.65911906093612
 20
899.9973937704849
 30
0.0
 40
4.75
  0
CIRCLE
  5
27BDB
330
18
100
AcDbEntity
  8
細線
100
AcDbCircle
 10
18.65911906093612
 20
899.9973937704849
 30
0.0
 40
4.25
  0
LWPOLYLINE
  5
27BDC
330
18
100
AcDbEntity
  8
細線
100
AcDbPolyline
 90
        6
 70
     1
 43
0.0
 10
83.00640242497456
 20
899.3996775952792
 10
81.37341305570089
 20
897.7666810894412
 10
79.14270191271771
 20
898.364393114423
 10
78.54498013900752
 20
900.5951016452424
 10
80.17796950828097
 20
902.2280981510805
 10
82.40868065126461
 20
901.6303861260984
  0
CIRCLE
  5
27BDD
330
18
100
AcDbEntity
  8
0
100
AcDbCircle
 10
80.77568988554117
 20
899.9973937704838
 30
0.0
 40
4.75
  0
CIRCLE
  5
27BDE
330
18
100
AcDbEntity
  8
細線
100
AcDbCircle
 10
80.77568988554117
 20
899.9973937704838
 30
0.0
 40
4.25
  0
LWPOLYLINE
  5
27BDF
330
18
100
AcDbEntity
  8
細線
100
AcDbPolyline
 90
        6
 70
     1
 43
0.0
 10
136.8009300309169
 20
931.6533980605218
 10
136.2032180059351
 20
929.422686917538
 10
133.9725094751158
 20
928.8249651438281
 10
132.3395129692777
 20
930.4579545131014
 10
132.9372249942595
 20
932.688665656085
 10
135.1679335250793
 20
933.2863874297951
  0
CIRCLE
  5
27BE0
330
18
100
AcDbEntity
  8
0
100
AcDbCircle
 10
134.5702182156247
 20
931.0556791827853
 30
0.0
 40
4.75
  0
CIRCLE
  5
27BE1
330
18
100
AcDbEntity
  8
細線
100
AcDbCircle
 10
134.5702182156247
 20
931.0556791827853
 30
0.0
 40
4.25
  0
LWPOLYLINE
  5
27BE2
330
18
100
AcDbEntity
  8
細線
100
AcDbPolyline
 90
        6
 70
     1
 43
0.0
 10
167.261497289625
 20
986.4832031529557
 10
167.8592190633352
 20
984.2524946221358
 10
166.2262296940619
 20
982.6194981162982
 10
163.9955185510784
 20
983.2172101412798
 10
163.3977967773682
 20
985.4479186720995
 10
165.0307861466419
 20
987.0809151779374
  0
CIRCLE
  5
27BE3
330
18
100
AcDbEntity
  8
0
100
AcDbCircle
 10
165.6285036279281
 20
984.850207512868
 30
0.0
 40
4.75
  0
CIRCLE
  5
27BE4
330
18
100
AcDbEntity
  8
細線
100
AcDbCircle
 10
165.6285036279281
 20
984.850207512868
 30
0.0
 40
4.25
  0
LWPOLYLINE
  5
27BE5
330
18
100
AcDbEntity
  8
細線
100
AcDbPolyline
 90
        6
 70
     1
 43
0.0
 10
166.2262198031339
 20
1049.197490876906
 10
167.859216308972
 20
1047.564501507632
 10
167.2615042839902
 20
1045.333790364649
 10
165.0307957531706
 20
1044.736068590939
 10
163.3977992473326
 20
1046.369057960212
 10
163.9955112723146
 20
1048.599769103196
  0
CIRCLE
  5
27BE6
330
18
100
AcDbEntity
  8
0
100
AcDbCircle
 10
165.6285036279293
 20
1046.966778337472
 30
0.0
 40
4.75
  0
CIRCLE
  5
27BE7
330
18
100
AcDbEntity
  8
細線
100
AcDbCircle
 10
165.6285036279293
 20
1046.966778337472
 30
0.0
 40
4.25
  0
LWPOLYLINE
  5
27BE8
330
18
100
AcDbEntity
  8
細線
100
AcDbPolyline
 90
        6
 70
     1
 43
0.0
 10
133.9724993378911
 20
1102.992018482849
 10
136.2032104808748
 20
1102.394306457867
 10
136.8009322545848
 20
1100.163597927048
 10
135.1679428853115
 20
1098.53060142121
 10
132.9372317423278
 20
1099.128313446191
 10
132.3395099686178
 20
1101.359021977011
  0
CIRCLE
  5
27BE9
330
18
100
AcDbEntity
  8
0
100
AcDbCircle
 10
134.5702182156278
 20
1100.761306667557
 30
0.0
 40
4.75
  0
CIRCLE
  5
27BEA
330
18
100
AcDbEntity
  8
細線
100
AcDbCircle
 10
134.5702182156278
 20
1100.761306667557
 30
0.0
 40
4.25
  0
LWPOLYLINE
  5
27BEB
330
18
100
AcDbEntity
  8
細線
100
AcDbPolyline
 90
        6
 70
     1
 43
0.0
 10
79.14269424545739
 20
1133.452585741557
 10
81.37340277627719
 20
1134.050307515267
 10
83.00639928211479
 20
1132.417318145994
 10
82.40868725713324
 20
1130.18660700301
 10
80.17797872631343
 20
1129.5888852293
 10
78.54498222047562
 20
1131.221874598574
  0
CIRCLE
  5
27BEC
330
18
100
AcDbEntity
  8
0
100
AcDbCircle
 10
80.77568988554491
 20
1131.81959207986
 30
0.0
 40
4.75
  0
CIRCLE
  5
27BED
330
18
100
AcDbEntity
  8
細線
100
AcDbCircle
 10
80.77568988554491
 20
1131.81959207986
 30
0.0
 40
4.25
  0
LWPOLYLINE
  5
27BEE
330
18
100
AcDbEntity
  8
細線
100
AcDbPolyline
 90
        6
 70
     1
 43
0.0
 10
16.4284065215063
 20
1132.417308255065
 10
18.06139589077986
 20
1134.050304760904
 10
20.29210703376315
 20
1133.452592735922
 10
20.88982880747335
 20
1131.221884205102
 10
19.2568394381999
 20
1129.588887699265
 10
17.02612829521626
 20
1130.186599724246
  0
CIRCLE
  5
27BEF
330
18
100
AcDbEntity
  8
0
100
AcDbCircle
 10
18.65911906093987
 20
1131.819592079861
 30
0.0
 40
4.75
  0
CIRCLE
  5
27BF0
330
18
100
AcDbEntity
  8
細線
100
AcDbCircle
 10
18.65911906093987
 20
1131.819592079861
 30
0.0
 40
4.25
  0
LWPOLYLINE
  5
27BF1
330
18
100
AcDbEntity
  8
細線
100
AcDbPolyline
 90
        6
 70
     1
 43
0.0
 10
-37.36612108443614
 20
1100.163587789823
 10
-36.76840905945431
 20
1102.394298932806
 10
-34.53770052863495
 20
1102.992020706516
 10
-32.90470402279692
 20
1101.359031337243
 10
-33.50241604777875
 20
1099.128320194259
 10
-35.73312457859856
 20
1098.530598420549
  0
CIRCLE
  5
27BF2
330
18
100
AcDbEntity
  8
0
100
AcDbCircle
 10
-35.13540926914373
 20
1100.761306667559
 30
0.0
 40
4.75
  0
CIRCLE
  5
27BF3
330
18
100
AcDbEntity
  8
細線
100
AcDbCircle
 10
-35.13540926914373
 20
1100.761306667559
 30
0.0
 40
4.25
  0
LINE
  5
27C14
330
18
100
AcDbEntity
  8
破線
  6
BYBLOCK
100
AcDbLine
 10
-35.28259552676249
 20
439.0427692718374
 30
0.0
 11
-35.28259552676246
 21
440.5427692718375
 31
0.0
  0
LINE
  5
27C15
330
18
100
AcDbEntity
  8
破線
100
AcDbLine
 10
-35.28259552676246
 20
440.5427692718375
 30
0.0
 11
49.7174044732375
 21
440.5427692718374
 31
0.0
  0
LINE
  5
27C16
330
18
100
AcDbEntity
  8
破線
100
AcDbLine
 10
134.7174044732381
 20
440.5427692718401
 30
0.0
 11
49.71740447323821
 21
440.5427692718374
 31
0.0
  0
LINE
  5
27C17
330
18
100
AcDbEntity
  8
破線
  6
BYBLOCK
100
AcDbLine
 10
134.7174044732382
 20
439.0427692718401
 30
0.0
 11
134.7174044732381
 21
440.5427692718401
 31
0.0
  0
LINE
  5
27DD7
330
18
100
AcDbEntity
  8
0
  6
BYBLOCK
100
AcDbLine
 10
-295.6494277725083
 20
1123.919555297298
 30
0.0
 11
-186.6054824897345
 21
1123.919555297943
 31
0.0
  0
LINE
  5
27DD8
330
18
100
AcDbEntity
  8
0
  6
BYBLOCK
100
AcDbLine
 10
-296.0034814307748
 20
1127.919555297099
 30
0.0
 11
-186.6054824897345
 21
1127.919555296343
 31
0.0
  0
ARC
  5
27DE4
102
{ACAD_REACTORS
330
27DEC
102
}
330
18
100
AcDbEntity
  8
細線
100
AcDbCircle
 10
606.5587638370215
 20
1095.628968356461
 30
0.0
 40
0.5
100
AcDbArc
 50
117.3463876628193
 51
212.6536123371769
  0
CIRCLE
  5
27DE5
102
{ACAD_REACTORS
330
27DEC
102
}
330
18
100
AcDbEntity
  8
細線
100
AcDbCircle
 10
605.5155639446294
 20
1095.908492925171
 30
0.0
 40
0.8299999999999998
  0
ARC
  5
27DE6
102
{ACAD_REACTORS
330
27DEC
102
}
330
18
100
AcDbEntity
  8
細線
100
AcDbCircle
 10
605.2360393759187
 20
1096.951692817563
 30
0.0
 40
0.5
100
AcDbArc
 50
237.3463876628243
 51
332.6536123371805
  0
ARC
  5
27DE7
102
{ACAD_REACTORS
330
27DEC
102
}
330
18
100
AcDbEntity
  8
細線
100
AcDbCircle
 10
606.2792392683109
 20
1096.672168248853
 30
0.0
 40
0.5
100
AcDbArc
 50
177.3463876628232
 51
272.6536123371766
  0
ARC
  5
27DE8
102
{ACAD_REACTORS
330
27DEC
102
}
330
18
100
AcDbEntity
  8
細線
100
AcDbCircle
 10
605.7950885133402
 20
1094.865293032779
 30
0.0
 40
0.5
100
AcDbArc
 50
57.34638766282444
 51
152.6536123371806
  0
ARC
  5
27DE9
102
{ACAD_REACTORS
330
27DEC
102
}
330
18
100
AcDbEntity
  8
細線
100
AcDbCircle
 10
604.4723640522374
 20
1096.188017493882
 30
0.0
 40
0.5
100
AcDbArc
 50
297.3463876628193
 51
32.65361233717697
  0
ARC
  5
27DEA
102
{ACAD_REACTORS
330
27DEC
102
}
330
18
100
AcDbEntity
  8
細線
100
AcDbCircle
 10
604.7518886209481
 20
1095.14481760149
 30
0.0
 40
0.5
100
AcDbArc
 50
357.3463876628232
 51
92.65361233717664
  0
CIRCLE
  5
27DEB
102
{ACAD_REACTORS
330
27DEC
102
}
330
18
100
AcDbEntity
  8
細線
100
AcDbCircle
 10
605.5155639446294
 20
1095.908492925171
 30
0.0
 40
3.5
  0
ARC
  5
27DED
102
{ACAD_REACTORS
330
27DF5
102
}
330
18
100
AcDbEntity
  8
細線
100
AcDbCircle
 10
526.5636039646131
 20
1015.628968356461
 30
0.0
 40
0.5
100
AcDbArc
 50
117.3463876628193
 51
212.6536123371769
  0
CIRCLE
  5
27DEE
102
{ACAD_REACTORS
330
27DF5
102
}
330
18
100
AcDbEntity
  8
細線
100
AcDbCircle
 10
525.520404072221
 20
1015.908492925172
 30
0.0
 40
0.8299999999999998
  0
ARC
  5
27DEF
102
{ACAD_REACTORS
330
27DF5
102
}
330
18
100
AcDbEntity
  8
細線
100
AcDbCircle
 10
525.2408795035103
 20
1016.951692817563
 30
0.0
 40
0.5
100
AcDbArc
 50
237.3463876628243
 51
332.6536123371805
  0
ARC
  5
27DF0
102
{ACAD_REACTORS
330
27DF5
102
}
330
18
100
AcDbEntity
  8
細線
100
AcDbCircle
 10
526.2840793959025
 20
1016.672168248853
 30
0.0
 40
0.5
100
AcDbArc
 50
177.3463876628232
 51
272.6536123371766
  0
ARC
  5
27DF1
102
{ACAD_REACTORS
330
27DF5
102
}
330
18
100
AcDbEntity
  8
細線
100
AcDbCircle
 10
525.7999286409318
 20
1014.865293032779
 30
0.0
 40
0.5
100
AcDbArc
 50
57.34638766282444
 51
152.6536123371806
  0
ARC
  5
27DF2
102
{ACAD_REACTORS
330
27DF5
102
}
330
18
100
AcDbEntity
  8
細線
100
AcDbCircle
 10
524.4772041798289
 20
1016.188017493882
 30
0.0
 40
0.5
100
AcDbArc
 50
297.3463876628193
 51
32.65361233717697
  0
ARC
  5
27DF3
102
{ACAD_REACTORS
330
27DF5
102
}
330
18
100
AcDbEntity
  8
細線
100
AcDbCircle
 10
524.7567287485396
 20
1015.14481760149
 30
0.0
 40
0.5
100
AcDbArc
 50
357.3463876628232
 51
92.65361233717664
  0
CIRCLE
  5
27DF4
102
{ACAD_REACTORS
330
27DF5
102
}
330
18
100
AcDbEntity
  8
細線
100
AcDbCircle
 10
525.520404072221
 20
1015.908492925172
 30
0.0
 40
3.5
  0
ARC
  5
27DF6
102
{ACAD_REACTORS
330
27DFE
102
}
330
18
100
AcDbEntity
  8
細線
100
AcDbCircle
 10
606.5587638370215
 20
935.6289683564611
 30
0.0
 40
0.5
100
AcDbArc
 50
117.3463876628193
 51
212.6536123371769
  0
CIRCLE
  5
27DF7
102
{ACAD_REACTORS
330
27DFE
102
}
330
18
100
AcDbEntity
  8
細線
100
AcDbCircle
 10
605.5155639446294
 20
935.9084929251718
 30
0.0
 40
0.8299999999999998
  0
ARC
  5
27DF8
102
{ACAD_REACTORS
330
27DFE
102
}
330
18
100
AcDbEntity
  8
細線
100
AcDbCircle
 10
605.2360393759187
 20
936.9516928175636
 30
0.0
 40
0.5
100
AcDbArc
 50
237.3463876628243
 51
332.6536123371805
  0
ARC
  5
27DF9
102
{ACAD_REACTORS
330
27DFE
102
}
330
18
100
AcDbEntity
  8
細線
100
AcDbCircle
 10
606.2792392683109
 20
936.6721682488531
 30
0.0
 40
0.5
100
AcDbArc
 50
177.3463876628232
 51
272.6536123371766
  0
ARC
  5
27DFA
102
{ACAD_REACTORS
330
27DFE
102
}
330
18
100
AcDbEntity
  8
細線
100
AcDbCircle
 10
605.7950885133402
 20
934.8652930327794
 30
0.0
 40
0.5
100
AcDbArc
 50
57.34638766282444
 51
152.6536123371806
  0
ARC
  5
27DFB
102
{ACAD_REACTORS
330
27DFE
102
}
330
18
100
AcDbEntity
  8
細線
100
AcDbCircle
 10
604.4723640522374
 20
936.1880174938825
 30
0.0
 40
0.5
100
AcDbArc
 50
297.3463876628193
 51
32.65361233717697
  0
ARC
  5
27DFC
102
{ACAD_REACTORS
330
27DFE
102
}
330
18
100
AcDbEntity
  8
細線
100
AcDbCircle
 10
604.7518886209481
 20
935.1448176014901
 30
0.0
 40
0.5
100
AcDbArc
 50
357.3463876628232
 51
92.65361233717664
  0
CIRCLE
  5
27DFD
102
{ACAD_REACTORS
330
27DFE
102
}
330
18
100
AcDbEntity
  8
細線
100
AcDbCircle
 10
605.5155639446294
 20
935.9084929251718
 30
0.0
 40
3.5
  0
ARC
  5
27DFF
102
{ACAD_REACTORS
330
27E07
102
}
330
18
100
AcDbEntity
  8
細線
100
AcDbCircle
 10
686.5587638370215
 20
1015.628968356461
 30
0.0
 40
0.5
100
AcDbArc
 50
117.3463876628193
 51
212.6536123371769
  0
CIRCLE
  5
27E00
102
{ACAD_REACTORS
330
27E07
102
}
330
18
100
AcDbEntity
  8
細線
100
AcDbCircle
 10
685.5155639446294
 20
1015.908492925172
 30
0.0
 40
0.8299999999999998
  0
ARC
  5
27E01
102
{ACAD_REACTORS
330
27E07
102
}
330
18
100
AcDbEntity
  8
細線
100
AcDbCircle
 10
685.2360393759187
 20
1016.951692817563
 30
0.0
 40
0.5
100
AcDbArc
 50
237.3463876628243
 51
332.6536123371805
  0
ARC
  5
27E02
102
{ACAD_REACTORS
330
27E07
102
}
330
18
100
AcDbEntity
  8
細線
100
AcDbCircle
 10
686.2792392683108
 20
1016.672168248853
 30
0.0
 40
0.5
100
AcDbArc
 50
177.3463876628232
 51
272.6536123371766
  0
ARC
  5
27E03
102
{ACAD_REACTORS
330
27E07
102
}
330
18
100
AcDbEntity
  8
細線
100
AcDbCircle
 10
685.7950885133402
 20
1014.865293032779
 30
0.0
 40
0.5
100
AcDbArc
 50
57.34638766282444
 51
152.6536123371806
  0
ARC
  5
27E04
102
{ACAD_REACTORS
330
27E07
102
}
330
18
100
AcDbEntity
  8
細線
100
AcDbCircle
 10
684.4723640522373
 20
1016.188017493882
 30
0.0
 40
0.5
100
AcDbArc
 50
297.3463876628193
 51
32.65361233717697
  0
ARC
  5
27E05
102
{ACAD_REACTORS
330
27E07
102
}
330
18
100
AcDbEntity
  8
細線
100
AcDbCircle
 10
684.751888620948
 20
1015.14481760149
 30
0.0
 40
0.5
100
AcDbArc
 50
357.3463876628232
 51
92.65361233717664
  0
CIRCLE
  5
27E06
102
{ACAD_REACTORS
330
27E07
102
}
330
18
100
AcDbEntity
  8
細線
100
AcDbCircle
 10
685.5155639446294
 20
1015.908492925172
 30
0.0
 40
3.5
  0
LINE
  5
27F0C
102
{ACAD_REACTORS
330
27F2F
102
}
330
18
100
AcDbEntity
  8
0
  6
BYBLOCK
100
AcDbLine
 10
-367.3103824549712
 20
1104.10848687213
 30
0.0
 11
-380.4104275564459
 21
1104.10848687213
 31
0.0
  0
LINE
  5
27F0D
102
{ACAD_REACTORS
330
27F2F
102
}
330
18
100
AcDbEntity
  8
0
  6
BYBLOCK
100
AcDbLine
 10
-367.3103824549698
 20
1117.708486872129
 30
0.0
 11
-380.4104275564459
 21
1117.708486872129
 31
0.0
  0
LINE
  5
27F0E
102
{ACAD_REACTORS
330
27F2F
102
}
330
18
100
AcDbEntity
  8
0
  6
BYBLOCK
100
AcDbLine
 10
-383.2955704135888
 20
1121.526201157843
 30
0.0
 11
-372.9304275564463
 21
1121.526201157843
 31
0.0
  0
LINE
  5
27F0F
102
{ACAD_REACTORS
330
27F2F
102
}
330
18
100
AcDbEntity
  8
0
  6
BYBLOCK
100
AcDbLine
 10
-385.1704275564461
 20
1121.108486872129
 30
0.0
 11
-373.9018561278744
 21
1121.10848687213
 31
0.0
  0
LINE
  5
27F10
102
{ACAD_REACTORS
330
27F2F
102
}
330
18
100
AcDbEntity
  8
0
  6
BYBLOCK
100
AcDbLine
 10
-389.9104275564464
 20
1113.283486872129
 30
0.0
 11
-389.9104275564464
 21
1116.733486872129
 31
0.0
  0
LINE
  5
27F11
102
{ACAD_REACTORS
330
27F2F
102
}
330
18
100
AcDbEntity
  8
0
  6
BYBLOCK
100
AcDbLine
 10
-380.4104275564459
 20
1104.10848687213
 30
0.0
 11
-380.4104275564459
 21
1117.708486872129
 31
0.0
  0
LINE
  5
27F12
102
{ACAD_REACTORS
330
27F2F
102
}
330
18
100
AcDbEntity
  8
0
  6
BYBLOCK
100
AcDbLine
 10
-389.9104275564464
 20
1113.283486872129
 30
0.0
 11
-380.4104275564459
 21
1113.283486872129
 31
0.0
  0
LINE
  5
27F13
102
{ACAD_REACTORS
330
27F2F
102
}
330
18
100
AcDbEntity
  8
0
  6
BYBLOCK
100
AcDbLine
 10
-389.9104275564464
 20
1112.633486872129
 30
0.0
 11
-380.4104275564459
 21
1112.633486872129
 31
0.0
  0
LINE
  5
27F14
102
{ACAD_REACTORS
330
27F2F
102
}
330
18
100
AcDbEntity
  8
0
  6
BYBLOCK
100
AcDbLine
 10
-389.9104275564459
 20
1105.083486872129
 30
0.0
 11
-389.9104275564464
 21
1108.53348687213
 31
0.0
  0
LINE
  5
27F15
102
{ACAD_REACTORS
330
27F2F
102
}
330
18
100
AcDbEntity
  8
0
  6
BYBLOCK
100
AcDbLine
 10
-389.9104275564464
 20
1109.183486872129
 30
0.0
 11
-380.4104275564459
 21
1109.183486872129
 31
0.0
  0
LINE
  5
27F16
102
{ACAD_REACTORS
330
27F2F
102
}
330
18
100
AcDbEntity
  8
0
  6
BYBLOCK
100
AcDbLine
 10
-389.9104275564464
 20
1108.533486872129
 30
0.0
 11
-380.4104275564459
 21
1108.533486872129
 31
0.0
  0
LINE
  5
27F17
102
{ACAD_REACTORS
330
27F2F
102
}
330
18
100
AcDbEntity
  8
0
  6
BYBLOCK
100
AcDbLine
 10
-389.9104275564464
 20
1105.083486872129
 30
0.0
 11
-380.4104275564459
 21
1105.083486872129
 31
0.0
  0
LINE
  5
27F18
102
{ACAD_REACTORS
330
27F2F
102
}
330
18
100
AcDbEntity
  8
0
  6
BYBLOCK
100
AcDbLine
 10
-389.9104275564464
 20
1109.183486872129
 30
0.0
 11
-389.9104275564464
 21
1112.633486872129
 31
0.0
  0
LINE
  5
27F19
102
{ACAD_REACTORS
330
27F2F
102
}
330
18
100
AcDbEntity
  8
0
  6
BYBLOCK
100
AcDbLine
 10
-380.4104275564459
 20
1117.708486872129
 30
0.0
 11
-380.4104275564459
 21
1121.526201157843
 31
0.0
  0
LINE
  5
27F1A
102
{ACAD_REACTORS
330
27F2F
102
}
330
18
100
AcDbEntity
  8
0
  6
BYBLOCK
100
AcDbLine
 10
-385.1704275564461
 20
1117.902772586415
 30
0.0
 11
-383.7132846993036
 21
1117.902772586415
 31
0.0
  0
LINE
  5
27F1B
102
{ACAD_REACTORS
330
27F2F
102
}
330
18
100
AcDbEntity
  8
0
  6
BYBLOCK
100
AcDbLine
 10
-385.1704275564461
 20
1121.108486872129
 30
0.0
 11
-386.1418561278746
 21
1120.137058300701
 31
0.0
  0
LINE
  5
27F1C
102
{ACAD_REACTORS
330
27F2F
102
}
330
18
100
AcDbEntity
  8
0
  6
BYBLOCK
100
AcDbLine
 10
-386.1418561278746
 20
1118.874201157843
 30
0.0
 11
-385.1704275564461
 21
1117.902772586415
 31
0.0
  0
LINE
  5
27F1D
102
{ACAD_REACTORS
330
27F2F
102
}
330
18
100
AcDbEntity
  8
0
  6
BYBLOCK
100
AcDbLine
 10
-386.1418561278746
 20
1118.874201157843
 30
0.0
 11
-386.1418561278746
 21
1120.137058300701
 31
0.0
  0
LINE
  5
27F1E
102
{ACAD_REACTORS
330
27F2F
102
}
330
18
100
AcDbEntity
  8
0
  6
BYBLOCK
100
AcDbLine
 10
-383.7132846993031
 20
1120.137058300701
 30
0.0
 11
-383.7132846993031
 21
1121.108486872129
 31
0.0
  0
LINE
  5
27F1F
102
{ACAD_REACTORS
330
27F2F
102
}
330
18
100
AcDbEntity
  8
0
  6
BYBLOCK
100
AcDbLine
 10
-383.7132846993031
 20
1117.902772586415
 30
0.0
 11
-383.8104275564464
 21
1118.971344014986
 31
0.0
  0
LINE
  5
27F20
102
{ACAD_REACTORS
330
27F2F
102
}
330
18
100
AcDbEntity
  8
0
  6
BYBLOCK
100
AcDbLine
 10
-383.7132846993031
 20
1120.137058300701
 30
0.0
 11
-380.4104275564459
 21
1120.137058300701
 31
0.0
  0
LINE
  5
27F21
102
{ACAD_REACTORS
330
27F2F
102
}
330
18
100
AcDbEntity
  8
0
  6
BYBLOCK
100
AcDbLine
 10
-383.8104275564464
 20
1118.971344014986
 30
0.0
 11
-380.4104275564459
 21
1118.971344014986
 31
0.0
  0
LINE
  5
27F22
102
{ACAD_REACTORS
330
27F2F
102
}
330
18
100
AcDbEntity
  8
0
  6
BYBLOCK
100
AcDbLine
 10
-383.7132846993031
 20
1121.108486872129
 30
0.0
 11
-383.2955704135888
 21
1121.526201157843
 31
0.0
  0
LINE
  5
27F23
102
{ACAD_REACTORS
330
27F2F
102
}
330
18
100
AcDbEntity
  8
0
  6
BYBLOCK
100
AcDbLine
 10
-389.9104275564464
 20
1116.733486872129
 30
0.0
 11
-380.4104275564459
 21
1116.733486872129
 31
0.0
  0
LINE
  5
27F24
102
{ACAD_REACTORS
330
27F2F
102
}
330
18
100
AcDbEntity
  8
0
  6
BYBLOCK
100
AcDbLine
 10
-366.2103824549713
 20
1103.108492925172
 30
0.0
 11
-366.2103824549703
 21
1118.708492925172
 31
0.0
  0
LINE
  5
27F25
102
{ACAD_REACTORS
330
27F2F
102
}
330
18
100
AcDbEntity
  8
0
  6
BYBLOCK
100
AcDbLine
 10
-366.2103824549703
 20
1103.108492925172
 30
0.0
 11
-367.3103824549698
 21
1103.108492925172
 31
0.0
  0
LINE
  5
27F26
102
{ACAD_REACTORS
330
27F2F
102
}
330
18
100
AcDbEntity
  8
0
  6
BYBLOCK
100
AcDbLine
 10
-367.3103824549707
 20
1103.108492925172
 30
0.0
 11
-367.3103824549712
 21
1104.10848687213
 31
0.0
  0
LINE
  5
27F27
102
{ACAD_REACTORS
330
27F2F
102
}
330
18
100
AcDbEntity
  8
0
  6
BYBLOCK
100
AcDbLine
 10
-366.2103824549703
 20
1118.708492925172
 30
0.0
 11
-367.3103824549698
 21
1118.708492925172
 31
0.0
  0
LINE
  5
27F28
102
{ACAD_REACTORS
330
27F2F
102
}
330
18
100
AcDbEntity
  8
0
  6
BYBLOCK
100
AcDbLine
 10
-372.9304275564454
 20
1120.137058300701
 30
0.0
 11
-372.9304275564459
 21
1121.526201157843
 31
0.0
  0
LINE
  5
27F29
102
{ACAD_REACTORS
330
27F2F
102
}
330
18
100
AcDbEntity
  8
0
  6
BYBLOCK
100
AcDbLine
 10
-373.9018561278744
 20
1121.10848687213
 30
0.0
 11
-373.9018561278744
 21
1121.526201157843
 31
0.0
  0
LINE
  5
27F2A
102
{ACAD_REACTORS
330
27F2F
102
}
330
18
100
AcDbEntity
  8
0
  6
BYBLOCK
100
AcDbLine
 10
-367.3103824549698
 20
1117.708486872129
 30
0.0
 11
-367.3103824549698
 21
1118.708492925172
 31
0.0
  0
LINE
  5
27F2B
102
{ACAD_REACTORS
330
27F2F
102
}
330
18
100
AcDbEntity
  8
0
  6
BYBLOCK
100
AcDbLine
 10
-378.7978561278741
 20
1118.194201157843
 30
0.0
 11
-378.7978561278746
 21
1118.694909658177
 31
0.0
  0
ARC
  5
27F2C
102
{ACAD_REACTORS
330
27F2F
102
}
330
18
100
AcDbEntity
  8
0
  6
BYBLOCK
100
AcDbCircle
 10
-378.3121418421601
 20
1118.194201157843
 30
0.0
 40
0.4857142857142857
100
AcDbArc
 50
180.000000000013
 51
270.0
  0
ARC
  5
27F2D
102
{ACAD_REACTORS
330
27F2F
102
}
330
18
100
AcDbEntity
  8
0
  6
BYBLOCK
100
AcDbCircle
 10
-378.3121418421606
 20
1118.694909658178
 30
0.0
 40
0.4857142857142857
100
AcDbArc
 50
100.0000000000017
 51
180.000000000013
  0
LINE
  5
27F2E
102
{ACAD_REACTORS
330
27F2F
102
}
330
18
100
AcDbEntity
  8
0
  6
BYBLOCK
100
AcDbLine
 10
-378.3964852427416
 20
1119.173244852498
 30
0.0
 11
-372.9304275564454
 21
1120.137058300701
 31
0.0
  0
LINE
  5
27F30
102
{ACAD_REACTORS
330
27F50
102
}
330
18
100
AcDbEntity
  8
0
  6
BYBLOCK
100
AcDbLine
 10
-367.31038245497
 20
940.9084868721295
 30
0.0
 11
-380.4104275564461
 21
940.9084868721295
 31
0.0
  0
LINE
  5
27F31
102
{ACAD_REACTORS
330
27F50
102
}
330
18
100
AcDbEntity
  8
0
  6
BYBLOCK
100
AcDbLine
 10
-367.31038245497
 20
930.9084868721296
 30
0.0
 11
-380.4104275564461
 21
930.9084868721296
 31
0.0
  0
LINE
  5
27F32
102
{ACAD_REACTORS
330
27F50
102
}
330
18
100
AcDbEntity
  8
0
  6
BYBLOCK
100
AcDbLine
 10
-389.9104275564466
 20
936.4834868721294
 30
0.0
 11
-389.9104275564466
 21
939.9334868721297
 31
0.0
  0
LINE
  5
27F33
102
{ACAD_REACTORS
330
27F50
102
}
330
18
100
AcDbEntity
  8
0
  6
BYBLOCK
100
AcDbLine
 10
-380.4104275564461
 20
930.9084868721296
 30
0.0
 11
-380.4104275564461
 21
940.9084868721295
 31
0.0
  0
LINE
  5
27F34
102
{ACAD_REACTORS
330
27F50
102
}
330
18
100
AcDbEntity
  8
0
  6
BYBLOCK
100
AcDbLine
 10
-389.9104275564466
 20
935.8334868721298
 30
0.0
 11
-380.4104275564461
 21
935.8334868721298
 31
0.0
  0
LINE
  5
27F35
102
{ACAD_REACTORS
330
27F50
102
}
330
18
100
AcDbEntity
  8
0
  6
BYBLOCK
100
AcDbLine
 10
-389.9104275564466
 20
936.4834868721294
 30
0.0
 11
-380.4104275564461
 21
936.4834868721294
 31
0.0
  0
LINE
  5
27F36
102
{ACAD_REACTORS
330
27F50
102
}
330
18
100
AcDbEntity
  8
0
  6
BYBLOCK
100
AcDbLine
 10
-389.9104275564466
 20
932.3834868721295
 30
0.0
 11
-380.4104275564461
 21
932.38348687213
 31
0.0
  0
LINE
  5
27F37
102
{ACAD_REACTORS
330
27F50
102
}
330
18
100
AcDbEntity
  8
0
  6
BYBLOCK
100
AcDbLine
 10
-389.9104275564466
 20
932.3834868721295
 30
0.0
 11
-389.9104275564466
 21
935.8334868721298
 31
0.0
  0
LINE
  5
27F38
102
{ACAD_REACTORS
330
27F50
102
}
330
18
100
AcDbEntity
  8
0
  6
BYBLOCK
100
AcDbLine
 10
-383.8104275564467
 20
942.1713440149869
 30
0.0
 11
-380.4104275564461
 21
942.1713440149869
 31
0.0
  0
LINE
  5
27F39
102
{ACAD_REACTORS
330
27F50
102
}
330
18
100
AcDbEntity
  8
0
  6
BYBLOCK
100
AcDbLine
 10
-383.7132846993033
 20
943.3370583007011
 30
0.0
 11
-380.4104275564461
 21
943.3370583007011
 31
0.0
  0
LINE
  5
27F3A
102
{ACAD_REACTORS
330
27F50
102
}
330
18
100
AcDbEntity
  8
0
  6
BYBLOCK
100
AcDbLine
 10
-385.1704275564463
 20
944.3084868721298
 30
0.0
 11
-373.9018561278746
 21
944.3084868721301
 31
0.0
  0
LINE
  5
27F3B
102
{ACAD_REACTORS
330
27F50
102
}
330
18
100
AcDbEntity
  8
0
  6
BYBLOCK
100
AcDbLine
 10
-383.2955704135891
 20
944.7262011578439
 30
0.0
 11
-372.9304275564466
 21
944.7262011578439
 31
0.0
  0
LINE
  5
27F3C
102
{ACAD_REACTORS
330
27F50
102
}
330
18
100
AcDbEntity
  8
0
  6
BYBLOCK
100
AcDbLine
 10
-389.9104275564466
 20
939.9334868721297
 30
0.0
 11
-380.4104275564461
 21
939.9334868721297
 31
0.0
  0
LINE
  5
27F3D
102
{ACAD_REACTORS
330
27F50
102
}
330
18
100
AcDbEntity
  8
0
  6
BYBLOCK
100
AcDbLine
 10
-385.1704275564463
 20
941.1027725864155
 30
0.0
 11
-383.7132846993038
 21
941.1027725864155
 31
0.0
  0
LINE
  5
27F3E
102
{ACAD_REACTORS
330
27F50
102
}
330
18
100
AcDbEntity
  8
0
  6
BYBLOCK
100
AcDbLine
 10
-386.1418561278749
 20
942.074201157844
 30
0.0
 11
-386.1418561278749
 21
943.3370583007011
 31
0.0
  0
LINE
  5
27F3F
102
{ACAD_REACTORS
330
27F50
102
}
330
18
100
AcDbEntity
  8
0
  6
BYBLOCK
100
AcDbLine
 10
-386.1418561278749
 20
942.074201157844
 30
0.0
 11
-385.1704275564463
 21
941.1027725864155
 31
0.0
  0
LINE
  5
27F40
102
{ACAD_REACTORS
330
27F50
102
}
330
18
100
AcDbEntity
  8
0
  6
BYBLOCK
100
AcDbLine
 10
-385.1704275564463
 20
944.3084868721298
 30
0.0
 11
-386.1418561278749
 21
943.3370583007011
 31
0.0
  0
LINE
  5
27F41
102
{ACAD_REACTORS
330
27F50
102
}
330
18
100
AcDbEntity
  8
0
  6
BYBLOCK
100
AcDbLine
 10
-383.7132846993033
 20
944.3084868721298
 30
0.0
 11
-383.2955704135891
 21
944.7262011578439
 31
0.0
  0
LINE
  5
27F42
102
{ACAD_REACTORS
330
27F50
102
}
330
18
100
AcDbEntity
  8
0
  6
BYBLOCK
100
AcDbLine
 10
-383.7132846993033
 20
941.1027725864155
 30
0.0
 11
-383.8104275564467
 21
942.1713440149869
 31
0.0
  0
LINE
  5
27F43
102
{ACAD_REACTORS
330
27F50
102
}
330
18
100
AcDbEntity
  8
0
  6
BYBLOCK
100
AcDbLine
 10
-383.7132846993033
 20
943.3370583007011
 30
0.0
 11
-383.7132846993033
 21
944.3084868721298
 31
0.0
  0
LINE
  5
27F44
102
{ACAD_REACTORS
330
27F50
102
}
330
18
100
AcDbEntity
  8
0
  6
BYBLOCK
100
AcDbLine
 10
-372.9304275564456
 20
943.3370583007011
 30
0.0
 11
-372.9304275564461
 21
944.7262011578439
 31
0.0
  0
LINE
  5
27F45
102
{ACAD_REACTORS
330
27F50
102
}
330
18
100
AcDbEntity
  8
0
  6
BYBLOCK
100
AcDbLine
 10
-373.9018561278746
 20
944.3084868721301
 30
0.0
 11
-373.9018561278746
 21
944.7262011578439
 31
0.0
  0
LINE
  5
27F46
102
{ACAD_REACTORS
330
27F50
102
}
330
18
100
AcDbEntity
  8
0
  6
BYBLOCK
100
AcDbLine
 10
-380.4104275564461
 20
940.9084868721295
 30
0.0
 11
-380.4104275564461
 21
944.7262011578439
 31
0.0
  0
ARC
  5
27F47
102
{ACAD_REACTORS
330
27F50
102
}
330
18
100
AcDbEntity
  8
0
  6
BYBLOCK
100
AcDbCircle
 10
-378.3121418421608
 20
941.8949096581785
 30
0.0
 40
0.4857142857142857
100
AcDbArc
 50
100.0000000000017
 51
180.000000000013
  0
LINE
  5
27F48
102
{ACAD_REACTORS
330
27F50
102
}
330
18
100
AcDbEntity
  8
0
  6
BYBLOCK
100
AcDbLine
 10
-378.7978561278744
 20
941.3942011578436
 30
0.0
 11
-378.7978561278748
 21
941.8949096581782
 31
0.0
  0
ARC
  5
27F49
102
{ACAD_REACTORS
330
27F50
102
}
330
18
100
AcDbEntity
  8
0
  6
BYBLOCK
100
AcDbCircle
 10
-378.3121418421603
 20
941.3942011578436
 30
0.0
 40
0.4857142857142857
100
AcDbArc
 50
180.000000000013
 51
270.0
  0
LINE
  5
27F4A
102
{ACAD_REACTORS
330
27F50
102
}
330
18
100
AcDbEntity
  8
0
  6
BYBLOCK
100
AcDbLine
 10
-378.3964852427418
 20
942.3732448524987
 30
0.0
 11
-372.9304275564456
 21
943.3370583007011
 31
0.0
  0
LINE
  5
27F4B
102
{ACAD_REACTORS
330
27F50
102
}
330
18
100
AcDbEntity
  8
0
  6
BYBLOCK
100
AcDbLine
 10
-366.210382454971
 20
929.9084929251719
 30
0.0
 11
-366.2103824549706
 21
941.9084929251729
 31
0.0
  0
LINE
  5
27F4C
102
{ACAD_REACTORS
330
27F50
102
}
330
18
100
AcDbEntity
  8
0
  6
BYBLOCK
100
AcDbLine
 10
-366.2103824549708
 20
929.9084929251719
 30
0.0
 11
-367.3103824549702
 21
929.9084929251719
 31
0.0
  0
LINE
  5
27F4D
102
{ACAD_REACTORS
330
27F50
102
}
330
18
100
AcDbEntity
  8
0
  6
BYBLOCK
100
AcDbLine
 10
-367.3103824549712
 20
929.9084929251719
 30
0.0
 11
-367.3103824549716
 21
930.9084868721296
 31
0.0
  0
LINE
  5
27F4E
102
{ACAD_REACTORS
330
27F50
102
}
330
18
100
AcDbEntity
  8
0
  6
BYBLOCK
100
AcDbLine
 10
-366.2103824549706
 20
941.9084929251729
 30
0.0
 11
-367.31038245497
 21
941.9084929251729
 31
0.0
  0
LINE
  5
27F4F
102
{ACAD_REACTORS
330
27F50
102
}
330
18
100
AcDbEntity
  8
0
  6
BYBLOCK
100
AcDbLine
 10
-367.31038245497
 20
940.9084868721295
 30
0.0
 11
-367.31038245497
 21
941.9084929251729
 31
0.0
  0
LINE
  5
27F7C
330
18
100
AcDbEntity
  8
0
100
AcDbLine
 10
-343.8103824549707
 20
1112.199702970837
 30
0.0
 11
-366.2103824549708
 21
1115.984177856682
 31
0.0
  0
LINE
  5
27F7D
330
18
100
AcDbEntity
  8
0
100
AcDbLine
 10
-366.2103824549708
 20
1110.908492925175
 30
0.0
 11
-343.8103824549707
 21
1110.908492925175
 31
0.0
  0
LINE
  5
27F7E
330
18
100
AcDbEntity
  8
0
100
AcDbLine
 10
-343.8103824549707
 20
1109.617282879513
 30
0.0
 11
-366.2103824549708
 21
1105.832807993669
 31
0.0
  0
LINE
  5
27F7F
330
18
100
AcDbEntity
  8
0
100
AcDbLine
 10
-328.8103824549707
 20
1107.968492925175
 30
0.0
 11
-328.8103824549707
 21
1113.848492925175
 31
0.0
  0
LINE
  5
27F80
330
18
100
AcDbEntity
  8
0
100
AcDbLine
 10
-343.8103824549707
 20
1107.968492925175
 30
0.0
 11
-343.8103824549707
 21
1113.848492925175
 31
0.0
  0
LINE
  5
27F81
330
18
100
AcDbEntity
  8
0
100
AcDbLine
 10
-343.8103824549707
 20
1107.968492925175
 30
0.0
 11
-328.8103824549707
 21
1107.968492925175
 31
0.0
  0
ARC
  5
27F82
330
18
100
AcDbEntity
  8
0
100
AcDbCircle
 10
-323.9245945159022
 20
1098.815057934545
 30
0.0
 40
10.0
100
AcDbArc
 50
55.64485341677006
 51
89.99999999999674
  0
LINE
  5
27F83
330
18
100
AcDbEntity
  8
0
100
AcDbLine
 10
-328.8103824549707
 20
1108.815057934545
 30
0.0
 11
-323.9245945159022
 21
1108.815057934545
 31
0.0
  0
LINE
  5
27F84
330
18
100
AcDbEntity
  8
0
100
AcDbLine
 10
-343.8103824549707
 20
1113.848492925175
 30
0.0
 11
-328.8103824549707
 21
1113.848492925175
 31
0.0
  0
ARC
  5
27F85
330
18
100
AcDbEntity
  8
0
100
AcDbCircle
 10
-323.9272230079675
 20
1103.026378941632
 30
0.0
 40
10.0
100
AcDbArc
 50
55.61736231583692
 51
90.0
  0
ARC
  5
27F86
330
18
100
AcDbEntity
  8
0
100
AcDbCircle
 10
-323.9310892569914
 20
1123.026378941632
 30
0.0
 40
10.0
100
AcDbArc
 50
269.9999999999967
 51
304.4230669294443
  0
LINE
  5
27F87
330
18
100
AcDbEntity
  8
0
100
AcDbLine
 10
-328.8103824549707
 20
1113.026378941632
 30
0.0
 11
-323.9310892569916
 21
1113.026378941632
 31
0.0
  0
LINE
  5
27F88
330
18
100
AcDbEntity
  8
0
100
AcDbLine
 10
-328.8103824549707
 20
1113.026378941632
 30
0.0
 11
-323.9272230079673
 21
1113.026378941632
 31
0.0
  0
LINE
  5
27F89
330
18
100
AcDbEntity
  8
0
100
AcDbLine
 10
-318.2800535710205
 20
1111.279225562672
 30
0.0
 11
-301.2932041627793
 21
1099.655646304132
 31
0.0
  0
LINE
  5
27F8A
330
18
100
AcDbEntity
  8
0
100
AcDbLine
 10
-318.281385529048
 20
1107.070613175151
 30
0.0
 11
-301.5782559884987
 21
1095.652937684567
 31
0.0
  0
LINE
  5
27F8D
330
18
100
AcDbEntity
  8
0
100
AcDbLine
 10
-317.7548524582287
 20
1110.919846573991
 30
0.0
 11
-301.2934121247269
 21
1122.174580471774
 31
0.0
  0
LINE
  5
27F8E
330
18
100
AcDbEntity
  8
0
100
AcDbLine
 10
-318.2780978243448
 20
1114.777519149974
 30
0.0
 11
-301.6564728634908
 21
1126.168415088756
 31
0.0
  0
ARC
  5
27F91
330
18
100
AcDbEntity
  8
0
  6
BYBLOCK
100
AcDbCircle
 10
-296.0034814308441
 20
1117.919555297099
 30
0.0
 40
10.0
100
AcDbArc
 50
89.99999999960371
 51
124.4230669294481
  0
ARC
  5
27F92
330
18
100
AcDbEntity
  8
0
  6
BYBLOCK
100
AcDbCircle
 10
-295.6494277724492
 20
1113.919555297298
 30
0.0
 40
10.0
100
AcDbArc
 50
90.00000000033876
 51
124.3605280011045
  0
ARC
  5
27F93
330
18
100
AcDbEntity
  8
0
  6
BYBLOCK
100
AcDbCircle
 10
-295.6460347258325
 20
1107.908492925172
 30
0.0
 40
10.0
100
AcDbArc
 50
235.6173623158393
 51
270.0000000000001
  0
ARC
  5
27F94
330
18
100
AcDbEntity
  8
0
  6
BYBLOCK
100
AcDbCircle
 10
-295.9350470016443
 20
1103.908492925173
 30
0.0
 40
10.0
100
AcDbArc
 50
235.6448534167729
 51
269.9999999999998
  0
LINE
  5
27FA4
330
18
100
AcDbEntity
  8
0
  6
BYBLOCK
100
AcDbLine
 10
-344.319475212368
 20
938.4200779221378
 30
0.0
 11
-344.319475212368
 21
933.4200779287378
 31
0.0
  0
LINE
  5
27FA5
330
18
100
AcDbEntity
  8
0
  6
BYBLOCK
100
AcDbLine
 10
-344.319475212368
 20
933.7310377908536
 30
0.0
 11
-366.2103824549706
 21
930.97761533984
 31
0.0
  0
LINE
  5
27FA6
330
18
100
AcDbEntity
  8
0
  6
BYBLOCK
100
AcDbLine
 10
-344.319475212368
 20
938.1550704741593
 30
0.0
 11
-366.2103824549706
 21
940.9084929251729
 31
0.0
  0
LINE
  5
27FA7
330
18
100
AcDbEntity
  8
0
  6
BYBLOCK
100
AcDbLine
 10
-344.325330934466
 20
935.7550776178118
 30
0.0
 11
-366.2162381770686
 21
938.5085000688253
 31
0.0
  0
LINE
  5
27FA8
330
18
100
AcDbEntity
  8
0
  6
BYBLOCK
100
AcDbLine
 10
-344.324354980783
 20
936.1550764272031
 30
0.0
 11
-366.2152622233857
 21
938.9084988782167
 31
0.0
  0
LINE
  5
27FA9
330
18
100
AcDbEntity
  8
0
  6
BYBLOCK
100
AcDbLine
 10
-344.3302107028811
 20
933.7550835708556
 30
0.0
 11
-366.2211179454838
 21
936.5085060218692
 31
0.0
  0
LINE
  5
27FAA
330
18
100
AcDbEntity
  8
0
  6
BYBLOCK
100
AcDbLine
 10
-352.1821073370983
 20
934.7426894400914
 30
0.0
 11
-366.2152622233857
 21
932.9776093867963
 31
0.0
  0
LINE
  5
27FAB
330
18
100
AcDbEntity
  8
0
  6
BYBLOCK
100
AcDbLine
 10
-353.7726776549757
 20
934.9427502221606
 30
0.0
 11
-366.2162381770686
 21
933.3776081961875
 31
0.0
  0
LINE
  5
27FAC
330
18
100
AcDbEntity
  8
0
  6
BYBLOCK
100
AcDbLine
 10
-361.7255292443609
 20
935.9430541325066
 30
0.0
 11
-366.2211179454838
 21
935.3776022431436
 31
0.0
  0
LINE
  5
27FAD
330
18
100
AcDbEntity
  8
0
  6
BYBLOCK
100
AcDbLine
 10
-352.1821073370983
 20
937.1434188249216
 30
0.0
 11
-353.7726776549757
 21
936.9433580428523
 31
0.0
  0
LINE
  5
27FAE
330
18
100
AcDbEntity
  8
0
  6
BYBLOCK
100
AcDbLine
 10
-344.325330934466
 20
936.131030647201
 30
0.0
 11
-345.8198260655898
 21
935.9430541325066
 31
0.0
  0
LINE
  5
27FAF
102
{ACAD_REACTORS
330
27FBD
102
}
330
18
100
AcDbEntity
  8
0
100
AcDbLine
 10
-367.31038245497
 20
454.0427632187945
 30
0.0
 11
-380.4104275564461
 21
454.0427632187945
 31
0.0
  0
LINE
  5
27FB0
102
{ACAD_REACTORS
330
27FBD
102
}
330
18
100
AcDbEntity
  8
0
100
AcDbLine
 10
-367.31038245497
 20
444.0427632187946
 30
0.0
 11
-380.4104275564461
 21
444.0427632187946
 31
0.0
  0
LINE
  5
27FB1
102
{ACAD_REACTORS
330
27FBD
102
}
330
18
100
AcDbEntity
  8
0
100
AcDbLine
 10
-389.9104275564466
 20
453.0677632187946
 30
0.0
 11
-380.4104275564461
 21
453.0677632187946
 31
0.0
  0
LINE
  5
27FB2
102
{ACAD_REACTORS
330
27FBD
102
}
330
18
100
AcDbEntity
  8
0
100
AcDbLine
 10
-389.9104275564466
 20
445.5177632187944
 30
0.0
 11
-380.4104275564461
 21
445.5177632187949
 31
0.0
  0
LINE
  5
27FB3
102
{ACAD_REACTORS
330
27FBD
102
}
330
18
100
AcDbEntity
  8
0
100
AcDbLine
 10
-389.9104275564466
 20
448.9677632187947
 30
0.0
 11
-380.4104275564461
 21
448.9677632187947
 31
0.0
  0
LINE
  5
27FB4
102
{ACAD_REACTORS
330
27FBD
102
}
330
18
100
AcDbEntity
  8
0
100
AcDbLine
 10
-389.9104275564466
 20
449.6177632187944
 30
0.0
 11
-380.4104275564461
 21
449.6177632187944
 31
0.0
  0
LINE
  5
27FB5
102
{ACAD_REACTORS
330
27FBD
102
}
330
18
100
AcDbEntity
  8
0
100
AcDbLine
 10
-389.9104275564466
 20
445.5177632187944
 30
0.0
 11
-389.9104275564466
 21
448.9677632187947
 31
0.0
  0
LINE
  5
27FB6
102
{ACAD_REACTORS
330
27FBD
102
}
330
18
100
AcDbEntity
  8
0
100
AcDbLine
 10
-389.9104275564466
 20
449.6177632187944
 30
0.0
 11
-389.9104275564466
 21
453.0677632187946
 31
0.0
  0
LINE
  5
27FB7
102
{ACAD_REACTORS
330
27FBD
102
}
330
18
100
AcDbEntity
  8
0
100
AcDbLine
 10
-380.4104275564461
 20
444.0427632187946
 30
0.0
 11
-380.4104275564461
 21
454.0427632187945
 31
0.0
  0
LINE
  5
27FB8
102
{ACAD_REACTORS
330
27FBD
102
}
330
18
100
AcDbEntity
  8
0
100
AcDbLine
 10
-366.2103824549706
 20
455.0427692718378
 30
0.0
 11
-367.31038245497
 21
455.0427692718378
 31
0.0
  0
LINE
  5
27FB9
102
{ACAD_REACTORS
330
27FBD
102
}
330
18
100
AcDbEntity
  8
0
100
AcDbLine
 10
-367.31038245497
 20
454.0427632187945
 30
0.0
 11
-367.31038245497
 21
455.0427692718378
 31
0.0
  0
LINE
  5
27FBA
102
{ACAD_REACTORS
330
27FBD
102
}
330
18
100
AcDbEntity
  8
0
100
AcDbLine
 10
-366.2103824549708
 20
443.0427692718369
 30
0.0
 11
-367.3103824549702
 21
443.0427692718369
 31
0.0
  0
LINE
  5
27FBB
102
{ACAD_REACTORS
330
27FBD
102
}
330
18
100
AcDbEntity
  8
0
100
AcDbLine
 10
-367.3103824549712
 20
443.0427692718369
 30
0.0
 11
-367.3103824549716
 21
444.0427632187946
 31
0.0
  0
LINE
  5
27FBC
102
{ACAD_REACTORS
330
27FBD
102
}
330
18
100
AcDbEntity
  8
0
100
AcDbLine
 10
-366.210382454971
 20
443.0427692718369
 30
0.0
 11
-366.2103824549706
 21
455.0427692718378
 31
0.0
  0
LINE
  5
27FBE
330
18
100
AcDbEntity
  8
0
100
AcDbLine
 10
-344.319475212368
 20
451.5543542688027
 30
0.0
 11
-344.319475212368
 21
446.5543542754028
 31
0.0
  0
LINE
  5
27FBF
330
18
100
AcDbEntity
  8
中心線
100
AcDbLine
 10
-147.4843552667744
 20
449.0427692718373
 30
0.0
 11
-173.7621692902303
 21
449.0427692718374
 31
0.0
  0
LINE
  5
27FC0
330
18
100
AcDbEntity
  8
0
100
AcDbLine
 10
-353.7726776549757
 20
448.0770265688255
 30
0.0
 11
-366.2162381770686
 21
446.5118845428525
 31
0.0
  0
LINE
  5
27FC1
330
18
100
AcDbEntity
  8
0
100
AcDbLine
 10
-352.1821073370983
 20
447.8769657867564
 30
0.0
 11
-366.2152622233857
 21
446.1118857334612
 31
0.0
  0
LINE
  5
27FC2
330
18
100
AcDbEntity
  8
0
100
AcDbLine
 10
-344.3302107028811
 20
446.8893599175205
 30
0.0
 11
-366.2211179454838
 21
449.6427823685342
 31
0.0
  0
LINE
  5
27FC3
330
18
100
AcDbEntity
  8
0
100
AcDbLine
 10
-344.324354980783
 20
449.2893527738681
 30
0.0
 11
-366.2152622233857
 21
452.0427752248817
 31
0.0
  0
LINE
  5
27FC4
330
18
100
AcDbEntity
  8
0
100
AcDbLine
 10
-344.325330934466
 20
448.8893539644769
 30
0.0
 11
-366.2162381770686
 21
451.6427764154903
 31
0.0
  0
LINE
  5
27FC5
330
18
100
AcDbEntity
  8
0
100
AcDbLine
 10
-344.319475212368
 20
451.2893468208243
 30
0.0
 11
-366.2103824549706
 21
454.0427692718379
 31
0.0
  0
LINE
  5
27FC6
330
18
100
AcDbEntity
  8
0
100
AcDbLine
 10
-344.319475212368
 20
446.8653141375185
 30
0.0
 11
-366.2103824549706
 21
444.111891686505
 31
0.0
  0
LINE
  5
27FC7
330
18
100
AcDbEntity
  8
0
100
AcDbLine
 10
-361.7255292443609
 20
449.0773304791715
 30
0.0
 11
-366.2211179454838
 21
448.5118785898086
 31
0.0
  0
LINE
  5
27FC8
330
18
100
AcDbEntity
  8
0
100
AcDbLine
 10
-344.325330934466
 20
449.2653069938659
 30
0.0
 11
-345.8198260655898
 21
449.0773304791715
 31
0.0
  0
LINE
  5
27FC9
330
18
100
AcDbEntity
  8
0
100
AcDbLine
 10
-352.1821073370983
 20
450.2776951715866
 30
0.0
 11
-353.7726776549757
 21
450.0776343895172
 31
0.0
  0
LINE
  5
27FCB
330
18
100
AcDbEntity
  8
中心線
  6
BYBLOCK
100
AcDbLine
 10
-147.0711585889812
 20
935.8974305532026
 30
0.0
 11
-180.4730409837265
 21
935.8974305532026
 31
0.0
  0
LINE
  5
2810B
330
18
100
AcDbEntity
  8
0
100
AcDbLine
 10
49.71740447323756
 20
459.0427692718375
 30
0.0
 11
251.7174044732378
 21
459.0427692718375
 31
0.0
  0
LINE
  5
2810C
330
18
100
AcDbEntity
  8
0
100
AcDbLine
 10
49.71740447323757
 20
460.3427692718374
 30
0.0
 11
252.2174044732373
 21
460.3427692718374
 31
0.0
  0
LINE
  5
28266
330
18
100
AcDbEntity
  8
0
100
AcDbLine
 10
-150.5006638334762
 20
472.5427692718366
 30
0.0
 11
-150.5006638334762
 21
465.3427692718366
 31
0.0
  0
LINE
  5
28268
330
18
100
AcDbEntity
  8
0
100
AcDbLine
 10
-150.5006638334762
 20
472.5427692718366
 30
0.0
 11
-152.782595526762
 21
472.5427692718366
 31
0.0
  0
LINE
  5
28269
330
18
100
AcDbEntity
  8
0
100
AcDbLine
 10
-150.5006638334762
 20
465.3427692718367
 30
0.0
 11
-152.782595526762
 21
465.3427692718367
 31
0.0
  0
LINE
  5
28E5C
330
18
100
AcDbEntity
  8
0
100
AcDbLine
 10
252.2174044732376
 20
481.7427692718374
 30
0.0
 11
251.2174044732376
 21
482.7427692718374
 31
0.0
  0
LINE
  5
28E66
330
18
100
AcDbEntity
  8
0
100
AcDbLine
 10
-152.782595526762
 20
481.7427692718375
 30
0.0
 11
-151.782595526762
 21
482.7427692718376
 31
0.0
  0
CIRCLE
  5
28EF1
330
18
100
AcDbEntity
  8
細線
 48
2.0
100
AcDbCircle
 10
49.71740447323793
 20
1015.908492925172
 30
0.0
 40
201.0
  0
CIRCLE
  5
28F55
330
18
100
AcDbEntity
  8
0
100
AcDbCircle
 10
49.71740447323793
 20
1015.908492925172
 30
0.0
 40
74.99999999999906
  0
CIRCLE
  5
28F57
330
18
100
AcDbEntity
  8
0
100
AcDbCircle
 10
49.71740447323793
 20
1015.908492925172
 30
0.0
 40
32.5
  0
CIRCLE
  5
28F58
330
18
100
AcDbEntity
  8
0
  6
BYBLOCK
100
AcDbCircle
 10
605.5155639446293
 20
1015.908492925172
 30
0.0
 40
84.99999999999987
  0
VIEWPORT
  5
23
330
15
100
AcDbEntity
 67
     1
  8
0
100
AcDbViewport
 10
200.0856292147593
 20
143.9482538779788
 30
0.0
 40
433.966701931744
 41
284.0247185400451
 68
     1
 69
     1
1001
ACAD
1000
MVIEW
1002
{
1070
    16
1010
0.0
1020
0.0
1030
0.0
1010
0.0
1020
0.0
1030
1.0
1040
0.0
1040
284.0247185400451
1040
200.0856292147593
1040
143.9482538779788
1040
50.0
1040
0.0
1040
0.0
1070
     0
1070
   100
1070
     1
1070
     0
1070
     0
1070
     0
1070
     0
1070
     0
1040
0.0
1040
0.0
1040
0.0
1040
10.0
1040
10.0
1040
10.0
1040
10.0
1070
     0
1002
{
1002
}
1002
}
  0
VIEWPORT
  5
2E
330
15
100
AcDbEntity
 67
     1
  8
M_VIEW
100
AcDbViewport
 10
200.076829455903
 20
143.9463601748293
 30
0.0
 40
399.8463410881938
 41
281.8520224943233
 68
     2
 69
     2
1001
ACAD
1000
MVIEW
1002
{
1070
    16
1010
0.0
1020
0.0
1030
0.0
1010
0.0
1020
0.0
1030
1.0
1040
0.0
1040
1127.408089952243
1040
206.8429237221975
1040
782.9183979571394
1040
50.0
1040
0.0
1040
0.0
1070
     0
1070
   100
1070
     1
1070
     0
1070
     0
1070
     0
1070
     0
1070
     0
1040
0.0
1040
0.0
1040
0.0
1040
10.0
1040
10.0
1040
10.0
1040
10.0
1070
     0
1002
{
1002
}
1002
}
  0
INSERT
  5
115F
330
15
100
AcDbEntity
 67
     1
  8
FRAME025
100
AcDbBlockReference
  2
機械A4横_LBP
 10
82.74908858651452
 20
152.030959079227
 30
0.0
  0
TEXT
  5
AA6A
330
15
100
AcDbEntity
 67
     1
  8
文字
  6
BYBLOCK
 62
     0
100
AcDbText
 10
32.81885892396519
 20
73.01882819621747
 30
0.0
 40
3.2
  1

 50
90.0
 41
0.625
  7
MSｺ_ｼｯｸ
100
AcDbText
  0
TEXT
  5
AA6C
330
15
100
AcDbEntity
 67
     1
  8
文字
  6
BYBLOCK
 62
     0
100
AcDbText
 10
37.25020936743055
 20
73.01882819621747
 30
0.0
 40
3.2
  1

 50
90.0
 41
0.625
  7
MSｺ_ｼｯｸ
100
AcDbText
  0
TEXT
  5
FCA5
330
15
100
AcDbEntity
 67
     1
  8
FRAME020
  6
CONTINUOUS
100
AcDbText
 10
126.6213117262079
 20
29.63926951973459
 30
0.0
 40
2.5
  1

 41
0.625
  7
MSｺ_ｼｯｸ
100
AcDbText
  0
TEXT
  5
12229
330
15
100
AcDbEntity
 67
     1
  8
文字
100
AcDbText
 10
314.4618910367888
 20
9.327750355017997
 30
0.0
 40
7.0
  1
ＳＥ－４２０９１Ａ
 41
0.95
  7
MSｺ_ｼｯｸ
100
AcDbText
  0
MTEXT
  5
28F4D
330
15
100
AcDbEntity
 67
     1
  8
細線
  6
BYBLOCK
100
AcDbMText
 10
238.2758721806069
 20
28.43260041908672
 30
0.0
 40
6.0
 41
158.3082127089271
 71
     1
 72
     5
  1
{\fＭＳ ゴシック|b0|i0|c128|p49;τDISCﾓｰﾀ D400-040-FP NMR-FFDBA2C-801AP}
1001
ACAD
1000
MTEXTBEGIN
1070
    73
1070
     1
1070
    44
1040
1.0
1070
    74
1070
     0
1000
MTEXTEND
1000
MTEXTBEGIN
1070
    73
1070
     1
1070
    44
1040
1.0
1070
    74
1070
     0
1000
MTEXTEND
  0
ENDSEC
  0
SECTION
  2
OBJECTS
  0
DICTIONARY
  5
C
330
0
100
AcDbDictionary
  3
ACAD_GROUP
350
D
  3
ACAD_LAYOUT
350
DB2
  3
ACAD_MLINESTYLE
350
1B
  3
ACAD_PLOTSETTINGS
350
DB3
  3
ACAD_PLOTSTYLENAME
350
FB5B
  3
ACADDIM
350
27931
  3
ACDBHEADERROUNDTRIPXREC
350
28F5A
  3
ACDBVARIABLEDICTIONARY
350
106A6
  3
DWGPROPS
350
15EC9
1001
ACAD
1000
TREAT_AS_HARD
1070
     0
  0
DICTIONARY
  5
284B7
330
2
100
AcDbDictionary
280
     1
  3
ACAD_LAYERFILTERS
360
284B8
  3
ACAD_LAYERSTATES
360
284D0
  0
DICTIONARY
  5
EFC6
330
18
100
AcDbDictionary
280
     1
  3
ACAD_LAYOUTSELFREF
360
28F7C
  0
DICTIONARY
  5
EFC4
330
15
100
AcDbDictionary
280
     1
  3
ACAD_LAYOUTSELFREF
360
28F7B
  0
DICTIONARY
  5
D
102
{ACAD_REACTORS
330
C
102
}
330
C
100
AcDbDictionary
  3
*A1
350
AC8A
  3
*A10
350
FCB8
  3
*A11
350
21518
  3
*A12
350
26A7D
  3
*A13
350
26092
  3
*A14
350
23F84
  3
*A15
350
26A0E
  3
*A16
350
264A5
  3
*A17
350
FB6B
  3
*A18
350
26037
  3
*A19
350
FC95
  3
*A2
350
25FF6
  3
*A20
350
AC9A
  3
*A21
350
24C02
  3
*A22
350
24AC0
  3
*A23
350
ACA2
  3
*A24
350
FB6C
  3
*A25
350
FBFF
  3
*A26
350
25FEA
  3
*A27
350
106C6
  3
*A28
350
25FEE
  3
*A29
350
106A5
  3
*A3
350
26680
  3
*A30
350
24CD8
  3
*A31
350
106B3
  3
*A32
350
26113
  3
*A33
350
25A31
  3
*A34
350
24108
  3
*A35
350
26019
  3
*A36
350
2644C
  3
*A37
350
26073
  3
*A38
350
ACBD
  3
*A39
350
26482
  3
*A4
350
24AC1
  3
*A40
350
FC9B
  3
*A41
350
26495
  3
*A42
350
23FA3
  3
*A43
350
ACA1
  3
*A44
350
264C5
  3
*A45
350
FC9A
  3
*A46
350
25FF2
  3
*A47
350
24024
  3
*A48
350
FC91
  3
*A49
350
25FF9
  3
*A5
350
24017
  3
*A50
350
24AFC
  3
*A51
350
266A1
  3
*A52
350
ACAB
  3
*A53
350
26470
  3
*A54
350
26055
  3
*A55
350
23FDE
  3
*A56
350
106C7
  3
*A57
350
264B5
  3
*A58
350
27976
  3
*A59
350
ACB4
  3
*A6
350
23FB3
  3
*A60
350
24D6A
  3
*A61
350
23FC0
  3
*A62
350
27DE3
  3
*A63
350
27DEC
  3
*A64
350
27DF5
  3
*A65
350
27DFE
  3
*A66
350
27E07
  3
*A67
350
27E08
  3
*A68
350
28BA4
  3
*A69
350
28BA5
  3
*A7
350
26661
  3
*A70
350
28BA6
  3
*A71
350
27E09
  3
*A72
350
27E0A
  3
*A73
350
2645E
  3
*A74
350
26112
  3
*A75
350
28F05
  3
*A76
350
27F09
  3
*A77
350
28F06
  3
*A78
350
27F0B
  3
*A79
350
27F0A
  3
*A8
350
27F50
  3
*A80
350
27F2F
  3
*A9
350
27FBD
1001
ACAD
1000
TREAT_AS_HARD
1070
     0
  0
DICTIONARY
  5
DB2
102
{ACAD_REACTORS
330
C
102
}
330
C
100
AcDbDictionary
1001
ACAD
1000
TREAT_AS_HARD
1070
     0
  0
DICTIONARY
  5
1B
102
{ACAD_REACTORS
330
C
102
}
330
C
100
AcDbDictionary
  3
STANDARD
350
1C
1001
ACAD
1000
TREAT_AS_HARD
1070
     0
  0
DICTIONARY
  5
DB3
102
{ACAD_REACTORS
330
C
102
}
330
C
100
AcDbDictionary
1001
ACAD
1000
TREAT_AS_HARD
1070
     0
  0
ACDBDICTIONARYWDFLT
  5
FB5B
102
{ACAD_REACTORS
330
C
102
}
330
C
100
AcDbDictionary
281
     1
  3
Normal
350
FB5C
100
AcDbDictionaryWithDefault
340
FB5C
  0
XRECORD
  5
27931
102
{ACAD_REACTORS
330
C
102
}
330
C
100
AcDbXrecord
 90
   990106
  3

 60
     4
 61
     0
 62
     1
 63
     3
 64
     0
 65
     0
 66
     0
 67
     3
 68
     1
 69
     0
 70
     0
 71
     0
 72
     0
 40
0.0
170
     0
  0
DICTIONARY
  5
28F5A
102
{ACAD_REACTORS
330
C
102
}
330
C
100
AcDbDictionary
  3
CEPSNTYPE
350
28F64
  3
DIMSTYLEDATA
350
28F68
  3
FINGERPRINTGUID
350
28F65
  3
HYPERLINKBASE
350
28F5D
  3
INSUNITS
350
28F63
  3
LAYOUTDICT
350
28F5F
  3
LWETCUNION
350
28F62
  3
PLOTSETDICT
350
28F60
  3
PLOTSTYLNAMDICT
350
28F61
  3
PSVPSCALE
350
28F67
  3
PUCSBASE
350
28F6B
  3
PUCSORGBACK
350
28F71
  3
PUCSORGBOTTOM
350
28F6D
  3
PUCSORGFRONT
350
28F70
  3
PUCSORGLEFT
350
28F6E
  3
PUCSORGRIGHT
350
28F6F
  3
PUCSORGTOP
350
28F6C
  3
PUCSORTHOREF
350
28F69
  3
PUCSORTHOVIEW
350
28F6A
  3
STYLESHEET
350
28F5E
  3
TSTACKALIGN
350
28F5B
  3
TSTACKSIZE
350
28F5C
  3
UCSBASE
350
28F74
  3
UCSORGBACK
350
28F7A
  3
UCSORGBOTTOM
350
28F76
  3
UCSORGFRONT
350
28F79
  3
UCSORGLEFT
350
28F77
  3
UCSORGRIGHT
350
28F78
  3
UCSORGTOP
350
28F75
  3
UCSORTHOREF
350
28F72
  3
UCSORTHOVIEW
350
28F73
  3
VERSIONGUID
350
28F66
  0
DICTIONARY
  5
106A6
102
{ACAD_REACTORS
330
C
102
}
330
C
100
AcDbDictionary
  3
SORTENTS
350
106A7
  0
XRECORD
  5
15EC9
102
{ACAD_REACTORS
330
C
102
}
330
C
100
AcDbXrecord
  1
DWGPROPS COOKIE
  2

  3

  4

  6

  7

  8

  9

300
=
301
=
302
=
303
=
304
=
305
=
306
=
307
=
308
=
309
=
 40
12.65185717592592
 41
2451224.660162384
 42
2452395.660827315
  1

 90
        0
  0
DICTIONARY
  5
284B8
102
{ACAD_REACTORS
330
284B7
102
}
330
284B7
100
AcDbDictionary
280
     1
  3
0
360
284B9
  3
11
360
284BA
  3
150_
360
284BB
  3
160_
360
284BC
  3
170_
360
284BD
  3
171_
360
284BE
  3
350_
360
284BF
  3
4
360
284C0
  3
5
360
284C1
  3
7
360
284C2
  3
KISEKI
360
284C3
  0
DICTIONARY
  5
284D0
102
{ACAD_REACTORS
330
284B7
102
}
330
284B7
100
AcDbDictionary
  0
XRECORD
  5
28F7C
102
{ACAD_REACTORS
330
EFC6
102
}
330
EFC6
100
AcDbXrecord
340
18
  0
XRECORD
  5
28F7B
102
{ACAD_REACTORS
330
EFC4
102
}
330
EFC4
100
AcDbXrecord
340
15
  0
GROUP
  5
AC8A
102
{ACAD_REACTORS
330
D
102
}
330
D
100
AcDbGroup
300

 70
     1
 71
     1
  0
GROUP
  5
FCB8
102
{ACAD_REACTORS
330
D
102
}
330
D
100
AcDbGroup
300

 70
     1
 71
     1
  0
GROUP
  5
21518
102
{ACAD_REACTORS
330
D
102
}
330
D
100
AcDbGroup
300

 70
     1
 71
     1
  0
GROUP
  5
26A7D
102
{ACAD_REACTORS
330
D
102
}
330
D
100
AcDbGroup
300

 70
     1
 71
     1
  0
GROUP
  5
26092
102
{ACAD_REACTORS
330
D
102
}
330
D
100
AcDbGroup
300

 70
     1
 71
     1
  0
GROUP
  5
23F84
102
{ACAD_REACTORS
330
D
102
}
330
D
100
AcDbGroup
300

 70
     1
 71
     1
  0
GROUP
  5
26A0E
102
{ACAD_REACTORS
330
D
102
}
330
D
100
AcDbGroup
300

 70
     1
 71
     1
  0
GROUP
  5
264A5
102
{ACAD_REACTORS
330
D
102
}
330
D
100
AcDbGroup
300

 70
     1
 71
     1
  0
GROUP
  5
FB6B
102
{ACAD_REACTORS
330
D
102
}
330
D
100
AcDbGroup
300

 70
     1
 71
     1
  0
GROUP
  5
26037
102
{ACAD_REACTORS
330
D
102
}
330
D
100
AcDbGroup
300

 70
     1
 71
     1
  0
GROUP
  5
FC95
102
{ACAD_REACTORS
330
D
102
}
330
D
100
AcDbGroup
300

 70
     1
 71
     1
  0
GROUP
  5
25FF6
102
{ACAD_REACTORS
330
D
102
}
330
D
100
AcDbGroup
300

 70
     1
 71
     1
  0
GROUP
  5
AC9A
102
{ACAD_REACTORS
330
D
102
}
330
D
100
AcDbGroup
300

 70
     1
 71
     1
  0
GROUP
  5
24C02
102
{ACAD_REACTORS
330
D
102
}
330
D
100
AcDbGroup
300

 70
     1
 71
     1
  0
GROUP
  5
24AC0
102
{ACAD_REACTORS
330
D
102
}
330
D
100
AcDbGroup
300

 70
     1
 71
     1
  0
GROUP
  5
ACA2
102
{ACAD_REACTORS
330
D
102
}
330
D
100
AcDbGroup
300

 70
     1
 71
     1
  0
GROUP
  5
FB6C
102
{ACAD_REACTORS
330
D
102
}
330
D
100
AcDbGroup
300

 70
     1
 71
     1
  0
GROUP
  5
FBFF
102
{ACAD_REACTORS
330
D
102
}
330
D
100
AcDbGroup
300

 70
     1
 71
     1
  0
GROUP
  5
25FEA
102
{ACAD_REACTORS
330
D
102
}
330
D
100
AcDbGroup
300

 70
     1
 71
     1
  0
GROUP
  5
106C6
102
{ACAD_REACTORS
330
D
102
}
330
D
100
AcDbGroup
300

 70
     1
 71
     1
  0
GROUP
  5
25FEE
102
{ACAD_REACTORS
330
D
102
}
330
D
100
AcDbGroup
300

 70
     1
 71
     1
  0
GROUP
  5
106A5
102
{ACAD_REACTORS
330
D
102
}
330
D
100
AcDbGroup
300

 70
     1
 71
     1
  0
GROUP
  5
26680
102
{ACAD_REACTORS
330
D
102
}
330
D
100
AcDbGroup
300

 70
     1
 71
     1
340
26665
340
26662
340
26663
340
26664
340
26666
340
26667
340
26668
340
26669
340
2666A
340
2666B
340
2666C
340
2666D
340
2666E
340
2666F
340
26670
340
26671
340
26672
340
26673
340
26674
340
26675
340
26676
340
26677
340
26678
340
26679
340
2667A
340
2667B
340
2667C
340
2667D
340
2667E
340
2667F
  0
GROUP
  5
24CD8
102
{ACAD_REACTORS
330
D
102
}
330
D
100
AcDbGroup
300

 70
     1
 71
     1
  0
GROUP
  5
106B3
102
{ACAD_REACTORS
330
D
102
}
330
D
100
AcDbGroup
300

 70
     1
 71
     1
  0
GROUP
  5
26113
102
{ACAD_REACTORS
330
D
102
}
330
D
100
AcDbGroup
300

 70
     1
 71
     1
  0
GROUP
  5
25A31
102
{ACAD_REACTORS
330
D
102
}
330
D
100
AcDbGroup
300

 70
     1
 71
     1
  0
GROUP
  5
24108
102
{ACAD_REACTORS
330
D
102
}
330
D
100
AcDbGroup
300

 70
     1
 71
     1
  0
GROUP
  5
26019
102
{ACAD_REACTORS
330
D
102
}
330
D
100
AcDbGroup
300

 70
     1
 71
     1
  0
GROUP
  5
2644C
102
{ACAD_REACTORS
330
D
102
}
330
D
100
AcDbGroup
300

 70
     1
 71
     1
  0
GROUP
  5
26073
102
{ACAD_REACTORS
330
D
102
}
330
D
100
AcDbGroup
300

 70
     1
 71
     1
  0
GROUP
  5
ACBD
102
{ACAD_REACTORS
330
D
102
}
330
D
100
AcDbGroup
300

 70
     1
 71
     1
  0
GROUP
  5
26482
102
{ACAD_REACTORS
330
D
102
}
330
D
100
AcDbGroup
300

 70
     1
 71
     1
  0
GROUP
  5
24AC1
102
{ACAD_REACTORS
330
D
102
}
330
D
100
AcDbGroup
300

 70
     1
 71
     1
  0
GROUP
  5
FC9B
102
{ACAD_REACTORS
330
D
102
}
330
D
100
AcDbGroup
300

 70
     1
 71
     1
  0
GROUP
  5
26495
102
{ACAD_REACTORS
330
D
102
}
330
D
100
AcDbGroup
300

 70
     1
 71
     1
  0
GROUP
  5
23FA3
102
{ACAD_REACTORS
330
D
102
}
330
D
100
AcDbGroup
300

 70
     1
 71
     1
  0
GROUP
  5
ACA1
102
{ACAD_REACTORS
330
D
102
}
330
D
100
AcDbGroup
300

 70
     1
 71
     1
  0
GROUP
  5
264C5
102
{ACAD_REACTORS
330
D
102
}
330
D
100
AcDbGroup
300

 70
     1
 71
     1
  0
GROUP
  5
FC9A
102
{ACAD_REACTORS
330
D
102
}
330
D
100
AcDbGroup
300

 70
     1
 71
     1
  0
GROUP
  5
25FF2
102
{ACAD_REACTORS
330
D
102
}
330
D
100
AcDbGroup
300

 70
     1
 71
     1
  0
GROUP
  5
24024
102
{ACAD_REACTORS
330
D
102
}
330
D
100
AcDbGroup
300

 70
     1
 71
     1
  0
GROUP
  5
FC91
102
{ACAD_REACTORS
330
D
102
}
330
D
100
AcDbGroup
300

 70
     1
 71
     1
  0
GROUP
  5
25FF9
102
{ACAD_REACTORS
330
D
102
}
330
D
100
AcDbGroup
300

 70
     1
 71
     1
  0
GROUP
  5
24017
102
{ACAD_REACTORS
330
D
102
}
330
D
100
AcDbGroup
300

 70
     1
 71
     1
  0
GROUP
  5
24AFC
102
{ACAD_REACTORS
330
D
102
}
330
D
100
AcDbGroup
300

 70
     1
 71
     1
  0
GROUP
  5
266A1
102
{ACAD_REACTORS
330
D
102
}
330
D
100
AcDbGroup
300

 70
     1
 71
     1
  0
GROUP
  5
ACAB
102
{ACAD_REACTORS
330
D
102
}
330
D
100
AcDbGroup
300

 70
     1
 71
     1
  0
GROUP
  5
26470
102
{ACAD_REACTORS
330
D
102
}
330
D
100
AcDbGroup
300

 70
     1
 71
     1
  0
GROUP
  5
26055
102
{ACAD_REACTORS
330
D
102
}
330
D
100
AcDbGroup
300

 70
     1
 71
     1
  0
GROUP
  5
23FDE
102
{ACAD_REACTORS
330
D
102
}
330
D
100
AcDbGroup
300

 70
     1
 71
     1
  0
GROUP
  5
106C7
102
{ACAD_REACTORS
330
D
102
}
330
D
100
AcDbGroup
300

 70
     1
 71
     1
  0
GROUP
  5
264B5
102
{ACAD_REACTORS
330
D
102
}
330
D
100
AcDbGroup
300

 70
     1
 71
     1
  0
GROUP
  5
27976
102
{ACAD_REACTORS
330
D
102
}
330
D
100
AcDbGroup
300

 70
     1
 71
     1
  0
GROUP
  5
ACB4
102
{ACAD_REACTORS
330
D
102
}
330
D
100
AcDbGroup
300

 70
     1
 71
     1
  0
GROUP
  5
23FB3
102
{ACAD_REACTORS
330
D
102
}
330
D
100
AcDbGroup
300

 70
     1
 71
     1
  0
GROUP
  5
24D6A
102
{ACAD_REACTORS
330
D
102
}
330
D
100
AcDbGroup
300

 70
     1
 71
     1
  0
GROUP
  5
23FC0
102
{ACAD_REACTORS
330
D
102
}
330
D
100
AcDbGroup
300

 70
     1
 71
     1
  0
GROUP
  5
27DE3
102
{ACAD_REACTORS
330
D
102
}
330
D
100
AcDbGroup
300

 70
     1
 71
     1
340
278B3
340
278B2
340
278B1
340
278B0
340
278AF
340
278AE
340
278AD
340
278AC
  0
GROUP
  5
27DEC
102
{ACAD_REACTORS
330
D
102
}
330
D
100
AcDbGroup
300

 70
     1
 71
     1
340
27DE4
340
27DE5
340
27DE6
340
27DE7
340
27DE8
340
27DE9
340
27DEA
340
27DEB
  0
GROUP
  5
27DF5
102
{ACAD_REACTORS
330
D
102
}
330
D
100
AcDbGroup
300

 70
     1
 71
     1
340
27DED
340
27DEE
340
27DEF
340
27DF0
340
27DF1
340
27DF2
340
27DF3
340
27DF4
  0
GROUP
  5
27DFE
102
{ACAD_REACTORS
330
D
102
}
330
D
100
AcDbGroup
300

 70
     1
 71
     1
340
27DF6
340
27DF7
340
27DF8
340
27DF9
340
27DFA
340
27DFB
340
27DFC
340
27DFD
  0
GROUP
  5
27E07
102
{ACAD_REACTORS
330
D
102
}
330
D
100
AcDbGroup
300

 70
     1
 71
     1
340
27DFF
340
27E00
340
27E01
340
27E02
340
27E03
340
27E04
340
27E05
340
27E06
  0
GROUP
  5
27E08
102
{ACAD_REACTORS
330
D
102
}
330
D
100
AcDbGroup
300

 70
     1
 71
     1
  0
GROUP
  5
28BA4
102
{ACAD_REACTORS
330
D
102
}
330
D
100
AcDbGroup
300

 70
     1
 71
     1
  0
GROUP
  5
28BA5
102
{ACAD_REACTORS
330
D
102
}
330
D
100
AcDbGroup
300

 70
     1
 71
     1
  0
GROUP
  5
26661
102
{ACAD_REACTORS
330
D
102
}
330
D
100
AcDbGroup
300

 70
     1
 71
     1
340
2665C
340
26647
340
26646
340
26645
340
26644
340
2664A
340
26649
340
26648
340
26650
340
2664F
340
2664E
340
2664D
340
2664C
340
2664B
340
2665D
340
2665B
340
26656
340
26655
340
26654
340
26653
340
26652
340
26651
340
2665E
340
2665A
340
26659
340
26658
340
26657
340
26643
340
26660
340
2665F
  0
GROUP
  5
28BA6
102
{ACAD_REACTORS
330
D
102
}
330
D
100
AcDbGroup
300

 70
     1
 71
     1
  0
GROUP
  5
27E09
102
{ACAD_REACTORS
330
D
102
}
330
D
100
AcDbGroup
300

 70
     1
 71
     1
  0
GROUP
  5
27E0A
102
{ACAD_REACTORS
330
D
102
}
330
D
100
AcDbGroup
300

 70
     1
 71
     1
  0
GROUP
  5
2645E
102
{ACAD_REACTORS
330
D
102
}
330
D
100
AcDbGroup
300

 70
     1
 71
     1
  0
GROUP
  5
26112
102
{ACAD_REACTORS
330
D
102
}
330
D
100
AcDbGroup
300

 70
     1
 71
     1
  0
GROUP
  5
28F05
102
{ACAD_REACTORS
330
D
102
}
330
D
100
AcDbGroup
300

 70
     1
 71
     1
340
27094
340
2708C
340
2708B
340
27085
340
27095
340
2708F
340
2708E
340
2708D
340
2708A
340
27096
340
27092
340
27091
340
27090
340
27089
340
270A4
340
270A3
340
270A2
340
270A0
340
2709F
340
2709E
340
2709D
340
2709C
340
2709B
340
2709A
340
27099
340
27098
340
270A1
340
27097
340
27088
  0
GROUP
  5
27F09
102
{ACAD_REACTORS
330
D
102
}
330
D
100
AcDbGroup
300

 70
     1
 71
     1
  0
GROUP
  5
28F06
102
{ACAD_REACTORS
330
D
102
}
330
D
100
AcDbGroup
300

 70
     1
 71
     1
340
26FD7
340
26FD6
340
26FD5
340
26FD4
340
26FDC
340
26FDB
340
26FDA
340
26FD9
340
26FD8
340
26FD1
340
26FD0
340
26FE2
340
26FE1
340
26FE0
340
26FDF
340
26FDE
340
26FEE
340
26FED
340
26FEC
340
26FEB
340
26FEA
340
26FE9
340
26FE8
340
26FE7
340
26FE6
340
26FE5
340
26FE4
340
26FE3
340
26FEF
  0
GROUP
  5
27F0B
102
{ACAD_REACTORS
330
D
102
}
330
D
100
AcDbGroup
300

 70
     1
 71
     1
  0
GROUP
  5
27F0A
102
{ACAD_REACTORS
330
D
102
}
330
D
100
AcDbGroup
300

 70
     1
 71
     1
  0
GROUP
  5
27F50
102
{ACAD_REACTORS
330
D
102
}
330
D
100
AcDbGroup
300

 70
     1
 71
     1
340
27F30
340
27F31
340
27F32
340
27F33
340
27F34
340
27F35
340
27F36
340
27F37
340
27F38
340
27F39
340
27F3A
340
27F3B
340
27F3C
340
27F3D
340
27F3E
340
27F3F
340
27F40
340
27F41
340
27F42
340
27F43
340
27F44
340
27F45
340
27F46
340
27F47
340
27F48
340
27F49
340
27F4A
340
27F4B
340
27F4C
340
27F4D
340
27F4E
340
27F4F
  0
GROUP
  5
27F2F
102
{ACAD_REACTORS
330
D
102
}
330
D
100
AcDbGroup
300

 70
     1
 71
     1
340
27F0C
340
27F0D
340
27F0E
340
27F0F
340
27F10
340
27F11
340
27F12
340
27F13
340
27F14
340
27F15
340
27F16
340
27F17
340
27F18
340
27F19
340
27F1A
340
27F1B
340
27F1C
340
27F1D
340
27F1E
340
27F1F
340
27F20
340
27F21
340
27F22
340
27F23
340
27F24
340
27F25
340
27F26
340
27F27
340
27F28
340
27F29
340
27F2A
340
27F2B
340
27F2C
340
27F2D
340
27F2E
  0
GROUP
  5
27FBD
102
{ACAD_REACTORS
330
D
102
}
330
D
100
AcDbGroup
300

 70
     1
 71
     1
340
27FAF
340
27FB0
340
27FB1
340
27FB2
340
27FB3
340
27FB4
340
27FB5
340
27FB6
340
27FB7
340
27FB8
340
27FB9
340
27FBA
340
27FBB
340
27FBC
  0
MLINESTYLE
  5
1C
102
{ACAD_REACTORS
330
1B
102
}
330
1B
100
AcDbMlineStyle
  2
STANDARD
 70
     0
  3

 62
   256
 51
90.0
 52
90.0
 71
     2
 49
0.5
 62
   256
  6
BYLAYER
 49
-0.5
 62
   256
  6
BYLAYER
  0
ACDBPLACEHOLDER
  5
FB5C
102
{ACAD_REACTORS
330
FB5B
102
}
330
FB5B
100
AcDbPlaceHolder
280
     0
  0
XRECORD
  5
28F64
102
{ACAD_REACTORS
330
28F5A
102
}
330
28F5A
100
AcDbXrecord
 90
        0
  0
XRECORD
  5
28F68
102
{ACAD_REACTORS
330
28F5A
102
}
330
28F5A
100
AcDbXrecord
1000
DSTYLE
1002
{
1070
    79
 70
     2
1070
   179
 70
     2
1070
   341
340
1215D
1070
   342
340
1215D
1070
   371
 70
    13
1070
   372
 70
    13
1002
}
  0
XRECORD
  5
28F65
102
{ACAD_REACTORS
330
28F5A
102
}
330
28F5A
100
AcDbXrecord
  1
{D14EE3FF-941A-415A-9907-344E0A80D794}
  0
XRECORD
  5
28F5D
102
{ACAD_REACTORS
330
28F5A
102
}
330
28F5A
100
AcDbXrecord
  1

  0
XRECORD
  5
28F63
102
{ACAD_REACTORS
330
28F5A
102
}
330
28F5A
100
AcDbXrecord
 90
        0
  0
XRECORD
  5
28F5F
102
{ACAD_REACTORS
330
28F5A
102
}
330
28F5A
100
AcDbXrecord
340
DB2
  0
XRECORD
  5
28F62
102
{ACAD_REACTORS
330
28F5A
102
}
330
28F5A
100
AcDbXrecord
 90
    10269
  0
XRECORD
  5
28F60
102
{ACAD_REACTORS
330
28F5A
102
}
330
28F5A
100
AcDbXrecord
340
DB3
  0
XRECORD
  5
28F61
102
{ACAD_REACTORS
330
28F5A
102
}
330
28F5A
100
AcDbXrecord
340
FB5B
  0
XRECORD
  5
28F67
102
{ACAD_REACTORS
330
28F5A
102
}
330
28F5A
100
AcDbXrecord
 40
0.0
  0
XRECORD
  5
28F6B
102
{ACAD_REACTORS
330
28F5A
102
}
330
28F5A
100
AcDbXrecord
340
0
  0
XRECORD
  5
28F71
102
{ACAD_REACTORS
330
28F5A
102
}
330
28F5A
100
AcDbXrecord
 10
0.0
 20
0.0
 30
0.0
  0
XRECORD
  5
28F6D
102
{ACAD_REACTORS
330
28F5A
102
}
330
28F5A
100
AcDbXrecord
 10
0.0
 20
0.0
 30
0.0
  0
XRECORD
  5
28F70
102
{ACAD_REACTORS
330
28F5A
102
}
330
28F5A
100
AcDbXrecord
 10
0.0
 20
0.0
 30
0.0
  0
XRECORD
  5
28F6E
102
{ACAD_REACTORS
330
28F5A
102
}
330
28F5A
100
AcDbXrecord
 10
0.0
 20
0.0
 30
0.0
  0
XRECORD
  5
28F6F
102
{ACAD_REACTORS
330
28F5A
102
}
330
28F5A
100
AcDbXrecord
 10
0.0
 20
0.0
 30
0.0
  0
XRECORD
  5
28F6C
102
{ACAD_REACTORS
330
28F5A
102
}
330
28F5A
100
AcDbXrecord
 10
0.0
 20
0.0
 30
0.0
  0
XRECORD
  5
28F69
102
{ACAD_REACTORS
330
28F5A
102
}
330
28F5A
100
AcDbXrecord
340
0
  0
XRECORD
  5
28F6A
102
{ACAD_REACTORS
330
28F5A
102
}
330
28F5A
100
AcDbXrecord
 70
     0
  0
XRECORD
  5
28F5E
102
{ACAD_REACTORS
330
28F5A
102
}
330
28F5A
100
AcDbXrecord
  1

  0
XRECORD
  5
28F5B
102
{ACAD_REACTORS
330
28F5A
102
}
330
28F5A
100
AcDbXrecord
 90
        1
  0
XRECORD
  5
28F5C
102
{ACAD_REACTORS
330
28F5A
102
}
330
28F5A
100
AcDbXrecord
 90
       70
  0
XRECORD
  5
28F74
102
{ACAD_REACTORS
330
28F5A
102
}
330
28F5A
100
AcDbXrecord
340
0
  0
XRECORD
  5
28F7A
102
{ACAD_REACTORS
330
28F5A
102
}
330
28F5A
100
AcDbXrecord
 10
0.0
 20
0.0
 30
0.0
  0
XRECORD
  5
28F76
102
{ACAD_REACTORS
330
28F5A
102
}
330
28F5A
100
AcDbXrecord
 10
0.0
 20
0.0
 30
0.0
  0
XRECORD
  5
28F79
102
{ACAD_REACTORS
330
28F5A
102
}
330
28F5A
100
AcDbXrecord
 10
0.0
 20
0.0
 30
0.0
  0
XRECORD
  5
28F77
102
{ACAD_REACTORS
330
28F5A
102
}
330
28F5A
100
AcDbXrecord
 10
0.0
 20
0.0
 30
0.0
  0
XRECORD
  5
28F78
102
{ACAD_REACTORS
330
28F5A
102
}
330
28F5A
100
AcDbXrecord
 10
0.0
 20
0.0
 30
0.0
  0
XRECORD
  5
28F75
102
{ACAD_REACTORS
330
28F5A
102
}
330
28F5A
100
AcDbXrecord
 10
0.0
 20
0.0
 30
0.0
  0
XRECORD
  5
28F72
102
{ACAD_REACTORS
330
28F5A
102
}
330
28F5A
100
AcDbXrecord
340
0
  0
XRECORD
  5
28F73
102
{ACAD_REACTORS
330
28F5A
102
}
330
28F5A
100
AcDbXrecord
 70
     0
  0
XRECORD
  5
28F66
102
{ACAD_REACTORS
330
28F5A
102
}
330
28F5A
100
AcDbXrecord
  1
{A7A6C183-1167-4B61-A350-0A0345B90A56}
  0
DICTIONARYVAR
  5
106A7
102
{ACAD_REACTORS
330
106A6
102
}
330
106A6
100
DictionaryVariables
280
     0
  1
96
  0
XRECORD
  5
284B9
102
{ACAD_REACTORS
330
284B8
102
}
330
284B8
100
AcDbXrecord
  1
0
  1
*0
  1
*
  1
*
 70
     0
  1
*
  1
*
  0
XRECORD
  5
284BA
102
{ACAD_REACTORS
330
284B8
102
}
330
284B8
100
AcDbXrecord
  1
11
  1
*11
  1
*
  1
*
 70
     0
  1
*
  1
*
  0
XRECORD
  5
284BB
102
{ACAD_REACTORS
330
284B8
102
}
330
284B8
100
AcDbXrecord
  1
150_
  1
150_*
  1
*
  1
*
 70
     0
  1
*
  1
*
  0
XRECORD
  5
284BC
102
{ACAD_REACTORS
330
284B8
102
}
330
284B8
100
AcDbXrecord
  1
160_
  1
160_*
  1
*
  1
*
 70
     0
  1
*
  1
*
  0
XRECORD
  5
284BD
102
{ACAD_REACTORS
330
284B8
102
}
330
284B8
100
AcDbXrecord
  1
170_
  1
170_*
  1
*
  1
*
 70
     0
  1
*
  1
*
  0
XRECORD
  5
284BE
102
{ACAD_REACTORS
330
284B8
102
}
330
284B8
100
AcDbXrecord
  1
171_
  1
171_*
  1
*
  1
*
 70
     0
  1
*
  1
*
  0
XRECORD
  5
284BF
102
{ACAD_REACTORS
330
284B8
102
}
330
284B8
100
AcDbXrecord
  1
350_
  1
350_*
  1
*
  1
*
 70
     0
  1
*
  1
*
  0
XRECORD
  5
284C0
102
{ACAD_REACTORS
330
284B8
102
}
330
284B8
100
AcDbXrecord
  1
4
  1
*4
  1
*
  1
*
 70
     0
  1
*
  1
*
  0
XRECORD
  5
284C1
102
{ACAD_REACTORS
330
284B8
102
}
330
284B8
100
AcDbXrecord
  1
5
  1
*5
  1
*
  1
*
 70
     0
  1
*
  1
*
  0
XRECORD
  5
284C2
102
{ACAD_REACTORS
330
284B8
102
}
330
284B8
100
AcDbXrecord
  1
7
  1
*7
  1
*
  1
*
 70
     0
  1
*
  1
*
  0
XRECORD
  5
284C3
102
{ACAD_REACTORS
330
284B8
102
}
330
284B8
100
AcDbXrecord
  1
kiseki
  1
kiseki*
  1
*
  1
*
 70
     0
  1
*
  1
*
  0
ENDSEC
  0
EOF
