  0
SECTION
  2
HEADER
  9
$ACADVER
  1
AC1014
  9
$ACADMAINTVER
 70
     9
  9
$DWGCODEPAGE
  3
ANSI_932
  9
$INSBASE
 10
0.0
 20
0.0
 30
0.0
  9
$EXTMIN
 10
54.64946250883213
 20
137.4910635207061
 30
0.0
  9
$EXTMAX
 10
835.1656820581927
 20
529.1288445894764
 30
0.0
  9
$LIMMIN
 10
0.0
 20
0.0
  9
$LIMMAX
 10
420.0
 20
297.0
  9
$ORTHOMODE
 70
     1
  9
$REGENMODE
 70
     1
  9
$FILLMODE
 70
     1
  9
$QTEXTMODE
 70
     0
  9
$MIRRTEXT
 70
     0
  9
$DRAGMODE
 70
     2
  9
$LTSCALE
 40
20.0
  9
$OSMODE
 70
    37
  9
$ATTMODE
 70
     1
  9
$TEXTSIZE
 40
2.5
  9
$TRACEWID
 40
1.0
  9
$TEXTSTYLE
  7
STANDARD
  9
$CLAYER
  8
DIMENSION
  9
$CELTYPE
  6
BYLAYER
  9
$CECOLOR
 62
   256
  9
$CELTSCALE
 40
1.0
  9
$DELOBJ
 70
     1
  9
$DISPSILH
 70
     0
  9
$DIMSCALE
 40
2.5
  9
$DIMASZ
 40
2.0
  9
$DIMEXO
 40
0.75
  9
$DIMDLI
 40
5.0
  9
$DIMRND
 40
0.0005
  9
$DIMDLE
 40
0.0
  9
$DIMEXE
 40
1.0
  9
$DIMTP
 40
0.0
  9
$DIMTM
 40
0.000000001
  9
$DIMTXT
 40
3.2
  9
$DIMCEN
 40
0.0
  9
$DIMTSZ
 40
0.0
  9
$DIMTOL
 70
     0
  9
$DIMLIM
 70
     0
  9
$DIMTIH
 70
     0
  9
$DIMTOH
 70
     0
  9
$DIMSE1
 70
     0
  9
$DIMSE2
 70
     0
  9
$DIMTAD
 70
     1
  9
$DIMZIN
 70
     9
  9
$DIMBLK
  1
OPEN30
  9
$DIMASO
 70
     1
  9
$DIMSHO
 70
     1
  9
$DIMPOST
  1

  9
$DIMAPOST
  1

  9
$DIMALT
 70
     0
  9
$DIMALTD
 70
     4
  9
$DIMALTF
 40
0.0394
  9
$DIMLFAC
 40
1.0
  9
$DIMTOFL
 70
     1
  9
$DIMTVP
 40
0.0
  9
$DIMTIX
 70
     0
  9
$DIMSOXD
 70
     0
  9
$DIMSAH
 70
     0
  9
$DIMBLK1
  1

  9
$DIMBLK2
  1

  9
$DIMSTYLE
  2
STANDARD
  9
$DIMCLRD
 70
     4
  9
$DIMCLRE
 70
     4
  9
$DIMCLRT
 70
     2
  9
$DIMTFAC
 40
1.0
  9
$DIMGAP
 40
0.75
  9
$DIMJUST
 70
     0
  9
$DIMSD1
 70
     0
  9
$DIMSD2
 70
     0
  9
$DIMTOLJ
 70
     1
  9
$DIMTZIN
 70
     9
  9
$DIMALTZ
 70
     0
  9
$DIMALTTZ
 70
     0
  9
$DIMFIT
 70
     3
  9
$DIMUPT
 70
     0
  9
$DIMUNIT
 70
     2
  9
$DIMDEC
 70
     2
  9
$DIMTDEC
 70
     2
  9
$DIMALTU
 70
     8
  9
$DIMALTTD
 70
     4
  9
$DIMTXSTY
  7
STANDARD
  9
$DIMAUNIT
 70
     0
  9
$LUNITS
 70
     2
  9
$LUPREC
 70
     4
  9
$SKETCHINC
 40
1.0
  9
$FILLETRAD
 40
0.0
  9
$AUNITS
 70
     0
  9
$AUPREC
 70
     0
  9
$MENU
  1
.
  9
$ELEVATION
 40
0.0
  9
$PELEVATION
 40
0.0
  9
$THICKNESS
 40
0.0
  9
$LIMCHECK
 70
     0
  9
$BLIPMODE
 70
     0
  9
$CHAMFERA
 40
0.5
  9
$CHAMFERB
 40
0.5
  9
$CHAMFERC
 40
20.0
  9
$CHAMFERD
 40
0.0
  9
$SKPOLY
 70
     0
  9
$TDCREATE
 40
2451224.660162384
  9
$TDUPDATE
 40
2455573.781650752
  9
$TDINDWG
 40
14.7421553588
  9
$TDUSRTIMER
 40
14.7421544560
  9
$USRTIMER
 70
     1
  9
$ANGBASE
 50
0.0
  9
$ANGDIR
 70
     0
  9
$PDMODE
 70
     0
  9
$PDSIZE
 40
0.0
  9
$PLINEWID
 40
0.0
  9
$COORDS
 70
     0
  9
$SPLFRAME
 70
     0
  9
$SPLINETYPE
 70
     6
  9
$SPLINESEGS
 70
     8
  9
$ATTDIA
 70
     0
  9
$ATTREQ
 70
     1
  9
$HANDLING
 70
-16383
  9
$HANDSEED
  5
1AB39
  9
$SURFTAB1
 70
     6
  9
$SURFTAB2
 70
     6
  9
$SURFTYPE
 70
     6
  9
$SURFU
 70
     6
  9
$SURFV
 70
     6
  9
$UCSNAME
  2

  9
$UCSORG
 10
0.0
 20
0.0
 30
0.0
  9
$UCSXDIR
 10
1.0
 20
0.0
 30
0.0
  9
$UCSYDIR
 10
0.0
 20
1.0
 30
0.0
  9
$PUCSNAME
  2

  9
$PUCSORG
 10
0.0
 20
0.0
 30
0.0
  9
$PUCSXDIR
 10
1.0
 20
0.0
 30
0.0
  9
$PUCSYDIR
 10
0.0
 20
1.0
 30
0.0
  9
$USERI1
 70
     0
  9
$USERI2
 70
     0
  9
$USERI3
 70
     0
  9
$USERI4
 70
     0
  9
$USERI5
 70
     0
  9
$USERR1
 40
0.0
  9
$USERR2
 40
0.0
  9
$USERR3
 40
0.0
  9
$USERR4
 40
0.0
  9
$USERR5
 40
0.0
  9
$WORLDVIEW
 70
     1
  9
$SHADEDGE
 70
     3
  9
$SHADEDIF
 70
    70
  9
$TILEMODE
 70
     0
  9
$MAXACTVP
 70
    48
  9
$PINSBASE
 10
0.0
 20
0.0
 30
0.0
  9
$PLIMCHECK
 70
     0
  9
$PEXTMIN
 10
0.0
 20
0.0
 30
0.0
  9
$PEXTMAX
 10
400.0
 20
288.0
 30
0.0
  9
$PLIMMIN
 10
-8.539740011032982
 20
-8.538605468622101
  9
$PLIMMAX
 10
422.8876715010872
 20
296.5483548954498
  9
$UNITMODE
 70
     0
  9
$VISRETAIN
 70
     1
  9
$PLINEGEN
 70
     0
  9
$PSLTSCALE
 70
     0
  9
$TREEDEPTH
 70
  3020
  9
$PICKSTYLE
 70
     0
  9
$CMLSTYLE
  2
STANDARD
  9
$CMLJUST
 70
     0
  9
$CMLSCALE
 40
20.0
  9
$PROXYGRAPHICS
 70
     1
  9
$MEASUREMENT
 70
     0
  0
ENDSEC
  0
SECTION
  2
CLASSES
  0
CLASS
  1
HATCH
  2
AcDbHatch
  3
AutoCAD 2000
 90
        0
280
     0
281
     1
  0
CLASS
  1
LWPOLYLINE
  2
AcDbPolyline
  3
AutoCAD 2000
 90
        0
280
     0
281
     1
  0
CLASS
  1
ACDBDICTIONARYWDFLT
  2
AcDbDictionaryWithDefault
  3
AutoCAD 2000
 90
        0
280
     0
281
     0
  0
CLASS
  1
ACDBPLACEHOLDER
  2
AcDbPlaceHolder
  3
AutoCAD 2000
 90
        0
280
     0
281
     0
  0
CLASS
  1
LAYOUT
  2
AcDbLayout
  3
AutoCAD 2000
 90
        0
280
     0
281
     0
  0
CLASS
  1
LONG_TRANSACTION
  2
AcDbLongTransaction
  3
AutoCAD 2000
 90
        0
280
     0
281
     0
  0
CLASS
  1
LWPOLYLINE
  2
AcDbPolyline
  3
AutoCAD 2000
 90
        0
280
     0
281
     1
  0
CLASS
  1
HATCH
  2
AcDbHatch
  3
AutoCAD 2000
 90
        0
280
     0
281
     1
  0
CLASS
  1
XRECORD
  2
AcDbXrecord
  3
AutoCAD 2000
 90
        0
280
     0
281
     0
  0
CLASS
  1
DICTIONARYVAR
  2
AcDbDictionaryVar
  3
AutoCAD 2000
 90
        0
280
     0
281
     0
  0
CLASS
  1
LONG_TRANSACTION
  2
AcDbLongTransaction
  3
AutoCAD 2000
 90
        0
280
     0
281
     0
  0
CLASS
  1
LWPOLYLINE
  2
AcDbPolyline
  3
AutoCAD 2000
 90
        0
280
     0
281
     1
  0
CLASS
  1
HATCH
  2
AcDbHatch
  3
AutoCAD 2000
 90
        0
280
     0
281
     1
  0
CLASS
  1
XRECORD
  2
AcDbXrecord
  3
AutoCAD 2000
 90
        0
280
     0
281
     0
  0
CLASS
  1
LONG_TRANSACTION
  2
AcDbLongTransaction
  3
AutoCAD 2000
 90
        0
280
     0
281
     0
  0
CLASS
  1
LWPOLYLINE
  2
AcDbPolyline
  3
AutoCAD 2000
 90
        0
280
     0
281
     1
  0
CLASS
  1
HATCH
  2
AcDbHatch
  3
AutoCAD 2000
 90
        0
280
     0
281
     1
  0
CLASS
  1
XRECORD
  2
AcDbXrecord
  3
AutoCAD 2000
 90
        0
280
     0
281
     0
  0
ENDSEC
  0
SECTION
  2
TABLES
  0
TABLE
  2
VPORT
  5
8
330
0
100
AcDbSymbolTable
 70
     4
  0
VPORT
  5
1AACF
330
8
100
AcDbSymbolTableRecord
100
AcDbViewportTableRecord
  2
*ACTIVE
 70
     0
 10
0.0
 20
0.0
 11
1.0
 21
1.0
 12
444.8990020357021
 22
333.3133877131828
 13
0.0
 23
0.0
 14
10.0
 24
10.0
 15
10.0
 25
10.0
 16
0.0
 26
0.0
 36
1.0
 17
0.0
 27
0.0
 37
0.0
 40
513.4253502578381
 41
1.527918781725888
 42
50.0
 43
0.0
 44
0.0
 50
0.0
 51
0.0
 71
     0
 72
   100
 73
     1
 74
     0
 75
     0
 76
     0
 77
     0
 78
     0
  0
ENDTAB
  0
TABLE
  2
LTYPE
  5
5
330
0
100
AcDbSymbolTable
 70
     7
  0
LTYPE
  5
12
330
5
100
AcDbSymbolTableRecord
100
AcDbLinetypeTableRecord
  2
BYBLOCK
 70
     0
  3

 72
    65
 73
     0
 40
0.0
  0
LTYPE
  5
13
330
5
100
AcDbSymbolTableRecord
100
AcDbLinetypeTableRecord
  2
BYLAYER
 70
     0
  3

 72
    65
 73
     0
 40
0.0
  0
LTYPE
  5
14
330
5
100
AcDbSymbolTableRecord
100
AcDbLinetypeTableRecord
  2
CONTINUOUS
 70
     0
  3
Solid line
 72
    65
 73
     0
 40
0.0
  0
LTYPE
  5
126C
330
5
100
AcDbSymbolTableRecord
100
AcDbLinetypeTableRecord
  2
CENTER
 70
     0
  3
____ _ ____ _ ____ _ ____ _ ____ _ ____ _ ____
 72
    65
 73
     4
 40
2.0
 49
1.25
 74
     0
 49
-0.25
 74
     0
 49
0.25
 74
     0
 49
-0.25
 74
     0
  0
LTYPE
  5
126E
330
5
100
AcDbSymbolTableRecord
100
AcDbLinetypeTableRecord
  2
DASHDOT
 70
     0
  3
__ . __ . __ . __ . __ . __ . __ . __ . __ . __
 72
    65
 73
     4
 40
1.0
 49
0.5
 74
     0
 49
-0.25
 74
     0
 49
0.0
 74
     0
 49
-0.25
 74
     0
  0
LTYPE
  5
15420
330
5
100
AcDbSymbolTableRecord
100
AcDbLinetypeTableRecord
  2
CENTER2
 70
     0
  3
Center (.5x) ___ _ ___ _ ___ _ ___ _ ___ _ ___
 72
    65
 73
     4
 40
1.125
 49
0.75
 74
     0
 49
-0.125
 74
     0
 49
0.125
 74
     0
 49
-0.125
 74
     0
  0
LTYPE
  5
15421
330
5
100
AcDbSymbolTableRecord
100
AcDbLinetypeTableRecord
  2
PHANTOM2
 70
     0
  3
Phantom (.5x) ___ _ _ ___ _ _ ___ _ _ ___ _ _
 72
    65
 73
     6
 40
1.25
 49
0.625
 74
     0
 49
-0.125
 74
     0
 49
0.125
 74
     0
 49
-0.125
 74
     0
 49
0.125
 74
     0
 49
-0.125
 74
     0
  0
LTYPE
  5
17303
330
5
100
AcDbSymbolTableRecord
100
AcDbLinetypeTableRecord
  2
HIDDEN2
 70
     0
  3
Hidden (.5x) _ _ _ _ _ _ _ _ _ _ _ _ _ _ _ _ _
 72
    65
 73
     2
 40
0.1875
 49
0.125
 74
     0
 49
-0.0625
 74
     0
  0
LTYPE
  5
19BD9
330
5
100
AcDbSymbolTableRecord
100
AcDbLinetypeTableRecord
  2
PHANTOM
 70
     0
  3
Phantom ______  __  __  ______  __  __  ______
 72
    65
 73
     6
 40
2.5
 49
1.25
 74
     0
 49
-0.25
 74
     0
 49
0.25
 74
     0
 49
-0.25
 74
     0
 49
0.25
 74
     0
 49
-0.25
 74
     0
  0
ENDTAB
  0
TABLE
  2
LAYER
  5
2
102
{ACAD_XDICTIONARY
360
1A5FF
102
}
330
0
100
AcDbSymbolTable
 70
    17
  0
LAYER
  5
E
330
2
100
AcDbSymbolTableRecord
100
AcDbLayerTableRecord
  2
0
 70
     2
 62
     7
  6
CONTINUOUS
  0
LAYER
  5
2C
330
2
100
AcDbSymbolTableRecord
100
AcDbLayerTableRecord
  2
M_VIEW
 70
     4
 62
    -1
  6
CONTINUOUS
  0
LAYER
  5
30
330
2
100
AcDbSymbolTableRecord
100
AcDbLayerTableRecord
  2
FRAME025
 70
     0
 62
     7
  6
CONTINUOUS
  0
LAYER
  5
12B
330
2
100
AcDbSymbolTableRecord
100
AcDbLayerTableRecord
  2
DEFPOINTS
 70
     4
 62
    -7
  6
CONTINUOUS
  0
LAYER
  5
651
330
2
100
AcDbSymbolTableRecord
100
AcDbLayerTableRecord
  2
FRAME020
 70
     0
 62
     7
  6
CONTINUOUS
  0
LAYER
  5
1271
330
2
100
AcDbSymbolTableRecord
100
AcDbLayerTableRecord
  2
A
 70
     0
 62
     7
  6
CONTINUOUS
  0
LAYER
  5
A9BB
330
2
100
AcDbSymbolTableRecord
100
AcDbLayerTableRecord
  2
文字
 70
     0
 62
     7
  6
CONTINUOUS
  0
LAYER
  5
122DE
330
2
100
AcDbSymbolTableRecord
100
AcDbLayerTableRecord
  2
DIMENSION
 70
     0
 62
     7
  6
CONTINUOUS
  0
LAYER
  5
15422
330
2
100
AcDbSymbolTableRecord
100
AcDbLayerTableRecord
  2
細線
 70
     0
 62
     7
  6
CONTINUOUS
  0
LAYER
  5
15423
330
2
100
AcDbSymbolTableRecord
100
AcDbLayerTableRecord
  2
CENTER
 70
     0
 62
     7
  6
CENTER
  0
LAYER
  5
15425
330
2
100
AcDbSymbolTableRecord
100
AcDbLayerTableRecord
  2
中心線
 70
     0
 62
     7
  6
CENTER2
  0
LAYER
  5
15426
330
2
100
AcDbSymbolTableRecord
100
AcDbLayerTableRecord
  2
仮想線
 70
     0
 62
     7
  6
PHANTOM2
  0
LAYER
  5
17304
330
2
100
AcDbSymbolTableRecord
100
AcDbLayerTableRecord
  2
破線
 70
     0
 62
     7
  6
HIDDEN2
  0
LAYER
  5
19526
330
2
100
AcDbSymbolTableRecord
100
AcDbLayerTableRecord
  2
ｷｬｯﾌ_ﾎ_ﾙﾄ
 70
     0
 62
     7
  6
CONTINUOUS
  0
LAYER
  5
19BDA
330
2
100
AcDbSymbolTableRecord
100
AcDbLayerTableRecord
  2
２点鎖線
 70
     0
 62
     7
  6
PHANTOM
  0
ENDTAB
  0
TABLE
  2
STYLE
  5
3
330
0
100
AcDbSymbolTable
 70
     4
  0
STYLE
  5
F
330
3
100
AcDbSymbolTableRecord
100
AcDbTextStyleTableRecord
  2
STANDARD
 70
     0
 40
0.0
 41
1.0
 50
0.0
 71
     0
 42
2.5
  3
isocp.shx
  4
bigfont.shx
  0
STYLE
  5
35
330
3
100
AcDbSymbolTableRecord
100
AcDbTextStyleTableRecord
  2
MSｺ_ｼｯｸ
 70
     0
 40
0.0
 41
1.0
 50
0.0
 71
     0
 42
5.0
  3
MS Gothic.ttf
  4

1001
ACAD
1000
MS Gothic
1071
    32817
  0
STYLE
  5
1275
330
3
100
AcDbSymbolTableRecord
100
AcDbTextStyleTableRecord
  2
BIGFONT
 70
     0
 40
2.0
 41
1.0
 50
0.0
 71
     0
 42
2.0
  3
txt.shx
  4
bigfont.shx
  0
ENDTAB
  0
TABLE
  2
VIEW
  5
6
330
0
100
AcDbSymbolTable
 70
     0
  0
ENDTAB
  0
TABLE
  2
UCS
  5
7
330
0
100
AcDbSymbolTable
 70
     0
  0
ENDTAB
  0
TABLE
  2
APPID
  5
9
330
0
100
AcDbSymbolTable
 70
     3
  0
APPID
  5
10
330
9
100
AcDbSymbolTableRecord
100
AcDbRegAppTableRecord
  2
ACAD
 70
     0
  0
APPID
  5
F013
330
9
100
AcDbSymbolTableRecord
100
AcDbRegAppTableRecord
  2
CONTENTBLOCKDESCRIPTION
 70
     0
  0
APPID
  5
F014
330
9
100
AcDbSymbolTableRecord
100
AcDbRegAppTableRecord
  2
CONTENTBLOCKICON
 70
     0
  0
ENDTAB
  0
TABLE
  2
DIMSTYLE
  5
A
330
0
100
AcDbSymbolTable
 70
     3
  0
DIMSTYLE
105
1D
330
A
100
AcDbSymbolTableRecord
100
AcDbDimStyleTableRecord
  2
STANDARD
 70
     0
  3

  4

  5

  6

  7

 40
1.0
 41
0.18
 42
0.0625
 43
0.38
 44
0.18
 45
0.0
 46
0.0
 47
0.0
 48
0.0
140
0.18
141
0.09
142
0.0
143
25.4
144
1.0
145
0.0
146
1.0
147
0.09
 71
     0
 72
     0
 73
     1
 74
     1
 75
     0
 76
     0
 77
     0
 78
     0
170
     0
171
     2
172
     0
173
     0
174
     0
175
     0
176
     0
177
     0
178
     0
270
     2
271
     4
272
     4
273
     2
274
     2
340
F
275
     0
280
     0
281
     0
282
     0
283
     1
284
     0
285
     0
286
     0
287
     3
288
     0
  0
ENDTAB
  0
TABLE
  2
BLOCK_RECORD
  5
1
330
0
100
AcDbSymbolTable
 70
    41
  0
BLOCK_RECORD
  5
18
102
{ACAD_XDICTIONARY
360
EFC6
102
}
330
1
100
AcDbSymbolTableRecord
100
AcDbBlockTableRecord
  2
*MODEL_SPACE
  0
BLOCK_RECORD
  5
15
102
{ACAD_XDICTIONARY
360
EFC4
102
}
330
1
100
AcDbSymbolTableRecord
100
AcDbBlockTableRecord
  2
*PAPER_SPACE
  0
BLOCK_RECORD
  5
115C
330
1
100
AcDbSymbolTableRecord
100
AcDbBlockTableRecord
  2
機械A4横_LBP
  0
BLOCK_RECORD
  5
1215D
330
1
100
AcDbSymbolTableRecord
100
AcDbBlockTableRecord
  2
_OPEN30
  0
BLOCK_RECORD
  5
1A8B5
330
1
100
AcDbSymbolTableRecord
100
AcDbBlockTableRecord
  2
*U37
  0
BLOCK_RECORD
  5
1A8C9
330
1
100
AcDbSymbolTableRecord
100
AcDbBlockTableRecord
  2
*U38
  0
BLOCK_RECORD
  5
1A961
330
1
100
AcDbSymbolTableRecord
100
AcDbBlockTableRecord
  2
*U39
  0
ENDTAB
  0
ENDSEC
  0
SECTION
  2
BLOCKS
  0
BLOCK
  5
19
330
18
100
AcDbEntity
  8
0
100
AcDbBlockBegin
  2
*MODEL_SPACE
 70
     0
 10
0.0
 20
0.0
 30
0.0
  3
*MODEL_SPACE
  1

  0
ENDBLK
  5
1A
330
18
100
AcDbEntity
  8
0
100
AcDbBlockEnd
  0
BLOCK
  5
16
330
15
100
AcDbEntity
 67
     1
  8
0
100
AcDbBlockBegin
  2
*PAPER_SPACE
 70
     0
 10
0.0
 20
0.0
 30
0.0
  3
*PAPER_SPACE
  1

  0
ENDBLK
  5
17
330
15
100
AcDbEntity
 67
     1
  8
0
100
AcDbBlockEnd
  0
BLOCK
  5
115D
330
115C
100
AcDbEntity
  8
0
100
AcDbBlockBegin
  2
機械A4横_LBP
 70
     0
 10
0.0
 20
0.0
 30
0.0
  3
機械A4横_LBP
  1

  0
ENDBLK
  5
115E
330
115C
100
AcDbEntity
  8
0
100
AcDbBlockEnd
  0
BLOCK
  5
12161
330
1215D
100
AcDbEntity
  8
0
100
AcDbBlockBegin
  2
_OPEN30
 70
     0
 10
0.0
 20
0.0
 30
0.0
  3
_OPEN30
  1

  0
LINE
  5
1215E
330
1215D
100
AcDbEntity
  8
0
  6
BYBLOCK
 62
     0
100
AcDbLine
 10
-1.0
 20
0.26794919
 30
0.0
 11
0.0
 21
0.0
 31
0.0
  0
LINE
  5
1215F
330
1215D
100
AcDbEntity
  8
0
  6
BYBLOCK
 62
     0
100
AcDbLine
 10
0.0
 20
0.0
 30
0.0
 11
-1.0
 21
-0.26794919
 31
0.0
  0
LINE
  5
12160
330
1215D
100
AcDbEntity
  8
0
  6
BYBLOCK
 62
     0
100
AcDbLine
 10
0.0
 20
0.0
 30
0.0
 11
-1.0
 21
0.0
 31
0.0
  0
ENDBLK
  5
12162
330
1215D
100
AcDbEntity
  8
0
100
AcDbBlockEnd
  0
BLOCK
  5
1A8BA
330
1A8B5
100
AcDbEntity
  8
0
100
AcDbBlockBegin
  2
*U37
 70
     1
 10
0.0
 20
0.0
 30
0.0
  3
*U37
  1

  0
SOLID
  5
1A8B6
330
1A8B5
100
AcDbEntity
  8
0
  6
CONTINUOUS
100
AcDbTrace
 10
-729.2487167271596
 20
276.8528031146093
 30
0.0
 11
-731.7487167271592
 21
276.852802899702
 31
0.0
 12
-729.9809496222307
 22
275.0850360986979
 32
0.0
 13
-729.9809496222307
 23
275.0850360986979
 33
0.0
210
0.0
220
0.0
230
-1.0
  0
SOLID
  5
1A8B7
330
1A8B5
100
AcDbEntity
  8
0
  6
CONTINUOUS
100
AcDbTrace
 10
-731.748716512252
 20
274.3528028997014
 30
0.0
 11
-729.9809496222307
 21
275.0850360986979
 31
0.0
 12
-731.7487167271592
 22
276.852802899702
 32
0.0
 13
-731.7487167271592
 23
276.852802899702
 33
0.0
210
0.0
220
0.0
230
-1.0
  0
SOLID
  5
1A8B8
330
1A8B5
100
AcDbEntity
  8
0
  6
CONTINUOUS
100
AcDbTrace
 10
-731.7487167271597
 20
276.8528028997014
 30
0.0
 11
-731.7487169420672
 21
279.3528028997016
 31
0.0
 12
-734.2487167271597
 22
276.8528026847943
 32
0.0
 13
-734.2487167271597
 23
276.8528026847943
 33
0.0
210
0.0
220
0.0
230
-1.0
  0
SOLID
  5
1A8B9
330
1A8B5
100
AcDbEntity
  8
0
  6
CONTINUOUS
100
AcDbTrace
 10
-733.5164838320886
 20
278.6205697007055
 30
0.0
 11
-734.2487167271597
 21
276.8528026847943
 31
0.0
 12
-731.7487169420672
 22
279.3528028997016
 32
0.0
 13
-731.7487169420672
 23
279.3528028997016
 33
0.0
210
0.0
220
0.0
230
-1.0
  0
ENDBLK
  5
1A8BB
330
1A8B5
100
AcDbEntity
  8
0
100
AcDbBlockEnd
  0
BLOCK
  5
1A8CE
330
1A8C9
100
AcDbEntity
  8
0
100
AcDbBlockBegin
  2
*U38
 70
     1
 10
0.0
 20
0.0
 30
0.0
  3
*U38
  1

  0
SOLID
  5
1A8CA
330
1A8C9
100
AcDbEntity
  8
0
  6
CONTINUOUS
100
AcDbTrace
 10
729.2396516748683
 20
388.8528027536689
 30
0.0
 11
731.7396516748686
 21
388.852802538761
 31
0.0
 12
729.9718848738647
 22
390.6205696436903
 32
0.0
 13
729.9718848738647
 23
390.6205696436903
 33
0.0
  0
SOLID
  5
1A8CB
330
1A8C9
100
AcDbEntity
  8
0
  6
CONTINUOUS
100
AcDbTrace
 10
731.7396518897761
 20
391.3528025387613
 30
0.0
 11
729.9718848738647
 21
390.6205696436903
 31
0.0
 12
731.7396516748686
 22
388.852802538761
 32
0.0
 13
731.7396516748686
 23
388.852802538761
 33
0.0
  0
SOLID
  5
1A8CC
330
1A8C9
100
AcDbEntity
  8
0
  6
CONTINUOUS
100
AcDbTrace
 10
731.7396516748689
 20
388.8528025387612
 30
0.0
 11
731.7396514599607
 21
386.3528025387612
 31
0.0
 12
734.2396516748683
 22
388.8528023238535
 32
0.0
 13
734.2396516748683
 23
388.8528023238535
 33
0.0
  0
SOLID
  5
1A8CD
330
1A8C9
100
AcDbEntity
  8
0
  6
CONTINUOUS
100
AcDbTrace
 10
733.5074184758719
 20
387.0850354338321
 30
0.0
 11
734.2396516748683
 21
388.8528023238535
 31
0.0
 12
731.7396514599607
 22
386.3528025387612
 32
0.0
 13
731.7396514599607
 23
386.3528025387612
 33
0.0
  0
ENDBLK
  5
1A8CF
330
1A8C9
100
AcDbEntity
  8
0
100
AcDbBlockEnd
  0
BLOCK
  5
1A966
330
1A961
100
AcDbEntity
  8
0
100
AcDbBlockBegin
  2
*U39
 70
     1
 10
0.0
 20
0.0
 30
0.0
  3
*U39
  1

  0
SOLID
  5
1A962
330
1A961
100
AcDbEntity
  8
0
  6
CONTINUOUS
100
AcDbTrace
 10
-778.7372201802047
 20
302.8400094749595
 30
0.0
 11
-779.9872203663198
 21
305.0050728769666
 31
0.0
 12
-780.6342677714917
 22
302.5902582556216
 32
0.0
 13
-780.6342677714917
 23
302.5902582556216
 33
0.0
210
0.0
220
0.0
230
-1.0
  0
SOLID
  5
1A963
330
1A961
100
AcDbEntity
  8
0
  6
CONTINUOUS
100
AcDbTrace
 10
-782.1522837683275
 20
303.7550726908513
 30
0.0
 11
-780.6342677714917
 21
302.5902582556216
 31
0.0
 12
-779.9872203663198
 22
305.0050728769666
 32
0.0
 13
-779.9872203663198
 23
305.0050728769666
 33
0.0
210
0.0
220
0.0
230
-1.0
  0
SOLID
  5
1A964
330
1A961
100
AcDbEntity
  8
0
  6
CONTINUOUS
100
AcDbTrace
 10
-779.9872203663205
 20
305.0050728769666
 30
0.0
 11
-777.8221569643131
 21
306.2550730630823
 31
0.0
 12
-781.2372205524352
 22
307.1701362789744
 32
0.0
 13
-781.2372205524352
 23
307.1701362789744
 33
0.0
210
0.0
220
0.0
230
-1.0
  0
SOLID
  5
1A965
330
1A961
100
AcDbEntity
  8
0
  6
CONTINUOUS
100
AcDbTrace
 10
-779.3401729611487
 20
307.4198874983117
 30
0.0
 11
-781.2372205524352
 21
307.1701362789744
 31
0.0
 12
-777.8221569643131
 22
306.2550730630823
 32
0.0
 13
-777.8221569643131
 23
306.2550730630823
 33
0.0
210
0.0
220
0.0
230
-1.0
  0
ENDBLK
  5
1A967
330
1A961
100
AcDbEntity
  8
0
100
AcDbBlockEnd
  0
ENDSEC
  0
SECTION
  2
ENTITIES
  0
INSERT
  5
1160
330
18
100
AcDbEntity
  8
FRAME025
100
AcDbBlockReference
  2
機械A4横_LBP
 10
66.00059629174575
 20
114.4379043572399
 30
0.0
  0
MTEXT
  5
1405
330
18
100
AcDbEntity
  8
0
  6
DASHDOT
100
AcDbMText
 10
163.682726410024
 20
430.5785054452221
 30
0.0
 40
1.0
 41
2.0
 71
     1
 72
     5
  1

  7
BIGFONT
1001
ACAD
1000
MTEXTBEGIN
1070
    73
1070
     1
1070
    44
1040
1.0
1070
    74
1070
     0
1000
MTEXTEND
1000
MTEXTBEGIN
1070
    73
1070
     1
1070
    44
1040
1.0
1070
    74
1070
     0
1000
MTEXTEND
1000
MTEXTBEGIN
1070
    73
1070
     1
1070
    44
1040
1.0
1070
    74
1070
     0
1000
MTEXTEND
  0
MTEXT
  5
1406
330
18
100
AcDbEntity
  8
0
  6
CENTER
100
AcDbMText
 10
401.3606673541956
 20
323.7890106174461
 30
0.0
 40
2.0
 41
15.6417
 71
     1
 72
     5
  1

  7
BIGFONT
1001
ACAD
1000
MTEXTBEGIN
1070
    73
1070
     1
1070
    44
1040
1.0
1070
    74
1070
     0
1000
MTEXTEND
1000
MTEXTBEGIN
1070
    73
1070
     1
1070
    44
1040
1.0
1070
    74
1070
     0
1000
MTEXTEND
1000
MTEXTBEGIN
1070
    73
1070
     1
1070
    44
1040
1.0
1070
    74
1070
     0
1000
MTEXTEND
  0
MTEXT
  5
1407
330
18
100
AcDbEntity
  8
0
100
AcDbMText
 10
75.77239017043272
 20
222.8564838730205
 30
0.0
 40
2.0
 41
0.0
 71
     1
 72
     5
  1

1001
ACAD
1000
MTEXTBEGIN
1070
    73
1070
     1
1070
    44
1040
1.0
1070
    74
1070
     0
1000
MTEXTEND
1000
MTEXTBEGIN
1070
    73
1070
     1
1070
    44
1040
1.0
1070
    74
1070
     0
1000
MTEXTEND
1000
MTEXTBEGIN
1070
    73
1070
     1
1070
    44
1040
1.0
1070
    74
1070
     0
1000
MTEXTEND
  0
MTEXT
  5
1408
330
18
100
AcDbEntity
  8
0
100
AcDbMText
 10
120.1718819235825
 20
254.48796746601
 30
0.0
 40
2.0
 41
10.1453
 71
     1
 72
     5
  1

 11
-0.0000000000000002
 21
-1.0
 31
0.0
1001
ACAD
1000
MTEXTBEGIN
1070
    73
1070
     1
1070
    44
1040
1.0
1070
    74
1070
     0
1000
MTEXTEND
1000
MTEXTBEGIN
1070
    73
1070
     1
1070
    44
1040
1.0
1070
    74
1070
     0
1000
MTEXTEND
1000
MTEXTBEGIN
1070
    73
1070
     1
1070
    44
1040
1.0
1070
    74
1070
     0
1000
MTEXTEND
  0
MTEXT
  5
142F
330
18
100
AcDbEntity
  8
0
  6
BYBLOCK
100
AcDbMText
 10
155.9513799082503
 20
329.2674780082993
 30
0.0
 40
2.0
 41
0.0
 71
     7
 72
     5
  1

 11
0.0000000000000001
 21
1.0
 31
0.0
1001
ACAD
1000
MTEXTBEGIN
1070
    73
1070
     1
1070
    44
1040
1.0
1070
    74
1070
     0
1000
MTEXTEND
1000
MTEXTBEGIN
1070
    73
1070
     1
1070
    44
1040
1.0
1070
    74
1070
     0
1000
MTEXTEND
1000
MTEXTBEGIN
1070
    73
1070
     1
1070
    44
1040
1.0
1070
    74
1070
     0
1000
MTEXTEND
  0
MTEXT
  5
1430
330
18
100
AcDbEntity
  8
0
  6
BYBLOCK
100
AcDbMText
 10
120.4859915450975
 20
340.0607863667167
 30
0.0
 40
2.0
 41
0.0
 71
     4
 72
     5
  1

 11
-0.0000000000000002
 21
-1.0
 31
0.0
1001
ACAD
1000
MTEXTBEGIN
1070
    73
1070
     1
1070
    44
1040
1.0
1070
    74
1070
     0
1000
MTEXTEND
1000
MTEXTBEGIN
1070
    73
1070
     1
1070
    44
1040
1.0
1070
    74
1070
     0
1000
MTEXTEND
1000
MTEXTBEGIN
1070
    73
1070
     1
1070
    44
1040
1.0
1070
    74
1070
     0
1000
MTEXTEND
  0
MTEXT
  5
1532
330
18
100
AcDbEntity
  8
0
  6
DASHDOT
100
AcDbMText
 10
163.6828134149741
 20
430.5785054452221
 30
0.0
 40
1.0
 41
2.0
 71
     1
 72
     5
  1

  7
BIGFONT
1001
ACAD
1000
MTEXTBEGIN
1070
    73
1070
     1
1070
    44
1040
1.0
1070
    74
1070
     0
1000
MTEXTEND
1000
MTEXTBEGIN
1070
    73
1070
     1
1070
    44
1040
1.0
1070
    74
1070
     0
1000
MTEXTEND
1000
MTEXTBEGIN
1070
    73
1070
     1
1070
    44
1040
1.0
1070
    74
1070
     0
1000
MTEXTEND
  0
MTEXT
  5
1533
330
18
100
AcDbEntity
  8
0
  6
CENTER
100
AcDbMText
 10
401.360754359146
 20
323.7890106174461
 30
0.0
 40
2.0
 41
15.6417
 71
     1
 72
     5
  1

  7
BIGFONT
1001
ACAD
1000
MTEXTBEGIN
1070
    73
1070
     1
1070
    44
1040
1.0
1070
    74
1070
     0
1000
MTEXTEND
1000
MTEXTBEGIN
1070
    73
1070
     1
1070
    44
1040
1.0
1070
    74
1070
     0
1000
MTEXTEND
1000
MTEXTBEGIN
1070
    73
1070
     1
1070
    44
1040
1.0
1070
    74
1070
     0
1000
MTEXTEND
  0
MTEXT
  5
1534
330
18
100
AcDbEntity
  8
0
100
AcDbMText
 10
75.77247717538298
 20
222.8564838730205
 30
0.0
 40
2.0
 41
0.0
 71
     1
 72
     5
  1

1001
ACAD
1000
MTEXTBEGIN
1070
    73
1070
     1
1070
    44
1040
1.0
1070
    74
1070
     0
1000
MTEXTEND
1000
MTEXTBEGIN
1070
    73
1070
     1
1070
    44
1040
1.0
1070
    74
1070
     0
1000
MTEXTEND
1000
MTEXTBEGIN
1070
    73
1070
     1
1070
    44
1040
1.0
1070
    74
1070
     0
1000
MTEXTEND
  0
MTEXT
  5
1535
330
18
100
AcDbEntity
  8
0
100
AcDbMText
 10
120.1719689285329
 20
254.48796746601
 30
0.0
 40
2.0
 41
10.1453
 71
     1
 72
     5
  1

 11
-0.0000000000000002
 21
-1.0
 31
0.0
1001
ACAD
1000
MTEXTBEGIN
1070
    73
1070
     1
1070
    44
1040
1.0
1070
    74
1070
     0
1000
MTEXTEND
1000
MTEXTBEGIN
1070
    73
1070
     1
1070
    44
1040
1.0
1070
    74
1070
     0
1000
MTEXTEND
1000
MTEXTBEGIN
1070
    73
1070
     1
1070
    44
1040
1.0
1070
    74
1070
     0
1000
MTEXTEND
  0
MTEXT
  5
155C
330
18
100
AcDbEntity
  8
0
  6
BYBLOCK
100
AcDbMText
 10
155.9514669132003
 20
329.2674780082993
 30
0.0
 40
2.0
 41
0.0
 71
     7
 72
     5
  1

 11
0.0000000000000001
 21
1.0
 31
0.0
1001
ACAD
1000
MTEXTBEGIN
1070
    73
1070
     1
1070
    44
1040
1.0
1070
    74
1070
     0
1000
MTEXTEND
1000
MTEXTBEGIN
1070
    73
1070
     1
1070
    44
1040
1.0
1070
    74
1070
     0
1000
MTEXTEND
1000
MTEXTBEGIN
1070
    73
1070
     1
1070
    44
1040
1.0
1070
    74
1070
     0
1000
MTEXTEND
  0
MTEXT
  5
155D
330
18
100
AcDbEntity
  8
0
  6
BYBLOCK
100
AcDbMText
 10
120.4860785500478
 20
340.0607863667167
 30
0.0
 40
2.0
 41
0.0
 71
     4
 72
     5
  1

 11
-0.0000000000000002
 21
-1.0
 31
0.0
1001
ACAD
1000
MTEXTBEGIN
1070
    73
1070
     1
1070
    44
1040
1.0
1070
    74
1070
     0
1000
MTEXTEND
1000
MTEXTBEGIN
1070
    73
1070
     1
1070
    44
1040
1.0
1070
    74
1070
     0
1000
MTEXTEND
1000
MTEXTBEGIN
1070
    73
1070
     1
1070
    44
1040
1.0
1070
    74
1070
     0
1000
MTEXTEND
  0
TEXT
  5
2279
330
18
100
AcDbEntity
  8
A
100
AcDbText
 10
-37.81881037320381
 20
322.0637567728283
 30
0.0
 40
3.524999999999999
  1
�    
100
AcDbText
  0
TEXT
  5
2283
330
18
100
AcDbEntity
  8
A
100
AcDbText
 10
-185.7439103235753
 20
-107.9032633455339
 30
0.0
 40
2.5
  1

 41
0.5
  7
MSｺ_ｼｯｸ
100
AcDbText
  0
TEXT
  5
2293
330
18
100
AcDbEntity
  8
A
100
AcDbText
 10
-177.9189103235753
 20
-107.9032633455339
 30
0.0
 40
2.5
  1

  7
MSｺ_ｼｯｸ
100
AcDbText
  0
LINE
  5
15869
330
18
100
AcDbEntity
  8
0
100
AcDbLine
 10
407.3462774292408
 20
459.8527994879971
 30
0.0
 11
407.8462774292407
 21
459.8527994879971
 31
0.0
  0
LINE
  5
1586A
330
18
100
AcDbEntity
  8
破線
100
AcDbLine
 10
405.0462775466618
 20
300.3527994879971
 30
0.0
 11
460.0462774292407
 21
300.3527994879971
 31
0.0
  0
LINE
  5
1586B
330
18
100
AcDbEntity
  8
破線
100
AcDbLine
 10
405.0462775466618
 20
365.3527994879973
 30
0.0
 11
460.0462774292407
 21
365.3527994879965
 31
0.0
  0
LINE
  5
1586C
330
18
100
AcDbEntity
  8
0
100
AcDbLine
 10
408.3462774292405
 20
205.8527994879971
 30
0.0
 11
426.2462774292407
 21
205.8527994879971
 31
0.0
  0
LINE
  5
15870
330
18
100
AcDbEntity
  8
中心線
100
AcDbLine
 10
368.7294434169793
 20
332.8527994879971
 30
0.0
 11
473.5985532034708
 21
332.8527994879971
 31
0.0
  0
LINE
  5
15873
330
18
100
AcDbEntity
  8
0
100
AcDbLine
 10
407.3462774292407
 20
205.8527994879975
 30
0.0
 11
407.3462774292408
 21
459.8527994879971
 31
0.0
  0
LINE
  5
15874
330
18
100
AcDbEntity
  8
0
100
AcDbLine
 10
407.8462774292405
 20
205.8527994879975
 30
0.0
 11
407.8462774292407
 21
459.8527994879971
 31
0.0
  0
LINE
  5
15875
330
18
100
AcDbEntity
  8
0
100
AcDbLine
 10
406.046277546658
 20
240.3527994879969
 30
0.0
 11
406.0462775466596
 21
425.3527994879972
 31
0.0
  0
LINE
  5
15876
330
18
100
AcDbEntity
  8
0
100
AcDbLine
 10
403.0462775466618
 20
252.3527994879973
 30
0.0
 11
403.0462775466618
 21
413.3527994879956
 31
0.0
  0
LINE
  5
15967
330
18
100
AcDbEntity
  8
0
100
AcDbLine
 10
406.046277546658
 20
240.3527994879969
 30
0.0
 11
407.3462774292407
 21
240.3527994879969
 31
0.0
  0
LINE
  5
15968
330
18
100
AcDbEntity
  8
0
100
AcDbLine
 10
403.5462775466621
 20
251.8527994879971
 30
0.0
 11
406.046277546658
 21
251.8527994879971
 31
0.0
  0
LINE
  5
1596A
330
18
100
AcDbEntity
  8
0
100
AcDbLine
 10
403.5462775466621
 20
251.8527994879971
 30
0.0
 11
403.0462775466621
 21
252.352799487997
 31
0.0
  0
LINE
  5
15A78
330
18
100
AcDbEntity
  8
0
100
AcDbLine
 10
403.5462775466635
 20
413.8527994879972
 30
0.0
 11
406.0462775466596
 21
413.8527994879972
 31
0.0
  0
LINE
  5
15A7A
330
18
100
AcDbEntity
  8
0
100
AcDbLine
 10
403.5462775466635
 20
413.8527994879972
 30
0.0
 11
403.0462775466635
 21
413.3527994879972
 31
0.0
  0
LINE
  5
15A7C
330
18
100
AcDbEntity
  8
0
100
AcDbLine
 10
406.0462775466596
 20
425.3527994879972
 30
0.0
 11
407.3462774292408
 21
425.3527994879973
 31
0.0
  0
LINE
  5
15AA7
330
18
100
AcDbEntity
  8
0
100
AcDbLine
 10
463.0462774292393
 20
410.3524994879956
 30
0.0
 11
463.0462774292395
 21
255.353099487996
 31
0.0
  0
LINE
  5
15AA9
330
18
100
AcDbEntity
  8
0
100
AcDbLine
 10
460.0462774292407
 20
206.3527994879966
 30
0.0
 11
460.0462774292408
 21
459.3527994879975
 31
0.0
  0
LINE
  5
15AF1
330
18
100
AcDbEntity
  8
0
100
AcDbLine
 10
460.0462774292407
 20
206.3527994879966
 30
0.0
 11
459.5462774292407
 21
205.8527994879966
 31
0.0
  0
LINE
  5
15B1A
330
18
100
AcDbEntity
  8
0
100
AcDbLine
 10
462.5462774292393
 20
254.853099487996
 30
0.0
 11
460.0462774292408
 21
254.853099487996
 31
0.0
  0
LINE
  5
15B1B
330
18
100
AcDbEntity
  8
0
100
AcDbLine
 10
476.5462774292408
 20
287.3527994879971
 30
0.0
 11
481.0462774292409
 21
282.0813709165694
 31
0.0
  0
ARC
  5
15B1C
330
18
100
AcDbEntity
  8
0
100
AcDbCircle
 10
468.5724809116718
 20
287.0517146745871
 30
0.0
 40
9.015903847971632
100
AcDbArc
 50
332.1795611441597
 51
354.4603666814933
  0
LINE
  5
15B1D
330
18
100
AcDbEntity
  8
0
100
AcDbLine
 10
476.5462774292408
 20
266.3527994879971
 30
0.0
 11
481.0462774292409
 21
271.624228059425
 31
0.0
  0
ARC
  5
15B1E
330
18
100
AcDbEntity
  8
0
100
AcDbCircle
 10
468.5724809116718
 20
266.6538843014071
 30
0.0
 40
9.015903847971632
100
AcDbArc
 50
5.539633318506646
 51
27.82043885584017
  0
LINE
  5
15B20
330
18
100
AcDbEntity
  8
0
100
AcDbLine
 10
477.5462774292408
 20
286.1813709165683
 30
0.0
 11
477.5462774292413
 21
267.5242280594257
 31
0.0
  0
LINE
  5
15B21
330
18
100
AcDbEntity
  8
0
100
AcDbLine
 10
465.5462774292413
 20
287.3527994879971
 30
0.0
 11
465.5462774292413
 21
266.3527994879971
 31
0.0
  0
LINE
  5
15B22
330
18
100
AcDbEntity
  8
0
100
AcDbLine
 10
470.5462774292413
 20
287.3527994879971
 30
0.0
 11
470.5462774292413
 21
266.3527994879971
 31
0.0
  0
LINE
  5
15B23
330
18
100
AcDbEntity
  8
0
100
AcDbLine
 10
467.5462774292411
 20
286.3527994879971
 30
0.0
 11
467.5462774292411
 21
267.3527994879971
 31
0.0
  0
LINE
  5
15B24
330
18
100
AcDbEntity
  8
0
100
AcDbLine
 10
467.5462774292411
 20
267.3527994879971
 30
0.0
 11
470.5462774292413
 21
267.3527994879971
 31
0.0
  0
LINE
  5
15B25
330
18
100
AcDbEntity
  8
0
100
AcDbLine
 10
465.5462774292413
 20
269.4527994879964
 30
0.0
 11
467.5462774292411
 21
269.4527994879964
 31
0.0
  0
LINE
  5
15B26
330
18
100
AcDbEntity
  8
0
100
AcDbLine
 10
463.0462774292407
 20
266.3527994879971
 30
0.0
 11
465.5462774292413
 21
266.3527994879971
 31
0.0
  0
LINE
  5
15B27
330
18
100
AcDbEntity
  8
0
100
AcDbLine
 10
470.5462774292413
 20
266.3527994879971
 30
0.0
 11
476.5462774292408
 21
266.3527994879971
 31
0.0
  0
ARC
  5
15B28
330
18
100
AcDbEntity
  8
0
100
AcDbCircle
 10
467.046277429241
 20
276.8527994879971
 30
0.0
 40
10.50000000000042
100
AcDbArc
 50
334.7912347032388
 51
25.20876529676096
  0
LINE
  5
15B29
330
18
100
AcDbEntity
  8
0
100
AcDbLine
 10
465.5462774292413
 20
270.8616261295454
 30
0.0
 11
463.0462774292407
 21
270.8616261295454
 31
0.0
  0
LINE
  5
15B2A
330
18
100
AcDbEntity
  8
0
100
AcDbLine
 10
465.5462774292413
 20
272.3806635329978
 30
0.0
 11
463.0462774292407
 21
272.3806635329978
 31
0.0
  0
LINE
  5
15B2B
330
18
100
AcDbEntity
  8
0
100
AcDbLine
 10
476.546277429241
 20
272.3806635329978
 30
0.0
 11
476.546277429241
 21
270.8616261295454
 31
0.0
  0
LINE
  5
15B2C
330
18
100
AcDbEntity
  8
0
100
AcDbLine
 10
476.546277429241
 20
272.3806635329978
 30
0.0
 11
470.5462774292413
 21
272.3806635329978
 31
0.0
  0
LINE
  5
15B2D
330
18
100
AcDbEntity
  8
0
100
AcDbLine
 10
476.546277429241
 20
270.8616261295454
 30
0.0
 11
470.5462774292413
 21
270.8616261295454
 31
0.0
  0
LINE
  5
15B2E
330
18
100
AcDbEntity
  8
0
100
AcDbLine
 10
467.5462774292411
 20
286.3527994879971
 30
0.0
 11
470.5462774292413
 21
286.3527994879971
 31
0.0
  0
LINE
  5
15B2F
330
18
100
AcDbEntity
  8
0
100
AcDbLine
 10
463.0462774292407
 20
281.324935442997
 30
0.0
 11
465.5462774292413
 21
281.324935442997
 31
0.0
  0
LINE
  5
15B30
330
18
100
AcDbEntity
  8
0
100
AcDbLine
 10
463.0462774292407
 20
282.8439728464493
 30
0.0
 11
465.5462774292413
 21
282.8439728464493
 31
0.0
  0
LINE
  5
15B31
330
18
100
AcDbEntity
  8
0
100
AcDbLine
 10
465.5462774292413
 20
284.2527994879968
 30
0.0
 11
467.5462774292411
 21
284.2527994879968
 31
0.0
  0
LINE
  5
15B32
330
18
100
AcDbEntity
  8
0
100
AcDbLine
 10
463.0462774292407
 20
287.3527994879971
 30
0.0
 11
465.5462774292413
 21
287.3527994879971
 31
0.0
  0
LINE
  5
15B33
330
18
100
AcDbEntity
  8
0
100
AcDbLine
 10
476.546277429241
 20
282.8439728464493
 30
0.0
 11
476.546277429241
 21
281.324935442997
 31
0.0
  0
LINE
  5
15B34
330
18
100
AcDbEntity
  8
0
100
AcDbLine
 10
470.5462774292413
 20
281.324935442997
 30
0.0
 11
476.546277429241
 21
281.324935442997
 31
0.0
  0
LINE
  5
15B35
330
18
100
AcDbEntity
  8
0
100
AcDbLine
 10
470.5462774292413
 20
282.8439728464493
 30
0.0
 11
476.546277429241
 21
282.8439728464493
 31
0.0
  0
LINE
  5
15B36
330
18
100
AcDbEntity
  8
0
100
AcDbLine
 10
470.5462774292413
 20
287.3527994879971
 30
0.0
 11
476.546277429241
 21
287.3527994879971
 31
0.0
  0
LINE
  5
15B39
330
18
100
AcDbEntity
  8
0
100
AcDbLine
 10
481.0462774292409
 20
282.0813709165694
 30
0.0
 11
481.0462774292409
 21
271.624228059425
 31
0.0
  0
ARC
  5
15BA1
330
18
100
AcDbEntity
  8
0
100
AcDbCircle
 10
467.046277429242
 20
388.8527994879972
 30
0.0
 40
10.50000000000042
100
AcDbArc
 50
334.7912347032388
 51
25.20876529676096
  0
LINE
  5
15BA2
330
18
100
AcDbEntity
  8
0
100
AcDbLine
 10
481.0462774292417
 20
383.6242280594245
 30
0.0
 11
481.0462774292422
 21
394.0813709165689
 31
0.0
  0
LINE
  5
15BA3
330
18
100
AcDbEntity
  8
0
100
AcDbLine
 10
470.5462774292417
 20
378.3527994879972
 30
0.0
 11
470.5462774292421
 21
399.3527994879972
 31
0.0
  0
LINE
  5
15BA4
330
18
100
AcDbEntity
  8
0
100
AcDbLine
 10
477.5462774292417
 20
379.5242280594261
 30
0.0
 11
477.5462774292422
 21
398.1813709165685
 31
0.0
  0
LINE
  5
15BA5
330
18
100
AcDbEntity
  8
0
100
AcDbLine
 10
467.5462774292417
 20
379.3527994879973
 30
0.0
 11
467.5462774292419
 21
398.3527994879973
 31
0.0
  0
LINE
  5
15BA6
330
18
100
AcDbEntity
  8
0
100
AcDbLine
 10
465.5462774292417
 20
378.3527994879972
 30
0.0
 11
465.5462774292422
 21
399.3527994879972
 31
0.0
  0
ARC
  5
15BAA
330
18
100
AcDbEntity
  8
0
100
AcDbCircle
 10
468.5724809116723
 20
378.6538843014071
 30
0.0
 40
9.015903847971632
100
AcDbArc
 50
5.539633318506646
 51
27.82043885584017
  0
LINE
  5
15BAB
330
18
100
AcDbEntity
  8
0
100
AcDbLine
 10
476.546277429241
 20
378.3527994879972
 30
0.0
 11
481.0462774292417
 21
383.6242280594245
 31
0.0
  0
LINE
  5
15BAF
330
18
100
AcDbEntity
  8
0
100
AcDbLine
 10
463.0462774292407
 20
378.3527994879972
 30
0.0
 11
465.5462774292417
 21
378.3527994879972
 31
0.0
  0
LINE
  5
15BB0
330
18
100
AcDbEntity
  8
0
100
AcDbLine
 10
470.5462774292417
 20
378.3527994879972
 30
0.0
 11
476.5462774292417
 21
378.3527994879972
 31
0.0
  0
LINE
  5
15BB1
330
18
100
AcDbEntity
  8
0
100
AcDbLine
 10
467.5462774292417
 20
379.3527994879973
 30
0.0
 11
470.5462774292417
 21
379.3527994879973
 31
0.0
  0
LINE
  5
15BB2
330
18
100
AcDbEntity
  8
0
100
AcDbLine
 10
463.0462774292407
 20
384.3806635329972
 30
0.0
 11
465.5462774292417
 21
384.3806635329972
 31
0.0
  0
LINE
  5
15BB3
330
18
100
AcDbEntity
  8
0
100
AcDbLine
 10
465.5462774292417
 20
381.4527994879976
 30
0.0
 11
467.5462774292417
 21
381.4527994879976
 31
0.0
  0
LINE
  5
15BB4
330
18
100
AcDbEntity
  8
0
100
AcDbLine
 10
463.0462774292407
 20
382.8616261295451
 30
0.0
 11
465.5462774292417
 21
382.8616261295451
 31
0.0
  0
LINE
  5
15BB5
330
18
100
AcDbEntity
  8
0
100
AcDbLine
 10
476.5462774292417
 20
382.8616261295446
 30
0.0
 11
476.5462774292417
 21
384.3806635329972
 31
0.0
  0
LINE
  5
15BB6
330
18
100
AcDbEntity
  8
0
100
AcDbLine
 10
470.5462774292417
 20
382.8616261295451
 30
0.0
 11
476.5462774292417
 21
382.8616261295446
 31
0.0
  0
LINE
  5
15BB7
330
18
100
AcDbEntity
  8
0
100
AcDbLine
 10
470.5462774292417
 20
384.3806635329972
 30
0.0
 11
476.5462774292417
 21
384.3806635329972
 31
0.0
  0
ARC
  5
15BBB
330
18
100
AcDbEntity
  8
0
100
AcDbCircle
 10
468.5724809116726
 20
399.0517146745874
 30
0.0
 40
9.015903847971632
100
AcDbArc
 50
332.1795611441597
 51
354.4603666814933
  0
LINE
  5
15BBC
330
18
100
AcDbEntity
  8
0
100
AcDbLine
 10
476.5462774292417
 20
399.3527994879972
 30
0.0
 11
481.0462774292422
 21
394.0813709165689
 31
0.0
  0
LINE
  5
15BBD
330
18
100
AcDbEntity
  8
0
100
AcDbLine
 10
467.5462774292419
 20
398.3527994879973
 30
0.0
 11
470.5462774292421
 21
398.3527994879973
 31
0.0
  0
LINE
  5
15BBE
330
18
100
AcDbEntity
  8
0
100
AcDbLine
 10
465.5462774292422
 20
396.2527994879978
 30
0.0
 11
467.5462774292419
 21
396.2527994879978
 31
0.0
  0
LINE
  5
15BBF
330
18
100
AcDbEntity
  8
0
100
AcDbLine
 10
465.5462774292422
 20
394.843972846449
 30
0.0
 11
463.0462774292407
 21
394.843972846449
 31
0.0
  0
LINE
  5
15BC0
330
18
100
AcDbEntity
  8
0
100
AcDbLine
 10
465.5462774292422
 20
393.3249354429968
 30
0.0
 11
463.0462774292407
 21
393.3249354429968
 31
0.0
  0
LINE
  5
15BC1
330
18
100
AcDbEntity
  8
0
100
AcDbLine
 10
476.5462774292422
 20
393.3249354429968
 30
0.0
 11
476.5462774292422
 21
394.843972846449
 31
0.0
  0
LINE
  5
15BC2
330
18
100
AcDbEntity
  8
0
100
AcDbLine
 10
476.5462774292422
 20
394.843972846449
 30
0.0
 11
470.5462774292421
 21
394.843972846449
 31
0.0
  0
LINE
  5
15BC3
330
18
100
AcDbEntity
  8
0
100
AcDbLine
 10
476.5462774292422
 20
393.3249354429968
 30
0.0
 11
470.5462774292421
 21
393.3249354429968
 31
0.0
  0
LINE
  5
15BC4
330
18
100
AcDbEntity
  8
0
100
AcDbLine
 10
463.0462774292407
 20
399.3527994879972
 30
0.0
 11
465.5462774292422
 21
399.3527994879972
 31
0.0
  0
LINE
  5
15BC5
330
18
100
AcDbEntity
  8
0
100
AcDbLine
 10
470.5462774292421
 20
399.3527994879972
 30
0.0
 11
476.5462774292417
 21
399.3527994879972
 31
0.0
  0
LINE
  5
15BC6
330
18
100
AcDbEntity
  8
0
100
AcDbLine
 10
462.5462774292393
 20
410.8524994879956
 30
0.0
 11
460.046277429241
 21
410.8524994879956
 31
0.0
  0
LINE
  5
15BCB
330
18
100
AcDbEntity
  8
0
100
AcDbLine
 10
460.0462774292408
 20
459.3527994879964
 30
0.0
 11
459.5462774292407
 21
459.8527994879963
 31
0.0
  0
LINE
  5
16B87
330
18
100
AcDbEntity
  8
0
100
AcDbLine
 10
462.5462774292393
 20
254.853099487996
 30
0.0
 11
463.0462774292395
 21
255.353099487996
 31
0.0
  0
LINE
  5
16B88
330
18
100
AcDbEntity
  8
0
100
AcDbLine
 10
462.5462774292393
 20
410.8524994879956
 30
0.0
 11
463.0462774292393
 21
410.3524994879956
 31
0.0
  0
TEXT
  5
17C7B
330
18
100
AcDbEntity
  8
A
100
AcDbText
 10
44.01850172702464
 20
644.310732626116
 30
0.0
 40
2.5
  1

  7
MSｺ_ｼｯｸ
100
AcDbText
  0
TEXT
  5
17C7C
330
18
100
AcDbEntity
  8
A
100
AcDbText
 10
36.19350172702461
 20
644.310732626116
 30
0.0
 40
2.5
  1

 41
0.5
  7
MSｺ_ｼｯｸ
100
AcDbText
  0
TEXT
  5
17C7D
330
18
100
AcDbEntity
  8
A
100
AcDbText
 10
184.1186016773961
 20
1074.277752744478
 30
0.0
 40
3.524999999999999
  1
�    
100
AcDbText
  0
MTEXT
  5
17C7E
330
18
100
AcDbEntity
  8
0
  6
BYBLOCK
100
AcDbMText
 10
342.4234906006477
 20
1092.274782338366
 30
0.0
 40
2.0
 41
0.0
 71
     4
 72
     5
  1

 11
-0.0000000000000002
 21
-1.0
 31
0.0
1001
ACAD
1000
MTEXTBEGIN
1070
    73
1070
     1
1070
    44
1040
1.0
1070
    74
1070
     0
1000
MTEXTEND
1000
MTEXTBEGIN
1070
    73
1070
     1
1070
    44
1040
1.0
1070
    74
1070
     0
1000
MTEXTEND
1000
MTEXTBEGIN
1070
    73
1070
     1
1070
    44
1040
1.0
1070
    74
1070
     0
1000
MTEXTEND
  0
MTEXT
  5
17C7F
330
18
100
AcDbEntity
  8
0
  6
BYBLOCK
100
AcDbMText
 10
377.8888789638005
 20
1081.481473979948
 30
0.0
 40
2.0
 41
0.0
 71
     7
 72
     5
  1

 11
0.0000000000000001
 21
1.0
 31
0.0
1001
ACAD
1000
MTEXTBEGIN
1070
    73
1070
     1
1070
    44
1040
1.0
1070
    74
1070
     0
1000
MTEXTEND
1000
MTEXTBEGIN
1070
    73
1070
     1
1070
    44
1040
1.0
1070
    74
1070
     0
1000
MTEXTEND
1000
MTEXTBEGIN
1070
    73
1070
     1
1070
    44
1040
1.0
1070
    74
1070
     0
1000
MTEXTEND
  0
MTEXT
  5
17C80
330
18
100
AcDbEntity
  8
0
100
AcDbMText
 10
342.1093809791329
 20
1006.701963437659
 30
0.0
 40
2.0
 41
10.1453
 71
     1
 72
     5
  1

 11
-0.0000000000000002
 21
-1.0
 31
0.0
1001
ACAD
1000
MTEXTBEGIN
1070
    73
1070
     1
1070
    44
1040
1.0
1070
    74
1070
     0
1000
MTEXTEND
1000
MTEXTBEGIN
1070
    73
1070
     1
1070
    44
1040
1.0
1070
    74
1070
     0
1000
MTEXTEND
1000
MTEXTBEGIN
1070
    73
1070
     1
1070
    44
1040
1.0
1070
    74
1070
     0
1000
MTEXTEND
  0
MTEXT
  5
17C81
330
18
100
AcDbEntity
  8
0
100
AcDbMText
 10
297.7098892259828
 20
975.0704798446705
 30
0.0
 40
2.0
 41
0.0
 71
     1
 72
     5
  1

1001
ACAD
1000
MTEXTBEGIN
1070
    73
1070
     1
1070
    44
1040
1.0
1070
    74
1070
     0
1000
MTEXTEND
1000
MTEXTBEGIN
1070
    73
1070
     1
1070
    44
1040
1.0
1070
    74
1070
     0
1000
MTEXTEND
1000
MTEXTBEGIN
1070
    73
1070
     1
1070
    44
1040
1.0
1070
    74
1070
     0
1000
MTEXTEND
  0
MTEXT
  5
17C82
330
18
100
AcDbEntity
  8
0
  6
CENTER
100
AcDbMText
 10
623.2981664097457
 20
1076.003006589096
 30
0.0
 40
2.0
 41
15.6417
 71
     1
 72
     5
  1

  7
BIGFONT
1001
ACAD
1000
MTEXTBEGIN
1070
    73
1070
     1
1070
    44
1040
1.0
1070
    74
1070
     0
1000
MTEXTEND
1000
MTEXTBEGIN
1070
    73
1070
     1
1070
    44
1040
1.0
1070
    74
1070
     0
1000
MTEXTEND
1000
MTEXTBEGIN
1070
    73
1070
     1
1070
    44
1040
1.0
1070
    74
1070
     0
1000
MTEXTEND
  0
MTEXT
  5
17C83
330
18
100
AcDbEntity
  8
0
  6
DASHDOT
100
AcDbMText
 10
385.6202254655741
 20
1182.792501416872
 30
0.0
 40
1.0
 41
2.0
 71
     1
 72
     5
  1

  7
BIGFONT
1001
ACAD
1000
MTEXTBEGIN
1070
    73
1070
     1
1070
    44
1040
1.0
1070
    74
1070
     0
1000
MTEXTEND
1000
MTEXTBEGIN
1070
    73
1070
     1
1070
    44
1040
1.0
1070
    74
1070
     0
1000
MTEXTEND
1000
MTEXTBEGIN
1070
    73
1070
     1
1070
    44
1040
1.0
1070
    74
1070
     0
1000
MTEXTEND
  0
MTEXT
  5
17C84
330
18
100
AcDbEntity
  8
0
  6
BYBLOCK
100
AcDbMText
 10
342.4234035956974
 20
1092.274782338366
 30
0.0
 40
2.0
 41
0.0
 71
     4
 72
     5
  1

 11
-0.0000000000000002
 21
-1.0
 31
0.0
1001
ACAD
1000
MTEXTBEGIN
1070
    73
1070
     1
1070
    44
1040
1.0
1070
    74
1070
     0
1000
MTEXTEND
1000
MTEXTBEGIN
1070
    73
1070
     1
1070
    44
1040
1.0
1070
    74
1070
     0
1000
MTEXTEND
1000
MTEXTBEGIN
1070
    73
1070
     1
1070
    44
1040
1.0
1070
    74
1070
     0
1000
MTEXTEND
  0
MTEXT
  5
17C85
330
18
100
AcDbEntity
  8
0
  6
BYBLOCK
100
AcDbMText
 10
377.8887919588503
 20
1081.481473979948
 30
0.0
 40
2.0
 41
0.0
 71
     7
 72
     5
  1

 11
0.0000000000000001
 21
1.0
 31
0.0
1001
ACAD
1000
MTEXTBEGIN
1070
    73
1070
     1
1070
    44
1040
1.0
1070
    74
1070
     0
1000
MTEXTEND
1000
MTEXTBEGIN
1070
    73
1070
     1
1070
    44
1040
1.0
1070
    74
1070
     0
1000
MTEXTEND
1000
MTEXTBEGIN
1070
    73
1070
     1
1070
    44
1040
1.0
1070
    74
1070
     0
1000
MTEXTEND
  0
MTEXT
  5
17C86
330
18
100
AcDbEntity
  8
0
100
AcDbMText
 10
342.1092939741825
 20
1006.701963437659
 30
0.0
 40
2.0
 41
10.1453
 71
     1
 72
     5
  1

 11
-0.0000000000000002
 21
-1.0
 31
0.0
1001
ACAD
1000
MTEXTBEGIN
1070
    73
1070
     1
1070
    44
1040
1.0
1070
    74
1070
     0
1000
MTEXTEND
1000
MTEXTBEGIN
1070
    73
1070
     1
1070
    44
1040
1.0
1070
    74
1070
     0
1000
MTEXTEND
1000
MTEXTBEGIN
1070
    73
1070
     1
1070
    44
1040
1.0
1070
    74
1070
     0
1000
MTEXTEND
  0
MTEXT
  5
17C87
330
18
100
AcDbEntity
  8
0
100
AcDbMText
 10
297.7098022210326
 20
975.0704798446705
 30
0.0
 40
2.0
 41
0.0
 71
     1
 72
     5
  1

1001
ACAD
1000
MTEXTBEGIN
1070
    73
1070
     1
1070
    44
1040
1.0
1070
    74
1070
     0
1000
MTEXTEND
1000
MTEXTBEGIN
1070
    73
1070
     1
1070
    44
1040
1.0
1070
    74
1070
     0
1000
MTEXTEND
1000
MTEXTBEGIN
1070
    73
1070
     1
1070
    44
1040
1.0
1070
    74
1070
     0
1000
MTEXTEND
  0
MTEXT
  5
17C88
330
18
100
AcDbEntity
  8
0
  6
CENTER
100
AcDbMText
 10
623.2980794047955
 20
1076.003006589096
 30
0.0
 40
2.0
 41
15.6417
 71
     1
 72
     5
  1

  7
BIGFONT
1001
ACAD
1000
MTEXTBEGIN
1070
    73
1070
     1
1070
    44
1040
1.0
1070
    74
1070
     0
1000
MTEXTEND
1000
MTEXTBEGIN
1070
    73
1070
     1
1070
    44
1040
1.0
1070
    74
1070
     0
1000
MTEXTEND
1000
MTEXTBEGIN
1070
    73
1070
     1
1070
    44
1040
1.0
1070
    74
1070
     0
1000
MTEXTEND
  0
MTEXT
  5
17C89
330
18
100
AcDbEntity
  8
0
  6
DASHDOT
100
AcDbMText
 10
385.6201384606237
 20
1182.792501416872
 30
0.0
 40
1.0
 41
2.0
 71
     1
 72
     5
  1

  7
BIGFONT
1001
ACAD
1000
MTEXTBEGIN
1070
    73
1070
     1
1070
    44
1040
1.0
1070
    74
1070
     0
1000
MTEXTEND
1000
MTEXTBEGIN
1070
    73
1070
     1
1070
    44
1040
1.0
1070
    74
1070
     0
1000
MTEXTEND
1000
MTEXTBEGIN
1070
    73
1070
     1
1070
    44
1040
1.0
1070
    74
1070
     0
1000
MTEXTEND
  0
INSERT
  5
17C8A
330
18
100
AcDbEntity
  8
FRAME025
100
AcDbBlockReference
  2
機械A4横_LBP
 10
287.9380083423457
 20
866.6519003288902
 30
0.0
  0
ARC
  5
18571
330
18
100
AcDbEntity
  8
0
100
AcDbCircle
 10
503.2402838031906
 20
256.8527994879969
 30
0.0
 40
17.89999999999969
100
AcDbArc
 50
0.0
 51
90.0
  0
ARC
  5
18572
330
18
100
AcDbEntity
  8
0
100
AcDbCircle
 10
503.2402838031906
 20
256.8527994879969
 30
0.0
 40
22.09999999999948
100
AcDbArc
 50
0.0
 51
90.0
  0
LINE
  5
1859E
330
18
100
AcDbEntity
  8
0
100
AcDbLine
 10
481.0462774292415
 20
274.7527994879964
 30
0.0
 11
503.2402838031901
 21
274.7527994879971
 31
0.0
  0
LINE
  5
1859F
330
18
100
AcDbEntity
  8
0
100
AcDbLine
 10
481.0462774292409
 20
278.9527994879964
 30
0.0
 11
503.2402838031901
 21
278.952799487997
 31
0.0
  0
LINE
  5
185A0
330
18
100
AcDbEntity
  8
中心線
100
AcDbLine
 10
488.7937004047403
 20
276.8527994879971
 30
0.0
 11
451.8676710751981
 21
276.8527994879968
 31
0.0
  0
LINE
  5
185BB
330
18
100
AcDbEntity
  8
0
100
AcDbLine
 10
537.9190579803868
 20
408.8527994879968
 30
0.0
 11
537.9190579803868
 21
483.5287994879973
 31
0.0
  0
LINE
  5
185BD
330
18
100
AcDbEntity
  8
0
100
AcDbLine
 10
530.4190579839866
 20
408.8527994879968
 30
0.0
 11
530.4190579839866
 21
483.5287994879973
 31
0.0
  0
LINE
  5
185C9
330
18
100
AcDbEntity
  8
0
100
AcDbLine
 10
530.4190579839866
 20
483.5287994879973
 30
0.0
 11
537.9190579803868
 21
483.5287994879973
 31
0.0
  0
ARC
  5
1860C
330
18
100
AcDbEntity
  8
0
100
AcDbCircle
 10
514.1690579821869
 20
408.8527994879968
 30
0.0
 40
16.25000000180011
100
AcDbArc
 50
270.0
 51
0.0
  0
ARC
  5
1860D
330
18
100
AcDbEntity
  8
0
100
AcDbCircle
 10
514.1690579821869
 20
408.8527994879968
 30
0.0
 40
23.7499999982003
100
AcDbArc
 50
270.0
 51
0.0
  0
LINE
  5
1860E
330
18
100
AcDbEntity
  8
0
100
AcDbLine
 10
514.1690579821869
 20
385.1027994897965
 30
0.0
 11
481.0462774292417
 21
385.1027994897965
 31
0.0
  0
LINE
  5
1860F
330
18
100
AcDbEntity
  8
0
100
AcDbLine
 10
514.1690579821869
 20
392.602799486197
 30
0.0
 11
481.0462774292417
 21
392.602799486197
 31
0.0
  0
LINE
  5
18610
330
18
100
AcDbEntity
  8
中心線
100
AcDbLine
 10
489.3741554882381
 20
388.8527994879968
 30
0.0
 11
451.8676710751988
 21
388.8527994879968
 31
0.0
  0
LINE
  5
18869
330
18
100
AcDbEntity
  8
0
100
AcDbLine
 10
407.8462774292407
 20
206.352799487997
 30
0.0
 11
408.3462774292407
 21
205.8527994879971
 31
0.0
  0
LINE
  5
1886A
330
18
100
AcDbEntity
  8
0
100
AcDbLine
 10
407.3462774292407
 20
205.8527994879975
 30
0.0
 11
407.8462774292405
 21
205.8527994879975
 31
0.0
  0
LINE
  5
1886C
330
18
100
AcDbEntity
  8
0
100
AcDbLine
 10
460.0462774292407
 20
459.3527994879975
 30
0.0
 11
459.5462774292407
 21
459.8527994879977
 31
0.0
  0
LINE
  5
18870
330
18
100
AcDbEntity
  8
0
100
AcDbLine
 10
407.8462774292407
 20
459.3527994879972
 30
0.0
 11
408.3462774292407
 21
459.8527994879971
 31
0.0
  0
LINE
  5
18871
330
18
100
AcDbEntity
  8
0
100
AcDbLine
 10
408.3462774292407
 20
459.8527994879975
 30
0.0
 11
426.2462774292407
 21
459.8527994879971
 31
0.0
  0
CIRCLE
  5
18E11
330
18
100
AcDbEntity
  8
中心線
100
AcDbCircle
 10
697.8891930733126
 20
332.8527994879976
 30
0.0
 40
121.0
  0
CIRCLE
  5
18E17
330
18
100
AcDbEntity
  8
細線
100
AcDbCircle
 10
729.7239356209225
 20
214.0439228544419
 30
0.0
 40
3.5
  0
LWPOLYLINE
  5
18E2D
330
18
100
AcDbEntity
  8
細線
100
AcDbPolyline
 90
        6
 70
     1
 43
0.0
 10
786.5363597651763
 20
246.326953137718
 10
786.0880720295094
 20
244.6539205317998
 10
784.4150394235908
 20
244.2056327961326
 10
783.1902945533384
 20
245.4303776663845
 10
783.6385822890055
 20
247.103410272303
 10
785.3116148949236
 20
247.5516980079702
  0
CIRCLE
  5
18E2F
330
18
100
AcDbEntity
  8
細線
100
AcDbCircle
 10
784.8633271592578
 20
245.8786654020522
 30
0.0
 40
3.5
  0
LINE
  5
18E32
330
18
100
AcDbEntity
  8
中心線
100
AcDbLine
 10
755.8931562551789
 20
232.3869882166497
 30
0.0
 11
760.8891930733119
 21
223.733598611159
 31
0.0
  0
CIRCLE
  5
18E33
330
18
100
AcDbEntity
  8
0
100
AcDbCircle
 10
758.3891930733122
 20
228.0637256300808
 30
0.0
 40
2.25
  0
CIRCLE
  5
18E34
330
18
100
AcDbEntity
  8
細線
100
AcDbCircle
 10
758.3891930733122
 20
228.0637256300808
 30
0.0
 40
3.0
  0
LINE
  5
18E35
330
18
100
AcDbEntity
  8
中心線
100
AcDbLine
 10
835.1656820581927
 20
332.8647569176681
 30
0.0
 11
560.6127040884321
 21
332.8408420583268
 31
0.0
  0
CIRCLE
  5
18E39
330
18
100
AcDbEntity
  8
細線
100
AcDbCircle
 10
816.6980697068677
 20
301.0180569403873
 30
0.0
 40
3.5
  0
LWPOLYLINE
  5
18E3A
330
18
100
AcDbEntity
  8
細線
100
AcDbPolyline
 90
        6
 70
     1
 43
0.0
 10
817.9228145771199
 20
302.2428018106383
 10
818.3711023127862
 20
300.5697692047204
 10
817.1463574425349
 20
299.3450243344681
 10
815.4733248366152
 20
299.7933120701349
 10
815.0250371009489
 20
301.4663446760528
 10
816.2497819712003
 20
302.6910895463053
  0
CIRCLE
  5
18E3B
330
18
100
AcDbEntity
  8
0
100
AcDbCircle
 10
818.8891930733118
 20
332.852799487998
 30
0.0
 40
2.25
  0
CIRCLE
  5
18E3C
330
18
100
AcDbEntity
  8
細線
100
AcDbCircle
 10
818.8891930733118
 20
332.852799487998
 30
0.0
 40
3.0
  0
CIRCLE
  5
18E3D
330
18
100
AcDbEntity
  8
細線
100
AcDbCircle
 10
816.6980697068677
 20
364.6875420356071
 30
0.0
 40
3.5
  0
LWPOLYLINE
  5
18E41
330
18
100
AcDbEntity
  8
細線
100
AcDbPolyline
 90
        6
 70
     1
 43
0.0
 10
817.1463574425352
 20
366.3605746415258
 10
818.3711023127868
 20
365.1358297712739
 10
817.9228145771199
 20
363.4627971653551
 10
816.2497819712008
 20
363.014509429688
 10
815.0250371009493
 20
364.2392542999393
 10
815.4733248366152
 20
365.9122869058585
  0
CIRCLE
  5
18E55
330
18
100
AcDbEntity
  8
細線
100
AcDbCircle
 10
729.7239356209225
 20
451.6616761215527
 30
0.0
 40
3.5
  0
LWPOLYLINE
  5
18E59
330
18
100
AcDbEntity
  8
細線
100
AcDbPolyline
 90
        6
 70
     1
 43
0.0
 10
784.4150394235916
 20
421.4999661798619
 10
786.0880720295094
 20
421.0516784441946
 10
786.5363597651765
 20
419.3786458382759
 10
785.311614894925
 20
418.1539009680235
 10
783.6385822890068
 20
418.6021887036903
 10
783.1902945533394
 20
420.2752213096088
  0
CIRCLE
  5
18E5A
330
18
100
AcDbEntity
  8
細線
100
AcDbCircle
 10
784.8633271592578
 20
419.8269335739427
 30
0.0
 40
3.5
  0
CIRCLE
  5
18E5D
330
18
100
AcDbEntity
  8
細線
100
AcDbCircle
 10
758.3891930733119
 20
437.6418733459146
 30
0.0
 40
3.0
  0
LINE
  5
18E5E
330
18
100
AcDbEntity
  8
中心線
100
AcDbLine
 10
755.8931562551789
 20
433.3186107593454
 30
0.0
 11
760.8891930733119
 21
441.9720003648363
 31
0.0
  0
CIRCLE
  5
18E5F
330
18
100
AcDbEntity
  8
0
100
AcDbCircle
 10
758.3891930733119
 20
437.6418733459146
 30
0.0
 40
2.25
  0
LINE
  5
18E62
330
18
100
AcDbEntity
  8
中心線
100
AcDbLine
 10
697.8772356436413
 20
470.1292884728778
 30
0.0
 11
697.9011505029825
 21
195.5763105031175
 31
0.0
  0
LWPOLYLINE
  5
18E65
330
18
100
AcDbEntity
  8
細線
100
AcDbPolyline
 90
        6
 70
     1
 43
0.0
 10
731.3969682268407
 20
213.5956351187741
 10
730.1722233565889
 20
212.3708902485231
 10
728.4991907506702
 20
212.8191779841894
 10
728.0509030150029
 20
214.4922105901085
 10
729.2756478852544
 20
215.71695546036
 10
730.9486804911736
 20
215.2686677246936
  0
CIRCLE
  5
18E66
330
18
100
AcDbEntity
  8
0
100
AcDbCircle
 10
697.8940709371459
 20
276.8528028997019
 30
0.0
 40
4.5
  0
LWPOLYLINE
  5
18E67
330
18
100
AcDbEntity
  8
0
100
AcDbPolyline
 90
       12
 70
   129
 43
0.0
 10
707.3940705527071
 20
272.3806661280526
 42
-0.0418357922730061
 10
706.5170537683341
 20
270.8616287999916
 10
698.7710866914804
 20
266.3894935108586
 42
-0.041835792273005
 10
697.0170533838954
 20
266.3894936616407
 10
689.2710870759184
 20
270.861630282507
 42
-0.0418357922730106
 10
688.3940705527074
 20
272.3806677613508
 10
688.3940713215844
 20
281.3249396713498
 42
-0.0418357922730243
 10
689.2710881059581
 20
282.8439769994118
 10
697.0170551828115
 20
287.3161122885446
 42
-0.041835792273011
 10
698.7710884903958
 20
287.3161121377624
 10
706.5170547983728
 20
282.8439755168961
 42
-0.0418357922730047
 10
707.3940713215839
 20
281.3249380380525
  0
CIRCLE
  5
18E68
330
18
100
AcDbEntity
  8
0
100
AcDbCircle
 10
697.8940709371459
 20
276.8528028997019
 30
0.0
 40
5.2
  0
CIRCLE
  5
18E69
330
18
100
AcDbEntity
  8
0
100
AcDbCircle
 10
697.8940709371459
 20
276.8528028997019
 30
0.0
 40
9.5
  0
INSERT
  5
18E6A
330
18
100
AcDbEntity
  8
0
  6
CONTINUOUS
100
AcDbBlockReference
  2
*U37
 10
-33.85464579001382
 20
0.0
 30
0.0
1001
ACAD
1002
{
1000
R14_HATCH_DATA
1000
18E6A
1011
-32.85464579001382
1021
0.0
1031
0.0
1011
-33.85464579001382
1021
1.0
1031
0.0
1011
-33.85464579001382
1021
0.0
1031
1.0
1040
0.0
1010
0.0
1020
0.0
1030
1.0
1000
SOLID
1070
     1
1070
     0
1071
        2
1071
        7
1070
     1
1070
     1
1071
        3
1040
729.2487167271596
1040
276.8528031146093
1040
0.0
1040
731.7487167271592
1040
276.852802899702
1040
0.0
1040
731.748716512252
1040
274.3528028997014
1040
-0.4142135623730919
1071
        0
1071
        7
1070
     1
1070
     1
1071
        3
1040
731.7487167271597
1040
276.8528028997014
1040
0.0
1040
731.7487169420672
1040
279.3528028997016
1040
-0.4142135623730951
1040
734.2487167271597
1040
276.8528026847943
1040
0.0
1071
        0
1070
     0
1070
     1
1040
0.0576142688807724
1071
        2
1040
730.9192480877257
1040
275.4708369100938
1040
0.0
1040
732.5900621761093
1040
277.1999954760181
1040
0.0
1002
}
  0
CIRCLE
  5
18E6B
330
18
100
AcDbEntity
  8
0
100
AcDbCircle
 10
697.8940709371459
 20
276.8528028997019
 30
0.0
 40
2.5
  0
CIRCLE
  5
18E6F
330
18
100
AcDbEntity
  8
0
100
AcDbCircle
 10
697.8850058848551
 20
388.8528025387608
 30
0.0
 40
4.5
  0
CIRCLE
  5
18E70
330
18
100
AcDbEntity
  8
0
100
AcDbCircle
 10
697.8850058848551
 20
388.8528025387608
 30
0.0
 40
5.2
  0
LWPOLYLINE
  5
18E71
330
18
100
AcDbEntity
  8
0
100
AcDbPolyline
 90
       12
 70
   129
 43
0.0
 10
707.3850062692931
 20
393.3249376771121
 42
0.0418357922730061
 10
706.5079897460821
 20
394.8439751559551
 10
698.7620234381051
 20
399.3161117768222
 42
0.041835792273005
 10
697.0079901305203
 20
399.3161119276042
 10
689.2620230536668
 20
394.8439766384712
 42
0.0418357922730106
 10
688.3850062692929
 20
393.3249393104097
 10
688.3850055004164
 20
384.3806674004108
 42
0.0418357922730243
 10
689.2620220236279
 20
382.8616299215664
 10
697.0079883316042
 20
378.3894933006998
 42
0.041835792273011
 10
698.7620216391889
 20
378.3894931499182
 10
706.5079887160429
 20
382.8616284390509
 42
0.0418357922730047
 10
707.3850055004158
 20
384.3806657671121
  0
CIRCLE
  5
18E72
330
18
100
AcDbEntity
  8
0
100
AcDbCircle
 10
697.8850058848551
 20
388.8528025387608
 30
0.0
 40
9.5
  0
CIRCLE
  5
18E73
330
18
100
AcDbEntity
  8
0
100
AcDbCircle
 10
697.8850058848551
 20
388.8528025387608
 30
0.0
 40
2.5
  0
INSERT
  5
18E74
330
18
100
AcDbEntity
  8
0
  6
CONTINUOUS
100
AcDbBlockReference
  2
*U38
 10
-33.85464579001382
 20
0.0
 30
0.0
1001
ACAD
1002
{
1000
R14_HATCH_DATA
1000
18E74
1011
-32.85464579001382
1021
0.0
1031
0.0
1011
-33.85464579001382
1021
1.0
1031
0.0
1011
-33.85464579001382
1021
0.0
1031
1.0
1040
0.0
1010
0.0
1020
0.0
1030
1.0
1000
SOLID
1070
     1
1070
     0
1071
        2
1071
        7
1070
     1
1070
     1
1071
        3
1040
729.2396516748683
1040
388.8528027536689
1040
0.0
1040
731.7396516748686
1040
388.852802538761
1040
0.0
1040
731.7396518897761
1040
391.3528025387613
1040
0.4142135623730919
1071
        0
1071
        7
1070
     1
1070
     1
1071
        3
1040
731.7396516748689
1040
388.8528025387612
1040
0.0
1040
731.7396514599607
1040
386.3528025387612
1040
0.4142135623730951
1040
734.2396516748683
1040
388.8528023238535
1040
0.0
1071
        0
1070
     0
1070
     1
1040
0.0576142688807724
1071
        2
1040
730.9101832730307
1040
390.2347686709766
1040
0.0
1040
732.580997064127
1040
388.505609817795
1040
0.0
1002
}
  0
LWPOLYLINE
  5
18E76
330
18
100
AcDbEntity
  8
細線
100
AcDbPolyline
 90
        6
 70
     1
 43
0.0
 10
728.499190750671
 20
452.8864209918053
 10
730.1722233565891
 20
453.3347087274711
 10
731.396968226841
 20
452.1099638572201
 10
730.9486804911744
 20
450.4369312513007
 10
729.2756478852562
 20
449.9886435156338
 10
728.0509030150039
 20
451.2133883858858
  0
CIRCLE
  5
18E77
330
18
100
AcDbEntity
  8
細線
100
AcDbCircle
 10
666.0544505257021
 20
214.0439228544419
 30
0.0
 40
3.5
  0
CIRCLE
  5
18E7A
330
18
100
AcDbEntity
  8
0
100
AcDbCircle
 10
637.3891930733122
 20
228.0637256300808
 30
0.0
 40
2.25
  0
CIRCLE
  5
18E7B
330
18
100
AcDbEntity
  8
細線
100
AcDbCircle
 10
637.3891930733122
 20
228.0637256300808
 30
0.0
 40
3.0
  0
LINE
  5
18E7C
330
18
100
AcDbEntity
  8
中心線
100
AcDbLine
 10
639.8852298914452
 20
232.3869882166496
 30
0.0
 11
634.8891930733124
 21
223.733598611159
 31
0.0
  0
CIRCLE
  5
18E7F
330
18
100
AcDbEntity
  8
細線
100
AcDbCircle
 10
610.9150589873669
 20
245.8786654020522
 30
0.0
 40
3.5
  0
LWPOLYLINE
  5
18E81
330
18
100
AcDbEntity
  8
細線
100
AcDbPolyline
 90
        6
 70
     1
 43
0.0
 10
611.3633467230324
 20
244.205632796133
 10
609.6903141171147
 20
244.6539205318003
 10
609.2420263814475
 20
246.3269531377185
 10
610.4667712516994
 20
247.5516980079709
 10
612.1398038576177
 20
247.1034102723039
 10
612.588091593285
 20
245.4303776663854
  0
LWPOLYLINE
  5
18E83
330
18
100
AcDbEntity
  8
細線
100
AcDbPolyline
 90
        6
 70
     1
 43
0.0
 10
667.2791953959532
 20
212.8191779841894
 10
665.6061627900348
 20
212.3708902485231
 10
664.3814179197829
 20
213.5956351187744
 10
664.8297056554493
 20
215.2686677246936
 10
666.5027382613678
 20
215.7169554603604
 10
667.7274831316199
 20
214.4922105901089
  0
CIRCLE
  5
18E98
330
18
100
AcDbEntity
  8
細線
100
AcDbCircle
 10
610.9150589873669
 20
419.8269335739427
 30
0.0
 40
3.5
  0
LWPOLYLINE
  5
18E99
330
18
100
AcDbEntity
  8
細線
100
AcDbPolyline
 90
        6
 70
     1
 43
0.0
 10
609.2420263814475
 20
419.3786458382763
 10
609.6903141171147
 20
421.0516784441946
 10
611.3633467230335
 20
421.4999661798619
 10
612.5880915932858
 20
420.2752213096099
 10
612.1398038576191
 20
418.6021887036917
 10
610.4667712517002
 20
418.1539009680243
  0
CIRCLE
  5
18EAF
330
18
100
AcDbEntity
  8
細線
100
AcDbCircle
 10
637.3891930733122
 20
437.6418733459145
 30
0.0
 40
3.0
  0
CIRCLE
  5
18EB0
330
18
100
AcDbEntity
  8
0
100
AcDbCircle
 10
637.3891930733122
 20
437.6418733459145
 30
0.0
 40
2.25
  0
LINE
  5
18EB1
330
18
100
AcDbEntity
  8
中心線
100
AcDbLine
 10
639.8852298914452
 20
433.3186107593454
 30
0.0
 11
634.8891930733121
 21
441.9720003648361
 31
0.0
  0
CIRCLE
  5
18EB2
330
18
100
AcDbEntity
  8
細線
100
AcDbCircle
 10
666.0544505257027
 20
451.6616761215527
 30
0.0
 40
3.5
  0
LWPOLYLINE
  5
18EB6
330
18
100
AcDbEntity
  8
細線
100
AcDbPolyline
 90
        6
 70
     1
 43
0.0
 10
664.3814179197834
 20
452.1099638572201
 10
665.6061627900355
 20
453.3347087274718
 10
667.279195395954
 20
452.8864209918053
 10
667.7274831316215
 20
451.2133883858858
 10
666.5027382613693
 20
449.9886435156348
 10
664.8297056554508
 20
450.4369312513007
  0
CIRCLE
  5
18EB8
330
18
100
AcDbEntity
  8
細線
100
AcDbCircle
 10
579.0803164397571
 20
301.0180569403873
 30
0.0
 40
3.5
  0
LWPOLYLINE
  5
18EB9
330
18
100
AcDbEntity
  8
細線
100
AcDbPolyline
 90
        6
 70
     1
 43
0.0
 10
578.6320287040889
 20
299.3450243344685
 10
577.4072838338375
 20
300.5697692047204
 10
577.8555715695041
 20
302.2428018106392
 10
579.5286041754231
 20
302.6910895463064
 10
580.753349045675
 20
301.4663446760548
 10
580.3050613100086
 20
299.7933120701361
  0
CIRCLE
  5
18EBA
330
18
100
AcDbEntity
  8
0
100
AcDbCircle
 10
576.889193073312
 20
332.8527994879976
 30
0.0
 40
2.25
  0
CIRCLE
  5
18EBB
330
18
100
AcDbEntity
  8
細線
100
AcDbCircle
 10
576.889193073312
 20
332.8527994879976
 30
0.0
 40
3.0
  0
LWPOLYLINE
  5
18EBD
330
18
100
AcDbEntity
  8
細線
100
AcDbPolyline
 90
        6
 70
     1
 43
0.0
 10
577.8555715695039
 20
363.4627971653561
 10
577.4072838338375
 20
365.1358297712743
 10
578.6320287040889
 20
366.3605746415263
 10
580.3050613100086
 20
365.9122869058599
 10
580.7533490456754
 20
364.2392542999413
 10
579.5286041754234
 20
363.0145094296894
  0
CIRCLE
  5
18EBE
330
18
100
AcDbEntity
  8
細線
100
AcDbCircle
 10
579.0803164397571
 20
364.6875420356075
 30
0.0
 40
3.5
  0
CIRCLE
  5
19233
330
18
100
AcDbEntity
  8
0
100
AcDbCircle
 10
195.9573209669592
 20
332.8527994879973
 30
0.0
 40
81.0
  0
CIRCLE
  5
19235
330
18
100
AcDbEntity
  8
0
100
AcDbCircle
 10
195.9573209669592
 20
332.8527994879973
 30
0.0
 40
92.5
  0
LINE
  5
1923B
330
18
100
AcDbEntity
  8
中心線
100
AcDbLine
 10
64.77935266644343
 20
332.8527994879976
 30
0.0
 11
327.2120472898709
 21
332.8527994879971
 31
0.0
  0
CIRCLE
  5
1923D
330
18
100
AcDbEntity
  8
0
100
AcDbCircle
 10
195.9573209669592
 20
332.8527994879976
 30
0.0
 40
126.75
  0
LINE
  5
19240
330
18
100
AcDbEntity
  8
中心線
100
AcDbLine
 10
195.9573209669592
 20
474.6614262630981
 30
0.0
 11
195.9573209669592
 21
190.5195861638
 31
0.0
  0
CIRCLE
  5
19255
330
18
100
AcDbEntity
  8
細線
100
AcDbCircle
 10
158.4573209669595
 20
397.8047047718301
 30
0.0
 40
3.0
  0
LINE
  5
19256
330
18
100
AcDbEntity
  8
中心線
100
AcDbLine
 10
161.418933236281
 20
392.6750418490458
 30
0.0
 11
155.4573209669594
 21
403.0008571945366
 31
0.0
  0
CIRCLE
  5
19257
330
18
100
AcDbEntity
  8
0
100
AcDbCircle
 10
135.1431105527938
 20
393.667009902162
 30
0.0
 40
4.0
  0
CIRCLE
  5
19258
330
18
100
AcDbEntity
  8
DIMENSION
  6
CONTINUOUS
100
AcDbCircle
 10
135.1431105527933
 20
393.667009902162
 30
0.0
 40
3.499999999924998
  0
LWPOLYLINE
  5
19259
330
18
100
AcDbEntity
  8
DIMENSION
  6
CONTINUOUS
100
AcDbPolyline
 90
        6
 70
     1
 43
0.0
 10
135.618572087396
 20
395.4414371270301
 10
133.8441422661922
 20
394.9659852820851
 10
133.368680731589
 20
393.1915580572177
 10
134.6676490181895
 20
391.8925826772951
 10
136.4420788393932
 20
392.3680345222402
 10
136.9175403739965
 20
394.1424617471078
  0
LWPOLYLINE
  5
19286
330
18
100
AcDbEntity
  8
DIMENSION
  6
CONTINUOUS
100
AcDbPolyline
 90
        6
 70
     1
 43
0.0
 10
133.3686833279267
 20
272.5140506084341
 10
133.8441351728721
 20
270.7396207872304
 10
135.6185623977395
 20
270.2641592526271
 10
136.9175377776619
 20
271.5631275392274
 10
136.4420859327166
 20
273.3375573604311
 10
134.6676587078492
 20
273.8130188950339
  0
CIRCLE
  5
19287
330
18
100
AcDbEntity
  8
DIMENSION
  6
CONTINUOUS
100
AcDbCircle
 10
135.143110552795
 20
272.0385890738309
 30
0.0
 40
3.499999999924998
  0
CIRCLE
  5
19288
330
18
100
AcDbEntity
  8
0
100
AcDbCircle
 10
135.143110552795
 20
272.0385890738314
 30
0.0
 40
4.0
  0
CIRCLE
  5
192B9
330
18
100
AcDbEntity
  8
DIMENSION
  6
CONTINUOUS
100
AcDbCircle
 10
129.706377577451
 20
294.6027994879958
 30
0.0
 40
2.0
  0
CIRCLE
  5
192BA
330
18
100
AcDbEntity
  8
DIMENSION
  6
CONTINUOUS
100
AcDbCircle
 10
129.706377577451
 20
294.6027994879958
 30
0.0
 40
1.6
  0
CIRCLE
  5
192BD
330
18
100
AcDbEntity
  8
DIMENSION
  6
CONTINUOUS
100
AcDbCircle
 10
173.6977750442841
 20
249.779043151155
 30
0.0
 40
3.499999999924998
  0
CIRCLE
  5
192BE
330
18
100
AcDbEntity
  8
0
100
AcDbCircle
 10
173.6977750442839
 20
249.7790431511554
 30
0.0
 40
4.0
  0
LWPOLYLINE
  5
192C3
330
18
100
AcDbEntity
  8
DIMENSION
  6
CONTINUOUS
100
AcDbPolyline
 90
        6
 70
     1
 43
0.0
 10
171.9233452230801
 20
249.3035913062091
 10
173.2223135096807
 20
248.0046159262868
 10
174.9967433308843
 20
248.4800677712319
 10
175.4722048654876
 20
250.2544949960993
 10
174.1732365788871
 20
251.5534703760219
 10
172.3988067576834
 20
251.0780185310767
  0
CIRCLE
  5
192C5
330
18
100
AcDbEntity
  8
DIMENSION
  6
CONTINUOUS
100
AcDbCircle
 10
169.7927800025478
 20
260.9663139978747
 30
0.0
 40
1.6
  0
CIRCLE
  5
192C6
330
18
100
AcDbEntity
  8
細線
100
AcDbCircle
 10
169.7927800025478
 20
260.9663139978747
 30
0.0
 40
2.0
  0
CIRCLE
  5
192C7
330
18
100
AcDbEntity
  8
DIMENSION
  6
CONTINUOUS
100
AcDbCircle
 10
146.7840688259408
 20
274.2503995893944
 30
0.0
 40
1.6
  0
CIRCLE
  5
192C8
330
18
100
AcDbEntity
  8
DIMENSION
  6
CONTINUOUS
100
AcDbCircle
 10
146.7840688259408
 20
274.2503995893944
 30
0.0
 40
2.0
  0
CIRCLE
  5
192C9
330
18
100
AcDbEntity
  8
細線
100
AcDbCircle
 10
158.4573209669594
 20
267.9008942041645
 30
0.0
 40
3.0
  0
CIRCLE
  5
192CA
330
18
100
AcDbEntity
  8
0
100
AcDbCircle
 10
158.4573209669594
 20
267.9008942041645
 30
0.0
 40
2.25
  0
LINE
  5
192CB
330
18
100
AcDbEntity
  8
中心線
100
AcDbLine
 10
161.418933236281
 20
273.0305571269489
 30
0.0
 11
155.4573209669594
 21
262.7047417814579
 31
0.0
  0
SOLID
  5
192D0
330
18
100
AcDbEntity
  8
0
  6
BYBLOCK
 62
     0
100
AcDbTrace
 10
98.95732096695928
 20
335.1622005679976
 30
0.0
 11
102.9573209669592
 21
332.8527994879975
 31
0.0
 12
98.95732096695928
 22
330.5433984079975
 32
0.0
 13
98.95732096695928
 23
330.5433984079975
 33
0.0
  0
CIRCLE
  5
192E3
330
18
100
AcDbEntity
  8
0
100
AcDbCircle
 10
112.8835646301179
 20
310.5932535653197
 30
0.0
 40
4.0
  0
CIRCLE
  5
192E4
330
18
100
AcDbEntity
  8
DIMENSION
  6
CONTINUOUS
100
AcDbCircle
 10
112.8835646301174
 20
310.5932535653195
 30
0.0
 40
3.499999999924998
  0
LWPOLYLINE
  5
192E5
330
18
100
AcDbEntity
  8
DIMENSION
  6
CONTINUOUS
100
AcDbPolyline
 90
        6
 70
     1
 43
0.0
 10
111.5845963435163
 20
311.8922289452418
 10
111.1091348089135
 20
310.1178017203743
 10
112.4081030955136
 20
308.8188263404518
 10
114.1825329167173
 20
309.2942781853968
 10
114.6579944513206
 20
311.0687054102644
 10
113.3590261647201
 20
312.3676807901869
  0
CIRCLE
  5
192E6
330
18
100
AcDbEntity
  8
DIMENSION
  6
CONTINUOUS
100
AcDbCircle
 10
120.6195278615261
 20
319.5687138964751
 30
0.0
 40
1.6
  0
CIRCLE
  5
192E7
330
18
100
AcDbEntity
  8
DIMENSION
  6
CONTINUOUS
100
AcDbCircle
 10
120.6195278615261
 20
319.5687138964751
 30
0.0
 40
2.0
  0
SOLID
  5
192E8
330
18
100
AcDbEntity
  8
0
  6
BYBLOCK
 62
     0
100
AcDbTrace
 10
107.9573209669592
 20
335.1622005679976
 30
0.0
 11
103.9573209669592
 21
332.8527994879975
 31
0.0
 12
107.9573209669592
 22
330.5433984079975
 32
0.0
 13
107.9573209669592
 23
330.5433984079975
 33
0.0
  0
CIRCLE
  5
192E9
330
18
100
AcDbEntity
  8
0
100
AcDbCircle
 10
120.9573209669595
 20
332.8527994879973
 30
0.0
 40
2.25
  0
CIRCLE
  5
192EA
330
18
100
AcDbEntity
  8
細線
100
AcDbCircle
 10
120.9573209669595
 20
332.8527994879973
 30
0.0
 40
3.0
  0
CIRCLE
  5
192ED
330
18
100
AcDbEntity
  8
DIMENSION
  6
CONTINUOUS
100
AcDbCircle
 10
120.6195278615252
 20
346.1368850795157
 30
0.0
 40
1.6
  0
CIRCLE
  5
192EE
330
18
100
AcDbEntity
  8
DIMENSION
  6
CONTINUOUS
100
AcDbCircle
 10
120.6195278615252
 20
346.1368850795157
 30
0.0
 40
2.0
  0
CIRCLE
  5
192FA
330
18
100
AcDbEntity
  8
DIMENSION
  6
CONTINUOUS
100
AcDbCircle
 10
129.7063775774492
 20
371.1027994879961
 30
0.0
 40
2.0
  0
CIRCLE
  5
192FB
330
18
100
AcDbEntity
  8
DIMENSION
  6
CONTINUOUS
100
AcDbCircle
 10
129.7063775774492
 20
371.1027994879961
 30
0.0
 40
1.6
  0
CIRCLE
  5
192FC
330
18
100
AcDbEntity
  8
0
100
AcDbCircle
 10
112.8835646301174
 20
355.1123454106733
 30
0.0
 40
4.0
  0
CIRCLE
  5
192FD
330
18
100
AcDbEntity
  8
DIMENSION
  6
CONTINUOUS
100
AcDbCircle
 10
112.883564630117
 20
355.1123454106729
 30
0.0
 40
3.499999999924998
  0
LWPOLYLINE
  5
192FE
330
18
100
AcDbEntity
  8
DIMENSION
  6
CONTINUOUS
100
AcDbPolyline
 90
        6
 70
     1
 43
0.0
 10
112.408112785171
 20
356.8867752318769
 10
111.109137405249
 20
355.5878069452763
 10
111.5845892501939
 20
353.8133771240728
 10
113.3590164750613
 20
353.3379155894696
 10
114.6579918549837
 20
354.6368838760701
 10
114.1825400100384
 20
356.4113136972737
  0
CIRCLE
  5
192FF
330
18
100
AcDbEntity
  8
DIMENSION
  6
CONTINUOUS
100
AcDbCircle
 10
146.7840688259382
 20
391.4551993865981
 30
0.0
 40
1.6
  0
CIRCLE
  5
19300
330
18
100
AcDbEntity
  8
DIMENSION
  6
CONTINUOUS
100
AcDbCircle
 10
146.7840688259382
 20
391.4551993865981
 30
0.0
 40
2.0
  0
CIRCLE
  5
19339
330
18
100
AcDbEntity
  8
0
100
AcDbCircle
 10
173.697775044284
 20
415.9265558248393
 30
0.0
 40
4.0
  0
CIRCLE
  5
1933A
330
18
100
AcDbEntity
  8
DIMENSION
  6
CONTINUOUS
100
AcDbCircle
 10
173.6977750442842
 20
415.9265558248398
 30
0.0
 40
3.499999999924998
  0
CIRCLE
  5
1933B
330
18
100
AcDbEntity
  8
DIMENSION
  6
CONTINUOUS
100
AcDbCircle
 10
169.7927800025479
 20
404.73928497812
 30
0.0
 40
2.0
  0
CIRCLE
  5
1933C
330
18
100
AcDbEntity
  8
DIMENSION
  6
CONTINUOUS
100
AcDbCircle
 10
169.7927800025479
 20
404.73928497812
 30
0.0
 40
1.6
  0
CIRCLE
  5
1933D
330
18
100
AcDbEntity
  8
0
100
AcDbCircle
 10
158.4573209669595
 20
397.8047047718301
 30
0.0
 40
2.25
  0
LWPOLYLINE
  5
19342
330
18
100
AcDbEntity
  8
DIMENSION
  6
CONTINUOUS
100
AcDbPolyline
 90
        6
 70
     1
 43
0.0
 10
171.9233452230801
 20
416.4020076697853
 10
173.2223135096807
 20
417.7009830497078
 10
174.9967433308843
 20
417.2255312047629
 10
175.4722048654876
 20
415.4511039798951
 10
174.1732365788871
 20
414.1521285999728
 10
172.3988067576834
 20
414.6275804449182
  0
CIRCLE
  5
19345
330
18
100
AcDbEntity
  8
DIMENSION
  6
CONTINUOUS
100
AcDbCircle
 10
195.9573209669614
 20
409.3527994879972
 30
0.0
 40
2.0
  0
CIRCLE
  5
19346
330
18
100
AcDbEntity
  8
DIMENSION
  6
CONTINUOUS
100
AcDbCircle
 10
195.9573209669614
 20
409.3527994879972
 30
0.0
 40
1.6
  0
LWPOLYLINE
  5
1935C
330
18
100
AcDbEntity
  8
DIMENSION
  6
CONTINUOUS
100
AcDbPolyline
 90
        6
 70
     1
 43
0.0
 10
256.2960698465227
 20
395.4414371270301
 10
258.0704996677263
 20
394.9659852820849
 10
258.5459612023298
 20
393.1915580572174
 10
257.2469929157294
 20
391.892582677295
 10
255.4725630945257
 20
392.36803452224
 10
254.9971015599227
 20
394.1424617471076
  0
CIRCLE
  5
1935D
330
18
100
AcDbEntity
  8
DIMENSION
  6
CONTINUOUS
100
AcDbCircle
 10
256.7715313811256
 20
393.6670099021617
 30
0.0
 40
3.499999999924998
  0
CIRCLE
  5
1935E
330
18
100
AcDbEntity
  8
0
100
AcDbCircle
 10
256.7715313811252
 20
393.6670099021617
 30
0.0
 40
4.0
  0
LINE
  5
1935F
330
18
100
AcDbEntity
  8
中心線
100
AcDbLine
 10
230.4957086976378
 20
392.6750418490458
 30
0.0
 11
236.4573209669593
 21
403.0008571945366
 31
0.0
  0
CIRCLE
  5
19360
330
18
100
AcDbEntity
  8
細線
100
AcDbCircle
 10
233.4573209669591
 20
397.8047047718301
 30
0.0
 40
3.0
  0
CIRCLE
  5
19367
330
18
100
AcDbEntity
  8
DIMENSION
  6
CONTINUOUS
100
AcDbCircle
 10
218.2168668896375
 20
249.7790431511555
 30
0.0
 40
3.499999999924998
  0
CIRCLE
  5
19368
330
18
100
AcDbEntity
  8
0
100
AcDbCircle
 10
218.2168668896371
 20
249.7790431511555
 30
0.0
 40
4.0
  0
LWPOLYLINE
  5
19369
330
18
100
AcDbEntity
  8
DIMENSION
  6
CONTINUOUS
100
AcDbPolyline
 90
        6
 70
     1
 43
0.0
 10
216.9178915097148
 20
248.4800748645544
 10
218.6923187345824
 20
248.0046133299514
 10
219.9912941145049
 20
249.3035816165515
 10
219.51584226956
 20
251.0780114377552
 10
217.7414150446926
 20
251.5534729723583
 10
216.4424396647701
 20
250.254504685758
  0
CIRCLE
  5
1937B
330
18
100
AcDbEntity
  8
DIMENSION
  6
CONTINUOUS
100
AcDbCircle
 10
222.1218619313745
 20
260.9663139978767
 30
0.0
 40
2.0
  0
CIRCLE
  5
1937C
330
18
100
AcDbEntity
  8
DIMENSION
  6
CONTINUOUS
100
AcDbCircle
 10
222.1218619313745
 20
260.9663139978767
 30
0.0
 40
1.6
  0
CIRCLE
  5
1937D
330
18
100
AcDbEntity
  8
0
100
AcDbCircle
 10
233.4573209669591
 20
267.9008942041645
 30
0.0
 40
2.25
  0
CIRCLE
  5
1937E
330
18
100
AcDbEntity
  8
細線
100
AcDbCircle
 10
233.4573209669591
 20
267.9008942041645
 30
0.0
 40
3.0
  0
LINE
  5
1937F
330
18
100
AcDbEntity
  8
中心線
100
AcDbLine
 10
230.4957086976378
 20
273.0305571269489
 30
0.0
 11
236.4573209669593
 21
262.7047417814579
 31
0.0
  0
CIRCLE
  5
19380
330
18
100
AcDbEntity
  8
0
100
AcDbCircle
 10
256.7715313811252
 20
272.038589073833
 30
0.0
 40
4.0
  0
CIRCLE
  5
19381
330
18
100
AcDbEntity
  8
DIMENSION
  6
CONTINUOUS
100
AcDbCircle
 10
256.7715313811256
 20
272.038589073833
 30
0.0
 40
3.499999999924998
  0
CIRCLE
  5
19382
330
18
100
AcDbEntity
  8
DIMENSION
  6
CONTINUOUS
100
AcDbCircle
 10
245.1305731079812
 20
274.2503995893965
 30
0.0
 40
2.0
  0
CIRCLE
  5
19383
330
18
100
AcDbEntity
  8
DIMENSION
  6
CONTINUOUS
100
AcDbCircle
 10
245.1305731079812
 20
274.2503995893965
 30
0.0
 40
1.6
  0
LWPOLYLINE
  5
19384
330
18
100
AcDbEntity
  8
DIMENSION
  6
CONTINUOUS
100
AcDbPolyline
 90
        6
 70
     1
 43
0.0
 10
256.2960698465227
 20
270.2641618489648
 10
258.0704996677263
 20
270.7396136939099
 10
258.5459612023298
 20
272.5140409187773
 10
257.2469929157294
 20
273.8130162986996
 10
255.4725630945257
 20
273.3375644537549
 10
254.9971015599227
 20
271.5631372288871
  0
CIRCLE
  5
19385
330
18
100
AcDbEntity
  8
DIMENSION
  6
CONTINUOUS
100
AcDbCircle
 10
262.2082643564699
 20
294.6027994879991
 30
0.0
 40
2.0
  0
CIRCLE
  5
19386
330
18
100
AcDbEntity
  8
DIMENSION
  6
CONTINUOUS
100
AcDbCircle
 10
262.2082643564699
 20
294.6027994879991
 30
0.0
 40
1.6
  0
LWPOLYLINE
  5
1939D
330
18
100
AcDbEntity
  8
DIMENSION
  6
CONTINUOUS
100
AcDbPolyline
 90
        6
 70
     1
 43
0.0
 10
280.3300455904023
 20
353.8133700307527
 10
280.8055071250054
 20
355.5877972556203
 10
279.5065388384052
 20
356.8867726355428
 10
277.7321090172017
 20
356.4113207905978
 10
277.2566474825984
 20
354.6368935657302
 10
278.5556157691988
 20
353.3379181858077
  0
CIRCLE
  5
1939E
330
18
100
AcDbEntity
  8
DIMENSION
  6
CONTINUOUS
100
AcDbCircle
 10
279.0310773038013
 20
355.1123454106751
 30
0.0
 40
3.499999999924998
  0
CIRCLE
  5
1939F
330
18
100
AcDbEntity
  8
0
100
AcDbCircle
 10
279.0310773038012
 20
355.1123454106749
 30
0.0
 40
4.0
  0
CIRCLE
  5
193A0
330
18
100
AcDbEntity
  8
DIMENSION
  6
CONTINUOUS
100
AcDbCircle
 10
279.0310773038019
 20
310.593253565322
 30
0.0
 40
3.499999999924998
  0
CIRCLE
  5
193A1
330
18
100
AcDbEntity
  8
0
100
AcDbCircle
 10
279.0310773038013
 20
310.5932535653217
 30
0.0
 40
4.0
  0
LWPOLYLINE
  5
193A2
330
18
100
AcDbEntity
  8
DIMENSION
  6
CONTINUOUS
100
AcDbPolyline
 90
        6
 70
     1
 43
0.0
 10
279.5065291487476
 20
308.818823744118
 10
280.8055045286701
 20
310.1177920307187
 10
280.3300526837251
 20
311.892221851922
 10
278.5556254588577
 20
312.3676833865252
 10
277.2566500789351
 20
311.0687150999248
 10
277.7321019238801
 20
309.2942852787213
  0
CIRCLE
  5
193A3
330
18
100
AcDbEntity
  8
DIMENSION
  6
CONTINUOUS
100
AcDbCircle
 10
271.2951140723934
 20
319.5687138964791
 30
0.0
 40
2.0
  0
CIRCLE
  5
193A4
330
18
100
AcDbEntity
  8
DIMENSION
  6
CONTINUOUS
100
AcDbCircle
 10
271.2951140723934
 20
319.5687138964791
 30
0.0
 40
1.6
  0
CIRCLE
  5
193A8
330
18
100
AcDbEntity
  8
細線
100
AcDbCircle
 10
270.9573209669593
 20
332.8527994879973
 30
0.0
 40
3.0
  0
CIRCLE
  5
193A9
330
18
100
AcDbEntity
  8
0
100
AcDbCircle
 10
270.9573209669593
 20
332.8527994879973
 30
0.0
 40
2.25
  0
CIRCLE
  5
193AA
330
18
100
AcDbEntity
  8
DIMENSION
  6
CONTINUOUS
100
AcDbCircle
 10
271.2951140723927
 20
346.1368850795196
 30
0.0
 40
2.0
  0
CIRCLE
  5
193AB
330
18
100
AcDbEntity
  8
DIMENSION
  6
CONTINUOUS
100
AcDbCircle
 10
271.2951140723927
 20
346.1368850795196
 30
0.0
 40
1.6
  0
CIRCLE
  5
193AC
330
18
100
AcDbEntity
  8
DIMENSION
  6
CONTINUOUS
100
AcDbCircle
 10
262.2082643564699
 20
371.1027994879955
 30
0.0
 40
2.0
  0
CIRCLE
  5
193AD
330
18
100
AcDbEntity
  8
DIMENSION
  6
CONTINUOUS
100
AcDbCircle
 10
262.2082643564699
 20
371.1027994879955
 30
0.0
 40
1.6
  0
CIRCLE
  5
193AE
330
18
100
AcDbEntity
  8
DIMENSION
  6
CONTINUOUS
100
AcDbCircle
 10
245.1305731079812
 20
391.4551993865982
 30
0.0
 40
1.6
  0
CIRCLE
  5
193AF
330
18
100
AcDbEntity
  8
DIMENSION
  6
CONTINUOUS
100
AcDbCircle
 10
245.1305731079812
 20
391.4551993865982
 30
0.0
 40
2.0
  0
CIRCLE
  5
193D0
330
18
100
AcDbEntity
  8
0
100
AcDbCircle
 10
218.2168668896372
 20
415.9265558248391
 30
0.0
 40
4.0
  0
CIRCLE
  5
193D1
330
18
100
AcDbEntity
  8
DIMENSION
  6
CONTINUOUS
100
AcDbCircle
 10
218.2168668896375
 20
415.9265558248393
 30
0.0
 40
3.499999999924998
  0
CIRCLE
  5
193D2
330
18
100
AcDbEntity
  8
DIMENSION
  6
CONTINUOUS
100
AcDbCircle
 10
222.1218619313747
 20
404.7392849781182
 30
0.0
 40
2.0
  0
CIRCLE
  5
193D3
330
18
100
AcDbEntity
  8
DIMENSION
  6
CONTINUOUS
100
AcDbCircle
 10
222.1218619313747
 20
404.7392849781182
 30
0.0
 40
1.6
  0
LWPOLYLINE
  5
193D4
330
18
100
AcDbEntity
  8
DIMENSION
  6
CONTINUOUS
100
AcDbPolyline
 90
        6
 70
     1
 43
0.0
 10
216.9178915097148
 20
417.2255241114402
 10
218.6923187345824
 20
417.7009856460434
 10
219.9912941145049
 20
416.4020173594431
 10
219.51584226956
 20
414.6275875382396
 10
217.7414150446926
 20
414.1521260036364
 10
216.4424396647701
 20
415.4510942902366
  0
CIRCLE
  5
193D5
330
18
100
AcDbEntity
  8
0
100
AcDbCircle
 10
233.4573209669591
 20
397.8047047718301
 30
0.0
 40
2.25
  0
CIRCLE
  5
19491
330
18
100
AcDbEntity
  8
DIMENSION
  6
CONTINUOUS
100
AcDbCircle
 10
151.9573209669592
 20
332.8527994879975
 30
0.0
 40
4.25
  0
CIRCLE
  5
19492
330
18
100
AcDbEntity
  8
0
100
AcDbCircle
 10
151.9573209669592
 20
332.8527994879975
 30
0.0
 40
4.75
  0
LINE
  5
19493
330
18
100
AcDbEntity
  8
DIMENSION
  6
CONTINUOUS
100
AcDbLine
 10
153.1120215669593
 20
334.8527994879975
 30
0.0
 11
154.2667224669593
 21
332.8527994879975
 31
0.0
  0
LINE
  5
19494
330
18
100
AcDbEntity
  8
DIMENSION
  6
CONTINUOUS
100
AcDbLine
 10
150.8026204669592
 20
334.8527994879975
 30
0.0
 11
153.1120214669592
 21
334.8527994879975
 31
0.0
  0
LINE
  5
19495
330
18
100
AcDbEntity
  8
DIMENSION
  6
CONTINUOUS
100
AcDbLine
 10
149.6479199669593
 20
332.8527994879975
 30
0.0
 11
150.8026207669593
 21
330.8527984879975
 31
0.0
  0
LINE
  5
19496
330
18
100
AcDbEntity
  8
DIMENSION
  6
CONTINUOUS
100
AcDbLine
 10
154.2667219669592
 20
332.8527994879975
 30
0.0
 11
153.1120211669592
 21
330.8527984879975
 31
0.0
  0
LINE
  5
19497
330
18
100
AcDbEntity
  8
DIMENSION
  6
CONTINUOUS
100
AcDbLine
 10
150.8026204669592
 20
330.8527994879975
 30
0.0
 11
153.1120214669592
 21
330.8527994879975
 31
0.0
  0
LINE
  5
19498
330
18
100
AcDbEntity
  8
DIMENSION
  6
CONTINUOUS
100
AcDbLine
 10
149.6479194669593
 20
332.8527994879975
 30
0.0
 11
150.8026203669593
 21
334.8527994879975
 31
0.0
  0
LINE
  5
1953F
330
18
100
AcDbEntity
  8
中心線
100
AcDbLine
 10
403.2832833827668
 20
455.8527994879972
 30
0.0
 11
415.1121503200654
 21
455.8527994879972
 31
0.0
  0
LINE
  5
19540
330
18
100
AcDbEntity
  8
ｷｬｯﾌ_ﾎ_ﾙﾄ
100
AcDbLine
 10
406.5462774292411
 20
458.3027994879969
 30
0.0
 11
406.5462774292411
 21
453.4027994879973
 31
0.0
  0
LINE
  5
19541
330
18
100
AcDbEntity
  8
ｷｬｯﾌ_ﾎ_ﾙﾄ
100
AcDbLine
 10
406.8462774292411
 20
459.3527994879972
 30
0.0
 11
406.8462774292411
 21
452.3527994879972
 31
0.0
  0
LINE
  5
19542
330
18
100
AcDbEntity
  8
ｷｬｯﾌ_ﾎ_ﾙﾄ
100
AcDbLine
 10
407.3462774292408
 20
459.3527994879972
 30
0.0
 11
407.3462774292408
 21
452.3527994879972
 31
0.0
  0
LINE
  5
19543
330
18
100
AcDbEntity
  8
ｷｬｯﾌ_ﾎ_ﾙﾄ
100
AcDbLine
 10
406.8462774292411
 20
452.3527994879972
 30
0.0
 11
407.3462774292408
 21
452.3527994879972
 31
0.0
  0
LINE
  5
19544
330
18
100
AcDbEntity
  8
ｷｬｯﾌ_ﾎ_ﾙﾄ
100
AcDbLine
 10
406.8462774292411
 20
452.3527994879972
 30
0.0
 11
406.5462774292411
 21
453.4027994879973
 31
0.0
  0
LINE
  5
19545
330
18
100
AcDbEntity
  8
ｷｬｯﾌ_ﾎ_ﾙﾄ
100
AcDbLine
 10
406.8462774292411
 20
459.3527994879972
 30
0.0
 11
407.3462774292408
 21
459.3527994879972
 31
0.0
  0
LINE
  5
19546
330
18
100
AcDbEntity
  8
ｷｬｯﾌ_ﾎ_ﾙﾄ
100
AcDbLine
 10
406.8462774292411
 20
459.3527994879972
 30
0.0
 11
406.5462774292411
 21
458.3027994879969
 31
0.0
  0
LINE
  5
19547
330
18
100
AcDbEntity
  8
中心線
100
AcDbLine
 10
403.2832833827668
 20
209.8527994879971
 30
0.0
 11
415.1121503200651
 21
209.8527994879971
 31
0.0
  0
LINE
  5
19548
330
18
100
AcDbEntity
  8
ｷｬｯﾌ_ﾎ_ﾙﾄ
100
AcDbLine
 10
406.5462774292408
 20
212.302799487997
 30
0.0
 11
406.5462774292408
 21
207.4027994879974
 31
0.0
  0
LINE
  5
19549
330
18
100
AcDbEntity
  8
ｷｬｯﾌ_ﾎ_ﾙﾄ
100
AcDbLine
 10
406.8462774292411
 20
213.3527994879969
 30
0.0
 11
406.8462774292411
 21
206.352799487997
 31
0.0
  0
LINE
  5
1954A
330
18
100
AcDbEntity
  8
ｷｬｯﾌ_ﾎ_ﾙﾄ
100
AcDbLine
 10
407.3462774292407
 20
213.3527994879969
 30
0.0
 11
407.3462774292407
 21
206.352799487997
 31
0.0
  0
LINE
  5
1954B
330
18
100
AcDbEntity
  8
ｷｬｯﾌ_ﾎ_ﾙﾄ
100
AcDbLine
 10
406.8462774292411
 20
206.352799487997
 30
0.0
 11
407.3462774292407
 21
206.352799487997
 31
0.0
  0
LINE
  5
1954C
330
18
100
AcDbEntity
  8
ｷｬｯﾌ_ﾎ_ﾙﾄ
100
AcDbLine
 10
406.8462774292411
 20
206.352799487997
 30
0.0
 11
406.5462774292408
 21
207.4027994879974
 31
0.0
  0
LINE
  5
1954D
330
18
100
AcDbEntity
  8
ｷｬｯﾌ_ﾎ_ﾙﾄ
100
AcDbLine
 10
406.8462774292411
 20
213.3527994879969
 30
0.0
 11
407.3462774292407
 21
213.3527994879969
 31
0.0
  0
LINE
  5
1954E
330
18
100
AcDbEntity
  8
ｷｬｯﾌ_ﾎ_ﾙﾄ
100
AcDbLine
 10
406.8462774292411
 20
213.3527994879969
 30
0.0
 11
406.5462774292408
 21
212.302799487997
 31
0.0
  0
CIRCLE
  5
19578
330
18
100
AcDbEntity
  8
0
100
AcDbCircle
 10
697.8891930733135
 20
332.8527994879973
 30
0.0
 40
127.0
  0
CIRCLE
  5
195B8
102
{ACAD_REACTORS
330
1A0F5
102
}
330
18
100
AcDbEntity
  8
細線
100
AcDbCircle
 10
195.9573209669591
 20
455.8527994879972
 30
0.0
 40
3.5
  0
ARC
  5
195B9
102
{ACAD_REACTORS
330
1A0F5
102
}
330
18
100
AcDbEntity
  8
細線
100
AcDbCircle
 10
196.8926284030461
 20
456.3927994879973
 30
0.0
 40
0.5
100
AcDbArc
 50
162.3463876628238
 51
257.6536123371762
  0
CIRCLE
  5
195BA
102
{ACAD_REACTORS
330
1A0F5
102
}
330
18
100
AcDbEntity
  8
細線
100
AcDbCircle
 10
195.9573209669591
 20
455.8527994879972
 30
0.0
 40
0.8299999999999998
  0
ARC
  5
195BB
102
{ACAD_REACTORS
330
1A0F5
102
}
330
18
100
AcDbEntity
  8
細線
100
AcDbCircle
 10
195.022013530872
 20
456.3927994879973
 30
0.0
 40
0.5
100
AcDbArc
 50
282.3463876628252
 51
17.65361233717602
  0
ARC
  5
195BC
102
{ACAD_REACTORS
330
1A0F5
102
}
330
18
100
AcDbEntity
  8
細線
100
AcDbCircle
 10
195.9573209669591
 20
456.9327994879972
 30
0.0
 40
0.5
100
AcDbArc
 50
222.3463876628239
 51
317.6536123371758
  0
ARC
  5
195BD
102
{ACAD_REACTORS
330
1A0F5
102
}
330
18
100
AcDbEntity
  8
細線
100
AcDbCircle
 10
196.8926284030461
 20
455.3127994879972
 30
0.0
 40
0.5
100
AcDbArc
 50
102.3463876628252
 51
197.653612337176
  0
ARC
  5
195BE
102
{ACAD_REACTORS
330
1A0F5
102
}
330
18
100
AcDbEntity
  8
細線
100
AcDbCircle
 10
195.0220135308718
 20
455.3127994879972
 30
0.0
 40
0.5
100
AcDbArc
 50
342.3463876628238
 51
77.65361233717634
  0
ARC
  5
195BF
102
{ACAD_REACTORS
330
1A0F5
102
}
330
18
100
AcDbEntity
  8
細線
100
AcDbCircle
 10
195.9573209669591
 20
454.7727994879973
 30
0.0
 40
0.5
100
AcDbArc
 50
42.3463876628241
 51
137.6536123371759
  0
CIRCLE
  5
195C2
330
18
100
AcDbEntity
  8
細線
100
AcDbCircle
 10
108.983186881014
 20
419.8269335739428
 30
0.0
 40
3.5
  0
ARC
  5
195C3
330
18
100
AcDbEntity
  8
細線
100
AcDbCircle
 10
109.2627114497245
 20
420.8701334663348
 30
0.0
 40
0.5
100
AcDbArc
 50
207.346387662824
 51
302.6536123371763
  0
CIRCLE
  5
195C4
330
18
100
AcDbEntity
  8
細線
100
AcDbCircle
 10
108.983186881014
 20
419.8269335739428
 30
0.0
 40
0.8299999999999998
  0
ARC
  5
195C5
330
18
100
AcDbEntity
  8
細線
100
AcDbCircle
 10
107.9399869886217
 20
419.5474090052321
 30
0.0
 40
0.5
100
AcDbArc
 50
327.3463876628253
 51
62.65361233717603
  0
ARC
  5
195C6
330
18
100
AcDbEntity
  8
細線
100
AcDbCircle
 10
108.2195115573324
 20
420.5906088976242
 30
0.0
 40
0.5
100
AcDbArc
 50
267.3463876628241
 51
2.653612337175879
  0
ARC
  5
195C7
330
18
100
AcDbEntity
  8
細線
100
AcDbCircle
 10
110.026386773406
 20
420.1064581426535
 30
0.0
 40
0.5
100
AcDbArc
 50
147.3463876628253
 51
242.6536123371759
  0
ARC
  5
195C8
330
18
100
AcDbEntity
  8
細線
100
AcDbCircle
 10
108.7036623123032
 20
418.7837336815505
 30
0.0
 40
0.5
100
AcDbArc
 50
27.34638766282392
 51
122.6536123371763
  0
ARC
  5
195C9
330
18
100
AcDbEntity
  8
細線
100
AcDbCircle
 10
109.7468622046953
 20
419.0632582502614
 30
0.0
 40
0.5
100
AcDbArc
 50
87.3463876628241
 51
182.6536123371757
  0
CIRCLE
  5
195CA
330
18
100
AcDbEntity
  8
細線
100
AcDbCircle
 10
72.9573209669593
 20
332.8527994879975
 30
0.0
 40
3.5
  0
ARC
  5
195CB
330
18
100
AcDbEntity
  8
細線
100
AcDbCircle
 10
72.41732096695909
 20
333.7881069240848
 30
0.0
 40
0.5
100
AcDbArc
 50
252.3463876628238
 51
347.6536123371761
  0
CIRCLE
  5
195CC
330
18
100
AcDbEntity
  8
細線
100
AcDbCircle
 10
72.9573209669593
 20
332.8527994879975
 30
0.0
 40
0.8299999999999998
  0
ARC
  5
195CD
330
18
100
AcDbEntity
  8
細線
100
AcDbCircle
 10
72.41732096695909
 20
331.9174920519103
 30
0.0
 40
0.5
100
AcDbArc
 50
12.34638766282531
 51
107.653612337176
  0
ARC
  5
195CE
330
18
100
AcDbEntity
  8
細線
100
AcDbCircle
 10
71.87732096695913
 20
332.8527994879975
 30
0.0
 40
0.5
100
AcDbArc
 50
312.3463876628242
 51
47.65361233717587
  0
ARC
  5
195CF
330
18
100
AcDbEntity
  8
細線
100
AcDbCircle
 10
73.49732096695927
 20
333.7881069240848
 30
0.0
 40
0.5
100
AcDbArc
 50
192.3463876628253
 51
287.653612337176
  0
ARC
  5
195D0
330
18
100
AcDbEntity
  8
細線
100
AcDbCircle
 10
73.49732096695927
 20
331.9174920519103
 30
0.0
 40
0.5
100
AcDbArc
 50
72.34638766282394
 51
167.6536123371763
  0
ARC
  5
195D1
330
18
100
AcDbEntity
  8
細線
100
AcDbCircle
 10
74.03732096695922
 20
332.8527994879975
 30
0.0
 40
0.5
100
AcDbArc
 50
132.346387662824
 51
227.6536123371759
  0
CIRCLE
  5
195D2
330
18
100
AcDbEntity
  8
細線
100
AcDbCircle
 10
108.9831868810138
 20
245.8786654020523
 30
0.0
 40
3.5
  0
ARC
  5
195D3
330
18
100
AcDbEntity
  8
細線
100
AcDbCircle
 10
107.9399869886215
 20
246.1581899707629
 30
0.0
 40
0.5
100
AcDbArc
 50
297.3463876628238
 51
32.65361233717632
  0
CIRCLE
  5
195D4
330
18
100
AcDbEntity
  8
細線
100
AcDbCircle
 10
108.9831868810138
 20
245.8786654020523
 30
0.0
 40
0.8299999999999998
  0
ARC
  5
195D5
330
18
100
AcDbEntity
  8
細線
100
AcDbCircle
 10
109.2627114497244
 20
244.8354655096601
 30
0.0
 40
0.5
100
AcDbArc
 50
57.34638766282526
 51
152.6536123371759
  0
ARC
  5
195D6
330
18
100
AcDbEntity
  8
細線
100
AcDbCircle
 10
108.2195115573322
 20
245.1149900783708
 30
0.0
 40
0.5
100
AcDbArc
 50
357.346387662824
 51
92.65361233717589
  0
ARC
  5
195D7
330
18
100
AcDbEntity
  8
細線
100
AcDbCircle
 10
108.7036623123028
 20
246.9218652944443
 30
0.0
 40
0.5
100
AcDbArc
 50
237.3463876628253
 51
332.653612337176
  0
ARC
  5
195D8
330
18
100
AcDbEntity
  8
細線
100
AcDbCircle
 10
110.0263867734058
 20
245.5991408333416
 30
0.0
 40
0.5
100
AcDbArc
 50
117.3463876628239
 51
212.6536123371763
  0
ARC
  5
195D9
330
18
100
AcDbEntity
  8
細線
100
AcDbCircle
 10
109.7468622046951
 20
246.6423407257336
 30
0.0
 40
0.5
100
AcDbArc
 50
177.3463876628239
 51
272.6536123371758
  0
CIRCLE
  5
195DA
330
18
100
AcDbEntity
  8
細線
100
AcDbCircle
 10
195.9573209669587
 20
209.8527994879975
 30
0.0
 40
3.5
  0
ARC
  5
195DB
330
18
100
AcDbEntity
  8
細線
100
AcDbCircle
 10
195.0220135308717
 20
209.3127994879975
 30
0.0
 40
0.5
100
AcDbArc
 50
342.3463876628238
 51
77.65361233717626
  0
CIRCLE
  5
195DC
330
18
100
AcDbEntity
  8
細線
100
AcDbCircle
 10
195.9573209669587
 20
209.8527994879975
 30
0.0
 40
0.8299999999999998
  0
ARC
  5
195DD
330
18
100
AcDbEntity
  8
細線
100
AcDbCircle
 10
196.892628403046
 20
209.3127994879975
 30
0.0
 40
0.5
100
AcDbArc
 50
102.3463876628252
 51
197.653612337176
  0
ARC
  5
195DE
330
18
100
AcDbEntity
  8
細線
100
AcDbCircle
 10
195.9573209669587
 20
208.7727994879974
 30
0.0
 40
0.5
100
AcDbArc
 50
42.34638766282411
 51
137.6536123371759
  0
ARC
  5
195DF
330
18
100
AcDbEntity
  8
細線
100
AcDbCircle
 10
195.0220135308716
 20
210.3927994879974
 30
0.0
 40
0.5
100
AcDbArc
 50
282.3463876628252
 51
17.65361233717596
  0
ARC
  5
195E0
330
18
100
AcDbEntity
  8
細線
100
AcDbCircle
 10
196.892628403046
 20
210.3927994879974
 30
0.0
 40
0.5
100
AcDbArc
 50
162.3463876628238
 51
257.6536123371762
  0
ARC
  5
195E1
330
18
100
AcDbEntity
  8
細線
100
AcDbCircle
 10
195.9573209669587
 20
210.9327994879975
 30
0.0
 40
0.5
100
AcDbArc
 50
222.3463876628239
 51
317.6536123371758
  0
CIRCLE
  5
195E2
330
18
100
AcDbEntity
  8
細線
100
AcDbCircle
 10
282.9314550529042
 20
245.878665402052
 30
0.0
 40
3.5
  0
ARC
  5
195E3
330
18
100
AcDbEntity
  8
細線
100
AcDbCircle
 10
282.6519304841932
 20
244.8354655096599
 30
0.0
 40
0.5
100
AcDbArc
 50
27.34638766282395
 51
122.6536123371763
  0
CIRCLE
  5
195E4
330
18
100
AcDbEntity
  8
細線
100
AcDbCircle
 10
282.9314550529042
 20
245.878665402052
 30
0.0
 40
0.8299999999999998
  0
ARC
  5
195E5
330
18
100
AcDbEntity
  8
細線
100
AcDbCircle
 10
283.9746549452963
 20
246.1581899707628
 30
0.0
 40
0.5
100
AcDbArc
 50
147.3463876628253
 51
242.6536123371759
  0
ARC
  5
195E6
330
18
100
AcDbEntity
  8
細線
100
AcDbCircle
 10
283.6951303765856
 20
245.1149900783704
 30
0.0
 40
0.5
100
AcDbArc
 50
87.34638766282406
 51
182.6536123371757
  0
ARC
  5
195E7
330
18
100
AcDbEntity
  8
細線
100
AcDbCircle
 10
281.888255160512
 20
245.5991408333413
 30
0.0
 40
0.5
100
AcDbArc
 50
327.3463876628253
 51
62.653612337176
  0
ARC
  5
195E8
330
18
100
AcDbEntity
  8
細線
100
AcDbCircle
 10
283.2109796216149
 20
246.9218652944443
 30
0.0
 40
0.5
100
AcDbArc
 50
207.3463876628239
 51
302.6536123371763
  0
ARC
  5
195E9
330
18
100
AcDbEntity
  8
細線
100
AcDbCircle
 10
282.1677797292227
 20
246.6423407257334
 30
0.0
 40
0.5
100
AcDbArc
 50
267.3463876628241
 51
2.653612337175863
  0
CIRCLE
  5
195EA
330
18
100
AcDbEntity
  8
細線
100
AcDbCircle
 10
318.9573209669587
 20
332.8527994879971
 30
0.0
 40
3.5
  0
ARC
  5
195EB
330
18
100
AcDbEntity
  8
細線
100
AcDbCircle
 10
319.4973209669587
 20
331.91749205191
 30
0.0
 40
0.5
100
AcDbArc
 50
72.3463876628239
 51
167.6536123371763
  0
CIRCLE
  5
195EC
330
18
100
AcDbEntity
  8
細線
100
AcDbCircle
 10
318.9573209669587
 20
332.8527994879971
 30
0.0
 40
0.8299999999999998
  0
ARC
  5
195ED
330
18
100
AcDbEntity
  8
細線
100
AcDbCircle
 10
319.4973209669587
 20
333.7881069240843
 30
0.0
 40
0.5
100
AcDbArc
 50
192.3463876628253
 51
287.6536123371758
  0
ARC
  5
195EE
330
18
100
AcDbEntity
  8
細線
100
AcDbCircle
 10
320.0373209669588
 20
332.8527994879971
 30
0.0
 40
0.5
100
AcDbArc
 50
132.346387662824
 51
227.6536123371759
  0
ARC
  5
195EF
330
18
100
AcDbEntity
  8
細線
100
AcDbCircle
 10
318.4173209669588
 20
331.91749205191
 30
0.0
 40
0.5
100
AcDbArc
 50
12.34638766282526
 51
107.6536123371757
  0
ARC
  5
195F0
330
18
100
AcDbEntity
  8
細線
100
AcDbCircle
 10
318.4173209669588
 20
333.7881069240843
 30
0.0
 40
0.5
100
AcDbArc
 50
252.3463876628238
 51
347.6536123371761
  0
ARC
  5
195F1
330
18
100
AcDbEntity
  8
細線
100
AcDbCircle
 10
317.8773209669587
 20
332.8527994879971
 30
0.0
 40
0.5
100
AcDbArc
 50
312.3463876628238
 51
47.65361233717579
  0
CIRCLE
  5
195F2
330
18
100
AcDbEntity
  8
細線
100
AcDbCircle
 10
282.9314550529043
 20
419.8269335739423
 30
0.0
 40
3.5
  0
ARC
  5
195F3
330
18
100
AcDbEntity
  8
細線
100
AcDbCircle
 10
283.9746549452966
 20
419.5474090052317
 30
0.0
 40
0.5
100
AcDbArc
 50
117.3463876628239
 51
212.6536123371763
  0
CIRCLE
  5
195F4
330
18
100
AcDbEntity
  8
細線
100
AcDbCircle
 10
282.9314550529043
 20
419.8269335739423
 30
0.0
 40
0.8299999999999998
  0
ARC
  5
195F5
330
18
100
AcDbEntity
  8
細線
100
AcDbCircle
 10
282.6519304841937
 20
420.8701334663346
 30
0.0
 40
0.5
100
AcDbArc
 50
237.3463876628253
 51
332.6536123371758
  0
ARC
  5
195F6
330
18
100
AcDbEntity
  8
細線
100
AcDbCircle
 10
283.6951303765857
 20
420.5906088976239
 30
0.0
 40
0.5
100
AcDbArc
 50
177.3463876628239
 51
272.6536123371758
  0
ARC
  5
195F7
330
18
100
AcDbEntity
  8
細線
100
AcDbCircle
 10
283.2109796216149
 20
418.7837336815503
 30
0.0
 40
0.5
100
AcDbArc
 50
57.34638766282529
 51
152.6536123371759
  0
ARC
  5
195F8
330
18
100
AcDbEntity
  8
細線
100
AcDbCircle
 10
281.8882551605121
 20
420.1064581426532
 30
0.0
 40
0.5
100
AcDbArc
 50
297.3463876628238
 51
32.65361233717626
  0
ARC
  5
195F9
330
18
100
AcDbEntity
  8
細線
100
AcDbCircle
 10
282.1677797292227
 20
419.063258250261
 30
0.0
 40
0.5
100
AcDbArc
 50
357.346387662824
 51
92.65361233717577
  0
CIRCLE
  5
195FB
330
18
100
AcDbEntity
  8
0
100
AcDbCircle
 10
195.9573209669592
 20
332.8527994879976
 30
0.0
 40
55.0
  0
CIRCLE
  5
195FC
330
18
100
AcDbEntity
  8
DIMENSION
  6
CONTINUOUS
100
AcDbCircle
 10
173.9573209669591
 20
294.7476817214823
 30
0.0
 40
4.25
  0
CIRCLE
  5
195FD
330
18
100
AcDbEntity
  8
0
100
AcDbCircle
 10
173.9573209669591
 20
294.7476817214823
 30
0.0
 40
4.75
  0
LINE
  5
195FE
330
18
100
AcDbEntity
  8
DIMENSION
  6
CONTINUOUS
100
AcDbLine
 10
172.8026204593902
 20
296.7476817748476
 30
0.0
 11
175.1120217169591
 21
296.7476820880201
 31
0.0
  0
LINE
  5
195FF
330
18
100
AcDbEntity
  8
DIMENSION
  6
CONTINUOUS
100
AcDbLine
 10
171.6479199093902
 20
294.7476817547197
 30
0.0
 11
172.8026204093902
 21
296.747681688245
 31
0.0
  0
LINE
  5
19600
330
18
100
AcDbEntity
  8
DIMENSION
  6
CONTINUOUS
100
AcDbLine
 10
172.802620466959
 20
292.7476817879571
 30
0.0
 11
175.1120225405534
 21
292.7476815145272
 31
0.0
  0
LINE
  5
19601
330
18
100
AcDbEntity
  8
DIMENSION
  6
CONTINUOUS
100
AcDbLine
 10
175.1120214669591
 20
296.7476816550075
 30
0.0
 11
176.2667227405534
 21
294.7476809284373
 31
0.0
  0
LINE
  5
19602
330
18
100
AcDbEntity
  8
DIMENSION
  6
CONTINUOUS
100
AcDbLine
 10
175.112021524528
 20
292.7476817547196
 30
0.0
 11
176.266722024528
 21
294.747681688245
 31
0.0
  0
LINE
  5
19603
330
18
100
AcDbEntity
  8
DIMENSION
  6
CONTINUOUS
100
AcDbLine
 10
172.8026202169592
 20
292.7476813549445
 30
0.0
 11
171.6479198593901
 21
294.7476816681172
 31
0.0
  0
CIRCLE
  5
19604
330
18
100
AcDbEntity
  8
DIMENSION
  6
CONTINUOUS
100
AcDbCircle
 10
217.9573209669589
 20
294.7476817214823
 30
0.0
 40
4.25
  0
CIRCLE
  5
19605
330
18
100
AcDbEntity
  8
0
100
AcDbCircle
 10
217.9573209669589
 20
294.7476817214823
 30
0.0
 40
4.75
  0
LINE
  5
19606
330
18
100
AcDbEntity
  8
DIMENSION
  6
CONTINUOUS
100
AcDbLine
 10
215.6479198593896
 20
294.7476817748473
 30
0.0
 11
216.8026202169588
 21
296.7476820880201
 31
0.0
  0
LINE
  5
19607
330
18
100
AcDbEntity
  8
DIMENSION
  6
CONTINUOUS
100
AcDbLine
 10
216.8026204093896
 20
292.7476817547196
 30
0.0
 11
215.6479199093897
 21
294.7476816882448
 31
0.0
  0
LINE
  5
19608
330
18
100
AcDbEntity
  8
DIMENSION
  6
CONTINUOUS
100
AcDbLine
 10
219.1120214669588
 20
292.7476817879571
 30
0.0
 11
220.2667227405531
 21
294.7476825145272
 31
0.0
  0
LINE
  5
19609
330
18
100
AcDbEntity
  8
DIMENSION
  6
CONTINUOUS
100
AcDbLine
 10
216.8026204669588
 20
296.7476816550075
 30
0.0
 11
219.1120225405531
 21
296.7476819284373
 31
0.0
  0
LINE
  5
1960A
330
18
100
AcDbEntity
  8
DIMENSION
  6
CONTINUOUS
100
AcDbLine
 10
220.2667220245277
 20
294.7476817547197
 30
0.0
 11
219.1120215245277
 21
296.7476816882448
 31
0.0
  0
LINE
  5
1960B
330
18
100
AcDbEntity
  8
DIMENSION
  6
CONTINUOUS
100
AcDbLine
 10
219.1120217169588
 20
292.7476813549444
 30
0.0
 11
216.8026204593899
 21
292.7476816681171
 31
0.0
  0
CIRCLE
  5
1960C
330
18
100
AcDbEntity
  8
DIMENSION
  6
CONTINUOUS
100
AcDbCircle
 10
239.9573209669587
 20
332.8527994879973
 30
0.0
 40
4.25
  0
CIRCLE
  5
1960D
330
18
100
AcDbEntity
  8
0
100
AcDbCircle
 10
239.9573209669587
 20
332.8527994879973
 30
0.0
 40
4.75
  0
LINE
  5
1960E
330
18
100
AcDbEntity
  8
DIMENSION
  6
CONTINUOUS
100
AcDbLine
 10
238.8026203669586
 20
330.8527994879973
 30
0.0
 11
237.6479194669587
 21
332.8527994879973
 31
0.0
  0
LINE
  5
1960F
330
18
100
AcDbEntity
  8
DIMENSION
  6
CONTINUOUS
100
AcDbLine
 10
241.1120214669588
 20
330.8527994879973
 30
0.0
 11
238.8026204669588
 21
330.8527994879973
 31
0.0
  0
LINE
  5
19610
330
18
100
AcDbEntity
  8
DIMENSION
  6
CONTINUOUS
100
AcDbLine
 10
242.2667219669587
 20
332.8527994879973
 30
0.0
 11
241.1120211669588
 21
334.8528004879973
 31
0.0
  0
LINE
  5
19611
330
18
100
AcDbEntity
  8
DIMENSION
  6
CONTINUOUS
100
AcDbLine
 10
237.6479199669587
 20
332.8527994879973
 30
0.0
 11
238.8026207669587
 21
334.8528004879973
 31
0.0
  0
LINE
  5
19612
330
18
100
AcDbEntity
  8
DIMENSION
  6
CONTINUOUS
100
AcDbLine
 10
241.1120214669588
 20
334.8527994879973
 30
0.0
 11
238.8026204669588
 21
334.8527994879973
 31
0.0
  0
LINE
  5
19613
330
18
100
AcDbEntity
  8
DIMENSION
  6
CONTINUOUS
100
AcDbLine
 10
242.2667224669587
 20
332.8527994879973
 30
0.0
 11
241.1120215669586
 21
330.8527994879973
 31
0.0
  0
CIRCLE
  5
19614
330
18
100
AcDbEntity
  8
DIMENSION
  6
CONTINUOUS
100
AcDbCircle
 10
217.957320966959
 20
370.9579172545125
 30
0.0
 40
4.25
  0
CIRCLE
  5
19615
330
18
100
AcDbEntity
  8
0
100
AcDbCircle
 10
217.957320966959
 20
370.9579172545125
 30
0.0
 40
4.75
  0
LINE
  5
19616
330
18
100
AcDbEntity
  8
DIMENSION
  6
CONTINUOUS
100
AcDbLine
 10
219.1120214745277
 20
368.9579172011473
 30
0.0
 11
216.8026202169588
 21
368.9579168879746
 31
0.0
  0
LINE
  5
19617
330
18
100
AcDbEntity
  8
DIMENSION
  6
CONTINUOUS
100
AcDbLine
 10
220.2667220245277
 20
370.9579172212751
 30
0.0
 11
219.1120215245279
 21
368.95791728775
 31
0.0
  0
LINE
  5
19618
330
18
100
AcDbEntity
  8
DIMENSION
  6
CONTINUOUS
100
AcDbLine
 10
219.112021466959
 20
372.9579171880377
 30
0.0
 11
216.8026193933646
 21
372.9579174614674
 31
0.0
  0
LINE
  5
19619
330
18
100
AcDbEntity
  8
DIMENSION
  6
CONTINUOUS
100
AcDbLine
 10
216.802620466959
 20
368.957917320987
 30
0.0
 11
215.6479191933643
 21
370.9579180475575
 31
0.0
  0
LINE
  5
1961A
330
18
100
AcDbEntity
  8
DIMENSION
  6
CONTINUOUS
100
AcDbLine
 10
216.80262040939
 20
372.9579172212751
 30
0.0
 11
215.64791990939
 21
370.95791728775
 31
0.0
  0
LINE
  5
1961B
330
18
100
AcDbEntity
  8
DIMENSION
  6
CONTINUOUS
100
AcDbLine
 10
219.112021716959
 20
372.9579176210503
 30
0.0
 11
220.2667220745279
 21
370.9579173078776
 31
0.0
  0
CIRCLE
  5
1961C
330
18
100
AcDbEntity
  8
DIMENSION
  6
CONTINUOUS
100
AcDbCircle
 10
173.9573209669592
 20
370.9579172545125
 30
0.0
 40
4.25
  0
CIRCLE
  5
1961D
330
18
100
AcDbEntity
  8
0
100
AcDbCircle
 10
173.9573209669592
 20
370.9579172545125
 30
0.0
 40
4.75
  0
LINE
  5
1961E
330
18
100
AcDbEntity
  8
DIMENSION
  6
CONTINUOUS
100
AcDbLine
 10
176.2667220745281
 20
370.9579172011473
 30
0.0
 11
175.1120217169592
 21
368.9579168879746
 31
0.0
  0
LINE
  5
1961F
330
18
100
AcDbEntity
  8
DIMENSION
  6
CONTINUOUS
100
AcDbLine
 10
175.112021524528
 20
372.9579172212751
 30
0.0
 11
176.2667220245281
 21
370.95791728775
 31
0.0
  0
LINE
  5
19620
330
18
100
AcDbEntity
  8
DIMENSION
  6
CONTINUOUS
100
AcDbLine
 10
172.8026204669593
 20
372.9579171880377
 30
0.0
 11
171.6479191933649
 21
370.9579164614672
 31
0.0
  0
LINE
  5
19621
330
18
100
AcDbEntity
  8
DIMENSION
  6
CONTINUOUS
100
AcDbLine
 10
175.1120214669592
 20
368.957917320987
 30
0.0
 11
172.8026193933649
 21
368.9579170475576
 31
0.0
  0
LINE
  5
19622
330
18
100
AcDbEntity
  8
DIMENSION
  6
CONTINUOUS
100
AcDbLine
 10
171.6479199093903
 20
370.9579172212751
 30
0.0
 11
172.8026204093903
 21
368.95791728775
 31
0.0
  0
LINE
  5
19623
330
18
100
AcDbEntity
  8
DIMENSION
  6
CONTINUOUS
100
AcDbLine
 10
172.8026202169592
 20
372.9579176210503
 30
0.0
 11
175.112021474528
 21
372.9579173078776
 31
0.0
  0
CIRCLE
  5
19756
330
18
100
AcDbEntity
  8
0
100
AcDbCircle
 10
746.1325745763064
 20
305.005072876967
 30
0.0
 40
2.5
  0
INSERT
  5
19757
330
18
100
AcDbEntity
  8
0
  6
CONTINUOUS
100
AcDbBlockReference
  2
*U39
 10
-33.85464579001382
 20
0.0
 30
0.0
1001
ACAD
1002
{
1000
R14_HATCH_DATA
1000
19757
1011
-32.85464579001382
1021
0.0
1031
0.0
1011
-33.85464579001382
1021
1.0
1031
0.0
1011
-33.85464579001382
1021
0.0
1031
1.0
1040
0.0
1010
0.0
1020
0.0
1030
1.0
1000
SOLID
1070
     1
1070
     0
1071
        2
1071
        7
1070
     1
1070
     1
1071
        3
1040
778.7372201802047
1040
302.8400094749595
1040
0.0
1040
779.9872203663198
1040
305.0050728769666
1040
0.0
1040
782.1522837683275
1040
303.7550726908513
1040
-0.4142135623730919
1071
        0
1071
        7
1070
     1
1070
     1
1071
        3
1040
779.9872203663205
1040
305.0050728769666
1040
0.0
1040
777.8221569643131
1040
306.2550730630823
1040
-0.4142135623730951
1040
781.2372205524352
1040
307.1701362789744
1040
0.0
1071
        0
1070
     0
1070
     1
1040
0.0576142688807724
1071
        2
1040
780.7693037007696
1040
303.5957489687703
1040
0.0
1040
780.1072154996996
1040
305.9072956972741
1040
0.0
1002
}
  0
CIRCLE
  5
19758
330
18
100
AcDbEntity
  8
0
100
AcDbCircle
 10
746.1325745763064
 20
305.005072876967
 30
0.0
 40
9.5
  0
LWPOLYLINE
  5
19759
330
18
100
AcDbEntity
  8
0
100
AcDbPolyline
 90
       12
 70
   129
 43
0.0
 10
754.7555584375335
 20
310.9962454941608
 42
-0.0418357922730061
 10
755.6325749607448
 20
309.4772080153176
 10
755.6325741918677
 20
300.532936105318
 42
-0.041835792273005
 10
754.7555574074944
 20
299.0138987772568
 10
747.0095903306411
 20
294.5417634881236
 42
-0.0418357922730106
 10
745.255557023056
 20
294.5417636389056
 10
737.5095907150798
 20
299.0139002597723
 42
-0.0418357922730243
 10
736.6325741918682
 20
300.5329377386161
 10
736.632574960745
 20
309.4772096486153
 42
-0.041835792273011
 10
737.5095917451184
 20
310.9962469766768
 10
745.2555588219719
 20
315.4683822658096
 42
-0.0418357922730047
 10
747.0095921295564
 20
315.4683821150275
  0
CIRCLE
  5
1975A
330
18
100
AcDbEntity
  8
0
100
AcDbCircle
 10
746.1325745763064
 20
305.005072876967
 30
0.0
 40
5.2
  0
CIRCLE
  5
1975B
330
18
100
AcDbEntity
  8
0
100
AcDbCircle
 10
746.1325745763064
 20
305.005072876967
 30
0.0
 40
4.5
  0
LINE
  5
1975D
330
18
100
AcDbEntity
  8
中心線
100
AcDbLine
 10
697.8891930733119
 20
332.8527994879963
 30
0.0
 11
762.844333711914
 21
295.3584750411812
 31
0.0
  0
ARC
  5
197E4
330
18
100
AcDbEntity
  8
0
100
AcDbCircle
 10
525.1511719657282
 20
284.9477571324438
 30
0.0
 40
22.1
100
AcDbArc
 50
0.0
 51
90.0
  0
ARC
  5
197E5
330
18
100
AcDbEntity
  8
0
100
AcDbCircle
 10
525.1511719657282
 20
284.9477571324438
 30
0.0
 40
17.9
100
AcDbArc
 50
0.0
 51
90.0
  0
LINE
  5
197E7
330
18
100
AcDbEntity
  8
中心線
100
AcDbLine
 10
451.8629960669263
 20
305.005072876967
 30
0.0
 11
489.1139771055133
 21
304.9707806753616
 31
0.0
  0
LINE
  5
197E8
330
18
100
AcDbEntity
  8
0
100
AcDbLine
 10
476.5462774292394
 20
315.505072876967
 30
0.0
 11
481.0462774292398
 21
310.2336443055391
 31
0.0
  0
LINE
  5
197E9
330
18
100
AcDbEntity
  8
0
100
AcDbLine
 10
476.5462774292394
 20
294.505072876967
 30
0.0
 11
481.0462774292398
 21
299.7765014483949
 31
0.0
  0
LINE
  5
197EB
330
18
100
AcDbEntity
  8
0
100
AcDbLine
 10
463.0462774292393
 20
315.505072876967
 30
0.0
 11
463.0462774292393
 21
294.505072876967
 31
0.0
  0
LINE
  5
197EC
330
18
100
AcDbEntity
  8
0
100
AcDbLine
 10
465.5462774292399
 20
315.505072876967
 30
0.0
 11
465.5462774292399
 21
294.505072876967
 31
0.0
  0
LINE
  5
197ED
330
18
100
AcDbEntity
  8
0
100
AcDbLine
 10
470.5462774292398
 20
315.505072876967
 30
0.0
 11
470.5462774292398
 21
294.505072876967
 31
0.0
  0
LINE
  5
197EE
330
18
100
AcDbEntity
  8
0
100
AcDbLine
 10
467.5462774292396
 20
314.505072876967
 30
0.0
 11
467.5462774292396
 21
295.5050728769668
 31
0.0
  0
LINE
  5
197EF
330
18
100
AcDbEntity
  8
0
100
AcDbLine
 10
477.5462774292393
 20
314.3336443055382
 30
0.0
 11
477.5462774292399
 21
295.6765014483958
 31
0.0
  0
ARC
  5
197F0
330
18
100
AcDbEntity
  8
0
100
AcDbCircle
 10
467.0462774292396
 20
305.005072876967
 30
0.0
 40
10.50000000000042
100
AcDbArc
 50
334.7912347032376
 51
25.2087652967624
  0
LINE
  5
197F1
330
18
100
AcDbEntity
  8
0
100
AcDbLine
 10
467.5462774292396
 20
295.5050728769668
 30
0.0
 11
470.5462774292398
 21
295.5050728769668
 31
0.0
  0
LINE
  5
197F2
330
18
100
AcDbEntity
  8
0
100
AcDbLine
 10
465.5462774292399
 20
300.5329369219676
 30
0.0
 11
463.0462774292393
 21
300.5329369219676
 31
0.0
  0
LINE
  5
197F3
330
18
100
AcDbEntity
  8
0
100
AcDbLine
 10
465.5462774292399
 20
299.0138995185152
 30
0.0
 11
463.0462774292393
 21
299.0138995185152
 31
0.0
  0
LINE
  5
197F4
330
18
100
AcDbEntity
  8
0
100
AcDbLine
 10
463.0462774292393
 20
294.505072876967
 30
0.0
 11
465.5462774292399
 21
294.505072876967
 31
0.0
  0
LINE
  5
197F5
330
18
100
AcDbEntity
  8
0
100
AcDbLine
 10
465.5462774292399
 20
297.6050728769665
 30
0.0
 11
467.5462774292396
 21
297.6050728769665
 31
0.0
  0
LINE
  5
197F6
330
18
100
AcDbEntity
  8
0
100
AcDbLine
 10
476.5462774292398
 20
300.5329369219676
 30
0.0
 11
476.5462774292398
 21
299.0138995185152
 31
0.0
  0
ARC
  5
197F7
330
18
100
AcDbEntity
  8
0
100
AcDbCircle
 10
468.5724809116705
 20
294.806157690377
 30
0.0
 40
9.015903847971632
100
AcDbArc
 50
5.539633318506221
 51
27.82043885583799
  0
LINE
  5
197F8
330
18
100
AcDbEntity
  8
0
100
AcDbLine
 10
476.5462774292398
 20
300.5329369219676
 30
0.0
 11
470.5462774292398
 21
300.5329369219676
 31
0.0
  0
LINE
  5
197F9
330
18
100
AcDbEntity
  8
0
100
AcDbLine
 10
476.5462774292398
 20
299.0138995185152
 30
0.0
 11
470.5462774292398
 21
299.0138995185152
 31
0.0
  0
LINE
  5
197FA
330
18
100
AcDbEntity
  8
0
100
AcDbLine
 10
470.5462774292398
 20
294.505072876967
 30
0.0
 11
476.5462774292394
 21
294.505072876967
 31
0.0
  0
LINE
  5
197FB
330
18
100
AcDbEntity
  8
0
100
AcDbLine
 10
467.5462774292396
 20
314.505072876967
 30
0.0
 11
470.5462774292398
 21
314.505072876967
 31
0.0
  0
LINE
  5
197FC
330
18
100
AcDbEntity
  8
0
100
AcDbLine
 10
463.0462774292393
 20
309.4772088319668
 30
0.0
 11
465.5462774292399
 21
309.4772088319668
 31
0.0
  0
LINE
  5
197FD
330
18
100
AcDbEntity
  8
0
100
AcDbLine
 10
463.0462774292393
 20
310.9962462354193
 30
0.0
 11
465.5462774292399
 21
310.9962462354193
 31
0.0
  0
LINE
  5
197FE
330
18
100
AcDbEntity
  8
0
100
AcDbLine
 10
465.5462774292399
 20
312.4050728769667
 30
0.0
 11
467.5462774292396
 21
312.4050728769667
 31
0.0
  0
LINE
  5
197FF
330
18
100
AcDbEntity
  8
0
100
AcDbLine
 10
476.5462774292398
 20
310.9962462354193
 30
0.0
 11
476.5462774292398
 21
309.4772088319668
 31
0.0
  0
ARC
  5
19800
330
18
100
AcDbEntity
  8
0
100
AcDbCircle
 10
468.5724809116705
 20
315.2039880635571
 30
0.0
 40
9.015903847971632
100
AcDbArc
 50
332.1795611441612
 51
354.4603666814936
  0
LINE
  5
19801
330
18
100
AcDbEntity
  8
0
100
AcDbLine
 10
470.5462774292398
 20
309.4772088319668
 30
0.0
 11
476.5462774292398
 21
309.4772088319668
 31
0.0
  0
LINE
  5
19802
330
18
100
AcDbEntity
  8
0
100
AcDbLine
 10
470.5462774292398
 20
310.9962462354193
 30
0.0
 11
476.5462774292398
 21
310.9962462354193
 31
0.0
  0
LINE
  5
19803
330
18
100
AcDbEntity
  8
0
100
AcDbLine
 10
463.0462774292393
 20
315.505072876967
 30
0.0
 11
465.5462774292399
 21
315.505072876967
 31
0.0
  0
LINE
  5
19804
330
18
100
AcDbEntity
  8
0
100
AcDbLine
 10
470.5462774292398
 20
315.505072876967
 30
0.0
 11
476.5462774292398
 21
315.505072876967
 31
0.0
  0
LINE
  5
19805
330
18
100
AcDbEntity
  8
0
100
AcDbLine
 10
481.0462774292398
 20
310.2336443055391
 30
0.0
 11
481.0462774292398
 21
299.7765014483949
 31
0.0
  0
LINE
  5
19806
330
18
100
AcDbEntity
  8
0
100
AcDbLine
 10
481.0462774292401
 20
302.9050728769663
 30
0.0
 11
525.1511719657282
 21
302.8477571324438
 31
0.0
  0
LINE
  5
19808
330
18
100
AcDbEntity
  8
0
100
AcDbLine
 10
481.0462774292398
 20
307.1050728769662
 30
0.0
 11
525.1511719657282
 21
307.0477571324439
 31
0.0
  0
LINE
  5
19C04
330
18
100
AcDbEntity
  8
２点鎖線
 48
0.5
100
AcDbLine
 10
381.8762811881346
 20
352.8288768239132
 30
0.0
 11
371.8762811881346
 21
342.8288768239132
 31
0.0
  0
LINE
  5
19C05
330
18
100
AcDbEntity
  8
２点鎖線
 48
0.5
100
AcDbLine
 10
422.0462775466615
 20
349.8288768239133
 30
0.0
 11
419.0462775466616
 21
352.8288768239133
 31
0.0
  0
LINE
  5
19C06
330
18
100
AcDbEntity
  8
中心線
100
AcDbLine
 10
391.8762811881348
 20
356.9473301602677
 30
0.0
 11
391.8762811881348
 21
308.8649137367732
 31
0.0
  0
LINE
  5
19C07
330
18
100
AcDbEntity
  8
２点鎖線
 48
0.5
100
AcDbLine
 10
419.0462775466616
 20
312.828876823913
 30
0.0
 11
381.8762811881346
 21
312.8288768239132
 31
0.0
  0
CIRCLE
  5
19C08
330
18
100
AcDbEntity
  8
２点鎖線
 48
0.5
100
AcDbCircle
 10
391.8762811881351
 20
332.8288768239928
 30
0.0
 40
10.0
  0
LINE
  5
19C09
330
18
100
AcDbEntity
  8
２点鎖線
 48
0.5
100
AcDbLine
 10
371.8762811881346
 20
322.8288768239132
 30
0.0
 11
371.8762811881346
 21
342.8288768239132
 31
0.0
  0
LINE
  5
19C0A
330
18
100
AcDbEntity
  8
２点鎖線
 48
0.5
100
AcDbLine
 10
371.8762811881346
 20
322.8288768239132
 30
0.0
 11
381.8762811881346
 21
312.8288768239132
 31
0.0
  0
CIRCLE
  5
19C0B
330
18
100
AcDbEntity
  8
２点鎖線
 48
0.5
100
AcDbCircle
 10
415.0462775466611
 20
322.8527994879963
 30
0.0
 40
4.25
  0
LINE
  5
19C0C
330
18
100
AcDbEntity
  8
CENTER
 48
0.5
100
AcDbLine
 10
415.0462775466611
 20
348.8085861906343
 30
0.0
 11
415.0462775466611
 21
316.014814517393
 31
0.0
  0
LINE
  5
19C0D
330
18
100
AcDbEntity
  8
２点鎖線
 48
0.5
100
AcDbLine
 10
422.0462775466615
 20
349.8288768239133
 30
0.0
 11
422.0462775466615
 21
315.8288768239131
 31
0.0
  0
LINE
  5
19C0E
330
18
100
AcDbEntity
  8
２点鎖線
 48
0.5
100
AcDbLine
 10
422.0462775466615
 20
315.8288768239131
 30
0.0
 11
419.0462775466616
 21
312.828876823913
 31
0.0
  0
LINE
  5
19C0F
330
18
100
AcDbEntity
  8
中心線
 48
0.5
100
AcDbLine
 10
408.9657923455614
 20
322.8527994879963
 30
0.0
 11
420.9939055446218
 21
322.8527994879963
 31
0.0
  0
CIRCLE
  5
19C10
330
18
100
AcDbEntity
  8
２点鎖線
 48
0.5
100
AcDbCircle
 10
415.0462775466611
 20
342.8527994879964
 30
0.0
 40
4.25
  0
LINE
  5
19C11
330
18
100
AcDbEntity
  8
中心線
 48
0.5
100
AcDbLine
 10
408.9657923455614
 20
342.8527994879964
 30
0.0
 11
420.9939055446218
 21
342.8527994879964
 31
0.0
  0
LINE
  5
19C12
330
18
100
AcDbEntity
  8
２点鎖線
 48
0.5
100
AcDbLine
 10
381.8762811881346
 20
352.8288768239132
 30
0.0
 11
419.0462775466616
 21
352.8288768239133
 31
0.0
  0
LINE
  5
19C37
330
18
100
AcDbEntity
  8
仮想線
  6
BYBLOCK
 48
0.5
100
AcDbLine
 10
322.7073104354622
 20
352.8527994879972
 30
0.0
 11
322.7073314984562
 21
312.8527994879971
 31
0.0
  0
LINE
  5
19C38
330
18
100
AcDbEntity
  8
仮想線
 48
0.5
100
AcDbLine
 10
327.2073104354631
 20
352.8527994879973
 30
0.0
 11
327.2073314984569
 21
312.8527994879966
 31
0.0
  0
LINE
  5
19C39
330
18
100
AcDbEntity
  8
仮想線
 48
0.5
100
AcDbLine
 10
334.2073157012116
 20
326.9440202574361
 30
0.0
 11
334.5073157012113
 21
326.6440202574356
 31
0.0
  0
LINE
  5
19C3A
330
18
100
AcDbEntity
  8
仮想線
 48
0.5
100
AcDbLine
 10
328.2073157012118
 20
322.7734098727163
 30
0.0
 11
328.207315701211
 21
327.7734098727163
 31
0.0
  0
LINE
  5
19C3B
330
18
100
AcDbEntity
  8
仮想線
 48
0.5
100
AcDbLine
 10
329.5073157012113
 20
318.1734098727166
 30
0.0
 11
329.5073157012113
 21
327.3734098727163
 31
0.0
  0
LINE
  5
19C3C
330
18
100
AcDbEntity
  8
仮想線
  6
BYBLOCK
 48
0.5
100
AcDbLine
 10
327.2073314984569
 20
312.8527994879966
 30
0.0
 11
322.7073314984562
 21
312.8527994879971
 31
0.0
  0
LINE
  5
19C3D
330
18
100
AcDbEntity
  8
仮想線
 48
0.5
100
AcDbLine
 10
329.5073157012113
 20
318.4440202574361
 30
0.0
 11
334.2073157012112
 21
318.4440202574361
 31
0.0
  0
LINE
  5
19C3E
330
18
100
AcDbEntity
  8
仮想線
 48
0.5
100
AcDbLine
 10
327.2073157012111
 20
317.7734098727166
 30
0.0
 11
328.207315701211
 21
317.7734098727163
 31
0.0
  0
LINE
  5
19C3F
330
18
100
AcDbEntity
  8
仮想線
 48
0.5
100
AcDbLine
 10
328.2073157012116
 20
318.1734098727166
 30
0.0
 11
329.5073157012113
 21
318.1734098727166
 31
0.0
  0
LINE
  5
19C40
330
18
100
AcDbEntity
  8
仮想線
 48
0.5
100
AcDbLine
 10
328.207315701211
 20
317.7734098727163
 30
0.0
 11
328.2073157012118
 21
322.7734098727163
 31
0.0
  0
LINE
  5
19C41
330
18
100
AcDbEntity
  8
仮想線
 48
0.5
100
AcDbLine
 10
334.5073157012113
 20
318.7440202574363
 30
0.0
 11
334.5073157012113
 21
326.6440202574356
 31
0.0
  0
LINE
  5
19C42
330
18
100
AcDbEntity
  8
仮想線
 48
0.5
100
AcDbLine
 10
334.5073157012113
 20
318.7440202574363
 30
0.0
 11
334.2073157012112
 21
318.4440202574361
 31
0.0
  0
LINE
  5
19C43
330
18
100
AcDbEntity
  8
仮想線
 48
0.5
100
AcDbLine
 10
334.2073157012116
 20
338.6027994879966
 30
0.0
 11
334.5073157012113
 21
338.9027994879968
 31
0.0
  0
LINE
  5
19C44
330
18
100
AcDbEntity
  8
仮想線
 48
0.5
100
AcDbLine
 10
328.2073157012118
 20
342.7734098727163
 30
0.0
 11
328.207315701211
 21
337.7734098727163
 31
0.0
  0
LINE
  5
19C45
330
18
100
AcDbEntity
  8
仮想線
 48
0.5
100
AcDbLine
 10
329.5073157012113
 20
347.3734098727161
 30
0.0
 11
329.5073157012113
 21
338.1734098727164
 31
0.0
  0
LINE
  5
19C46
330
18
100
AcDbEntity
  8
仮想線
 48
0.5
100
AcDbLine
 10
329.5073157012113
 20
338.6027994879966
 30
0.0
 11
334.2073157012116
 21
338.6027994879966
 31
0.0
  0
LINE
  5
19C47
330
18
100
AcDbEntity
  8
仮想線
 48
0.5
100
AcDbLine
 10
329.5073157012113
 20
326.9440202574361
 30
0.0
 11
334.2073157012116
 21
326.9440202574361
 31
0.0
  0
LINE
  5
19C48
330
18
100
AcDbEntity
  8
仮想線
 48
0.5
100
AcDbLine
 10
327.2073157012111
 20
337.7734098727163
 30
0.0
 11
328.207315701211
 21
337.7734098727163
 31
0.0
  0
LINE
  5
19C49
330
18
100
AcDbEntity
  8
仮想線
 48
0.5
100
AcDbLine
 10
328.2073157012116
 20
338.1734098727164
 30
0.0
 11
329.5073157012113
 21
338.1734098727164
 31
0.0
  0
LINE
  5
19C4A
330
18
100
AcDbEntity
  8
仮想線
 48
0.5
100
AcDbLine
 10
327.2073157012111
 20
327.7734098727163
 30
0.0
 11
328.207315701211
 21
327.7734098727163
 31
0.0
  0
LINE
  5
19C4B
330
18
100
AcDbEntity
  8
仮想線
 48
0.5
100
AcDbLine
 10
328.2073157012116
 20
327.3734098727163
 30
0.0
 11
329.5073157012113
 21
327.3734098727163
 31
0.0
  0
LINE
  5
19C4C
330
18
100
AcDbEntity
  8
仮想線
 48
0.5
100
AcDbLine
 10
329.5073157012113
 20
347.1027994879968
 30
0.0
 11
334.2073157012112
 21
347.1027994879968
 31
0.0
  0
LINE
  5
19C4D
330
18
100
AcDbEntity
  8
仮想線
 48
0.5
100
AcDbLine
 10
327.2073157012111
 20
347.7734098727161
 30
0.0
 11
328.207315701211
 21
347.7734098727162
 31
0.0
  0
LINE
  5
19C4E
330
18
100
AcDbEntity
  8
仮想線
 48
0.5
100
AcDbLine
 10
328.2073157012116
 20
347.3734098727161
 30
0.0
 11
329.5073157012113
 21
347.3734098727161
 31
0.0
  0
LINE
  5
19C4F
330
18
100
AcDbEntity
  8
仮想線
 48
0.5
100
AcDbLine
 10
328.207315701211
 20
347.7734098727162
 30
0.0
 11
328.2073157012118
 21
342.7734098727163
 31
0.0
  0
LINE
  5
19C50
330
18
100
AcDbEntity
  8
仮想線
 48
0.5
100
AcDbLine
 10
334.5073157012113
 20
346.8027994879966
 30
0.0
 11
334.2073157012112
 21
347.1027994879968
 31
0.0
  0
LINE
  5
19C51
330
18
100
AcDbEntity
  8
仮想線
 48
0.5
100
AcDbLine
 10
334.5073157012113
 20
346.8027994879966
 30
0.0
 11
334.5073157012113
 21
338.9027994879968
 31
0.0
  0
LINE
  5
19C52
330
18
100
AcDbEntity
  8
仮想線
 48
0.5
100
AcDbLine
 10
322.7073104354624
 20
352.8527994879972
 30
0.0
 11
327.2073104354631
 21
352.8527994879973
 31
0.0
  0
LINE
  5
19C53
330
18
100
AcDbEntity
  8
中心線
 48
0.5
100
AcDbLine
 10
312.1743163829145
 20
322.7734098727163
 30
0.0
 11
337.2651794250866
 21
322.7734098727163
 31
0.0
  0
LINE
  5
19C54
330
18
100
AcDbEntity
  8
中心線
 48
0.5
100
AcDbLine
 10
312.1743163829145
 20
342.7734098727161
 30
0.0
 11
337.2651794250866
 21
342.7734098727163
 31
0.0
  0
LINE
  5
19C55
330
18
100
AcDbEntity
  8
中心線
 48
0.5
100
AcDbLine
 10
79.74032555100416
 20
322.7734098727168
 30
0.0
 11
54.64946250883213
 21
322.773409872717
 31
0.0
  0
LINE
  5
19C56
330
18
100
AcDbEntity
  8
仮想線
 48
0.5
100
AcDbLine
 10
62.40732623270743
 20
318.173409872717
 30
0.0
 11
62.40732623270743
 21
327.3734098727168
 31
0.0
  0
LINE
  5
19C57
330
18
100
AcDbEntity
  8
仮想線
 48
0.5
100
AcDbLine
 10
57.40732623270743
 20
318.7440202574366
 30
0.0
 11
57.40732623270743
 21
326.6440202574361
 31
0.0
  0
LINE
  5
19C58
330
18
100
AcDbEntity
  8
仮想線
 48
0.5
100
AcDbLine
 10
57.40732623270743
 20
318.7440202574366
 30
0.0
 11
57.70732623270761
 21
318.4440202574362
 31
0.0
  0
LINE
  5
19C59
330
18
100
AcDbEntity
  8
仮想線
 48
0.5
100
AcDbLine
 10
63.70732623270715
 20
318.173409872717
 30
0.0
 11
62.40732623270743
 21
318.173409872717
 31
0.0
  0
LINE
  5
19C5A
330
18
100
AcDbEntity
  8
仮想線
 48
0.5
100
AcDbLine
 10
62.40732623270743
 20
318.4440202574362
 30
0.0
 11
57.70732623270761
 21
318.4440202574362
 31
0.0
  0
LINE
  5
19C5B
330
18
100
AcDbEntity
  8
仮想線
 48
0.5
100
AcDbLine
 10
57.70732623270714
 20
326.9440202574362
 30
0.0
 11
57.40732623270743
 21
326.6440202574361
 31
0.0
  0
LINE
  5
19C5C
330
18
100
AcDbEntity
  8
仮想線
 48
0.5
100
AcDbLine
 10
63.70732623270715
 20
327.3734098727168
 30
0.0
 11
62.40732623270743
 21
327.3734098727168
 31
0.0
  0
LINE
  5
19C5D
330
18
100
AcDbEntity
  8
仮想線
 48
0.5
100
AcDbLine
 10
62.40732623270743
 20
326.9440202574362
 30
0.0
 11
57.70732623270714
 21
326.9440202574362
 31
0.0
  0
LINE
  5
19C5E
330
18
100
AcDbEntity
  8
中心線
 48
0.5
100
AcDbLine
 10
79.74032555100416
 20
342.7734098727163
 30
0.0
 11
54.64946250883213
 21
342.7734098727166
 31
0.0
  0
LINE
  5
19C5F
330
18
100
AcDbEntity
  8
仮想線
 48
0.5
100
AcDbLine
 10
62.40732623270743
 20
347.3734098727165
 30
0.0
 11
62.40732623270743
 21
338.1734098727168
 31
0.0
  0
LINE
  5
19C60
330
18
100
AcDbEntity
  8
仮想線
 48
0.5
100
AcDbLine
 10
57.40732623270743
 20
346.802799487997
 30
0.0
 11
57.40732623270743
 21
338.9027994879973
 31
0.0
  0
LINE
  5
19C61
330
18
100
AcDbEntity
  8
仮想線
 48
0.5
100
AcDbLine
 10
57.70732623270714
 20
338.6027994879971
 30
0.0
 11
57.40732623270743
 21
338.9027994879973
 31
0.0
  0
LINE
  5
19C62
330
18
100
AcDbEntity
  8
仮想線
 48
0.5
100
AcDbLine
 10
63.70732623270715
 20
338.1734098727168
 30
0.0
 11
62.40732623270743
 21
338.1734098727168
 31
0.0
  0
LINE
  5
19C63
330
18
100
AcDbEntity
  8
仮想線
 48
0.5
100
AcDbLine
 10
62.40732623270743
 20
338.6027994879971
 30
0.0
 11
57.70732623270714
 21
338.6027994879971
 31
0.0
  0
LINE
  5
19C64
330
18
100
AcDbEntity
  8
仮想線
 48
0.5
100
AcDbLine
 10
57.40732623270743
 20
346.802799487997
 30
0.0
 11
57.70732623270761
 21
347.1027994879971
 31
0.0
  0
LINE
  5
19C65
330
18
100
AcDbEntity
  8
仮想線
 48
0.5
100
AcDbLine
 10
63.70732623270715
 20
347.3734098727165
 30
0.0
 11
62.40732623270743
 21
347.3734098727165
 31
0.0
  0
LINE
  5
19C66
330
18
100
AcDbEntity
  8
仮想線
 48
0.5
100
AcDbLine
 10
62.40732623270743
 20
347.1027994879971
 30
0.0
 11
57.70732623270761
 21
347.1027994879971
 31
0.0
  0
LINE
  5
19C67
330
18
100
AcDbEntity
  8
仮想線
 48
0.5
100
AcDbLine
 10
69.20733149845637
 20
352.8527994879975
 30
0.0
 11
64.70733149845568
 21
352.8527994879977
 31
0.0
  0
LINE
  5
19C68
330
18
100
AcDbEntity
  8
仮想線
 48
0.5
100
AcDbLine
 10
63.70732623270761
 20
347.7734098727163
 30
0.0
 11
63.70732623270658
 21
342.7734098727166
 31
0.0
  0
LINE
  5
19C69
330
18
100
AcDbEntity
  8
仮想線
 48
0.5
100
AcDbLine
 10
64.7073262327076
 20
347.7734098727162
 30
0.0
 11
63.70732623270761
 21
347.7734098727163
 31
0.0
  0
LINE
  5
19C6A
330
18
100
AcDbEntity
  8
仮想線
  6
BYBLOCK
 48
0.5
100
AcDbLine
 10
64.70731043546175
 20
312.8527994879971
 30
0.0
 11
69.20731043546222
 21
312.8527994879976
 31
0.0
  0
LINE
  5
19C6B
330
18
100
AcDbEntity
  8
仮想線
 48
0.5
100
AcDbLine
 10
63.70732623270761
 20
317.7734098727168
 30
0.0
 11
63.7073262327067
 21
322.7734098727166
 31
0.0
  0
LINE
  5
19C6C
330
18
100
AcDbEntity
  8
仮想線
 48
0.5
100
AcDbLine
 10
64.7073262327076
 20
317.7734098727171
 30
0.0
 11
63.70732623270761
 21
317.7734098727168
 31
0.0
  0
LINE
  5
19C6D
330
18
100
AcDbEntity
  8
仮想線
  6
BYBLOCK
 48
0.5
100
AcDbLine
 10
69.20733149845659
 20
352.8527994879975
 30
0.0
 11
69.20731043546222
 21
312.8527994879976
 31
0.0
  0
LINE
  5
19C6E
330
18
100
AcDbEntity
  8
仮想線
 48
0.5
100
AcDbLine
 10
64.70733149845568
 20
352.8527994879977
 30
0.0
 11
64.70731043546175
 21
312.8527994879971
 31
0.0
  0
LINE
  5
19E2A
330
18
100
AcDbEntity
  8
0
100
AcDbLine
 10
439.2462774292407
 20
205.8527994879968
 30
0.0
 11
439.2462774292407
 21
332.8527994879971
 31
0.0
  0
LINE
  5
19E2B
330
18
100
AcDbEntity
  8
0
100
AcDbLine
 10
426.2462774292407
 20
205.8527994879968
 30
0.0
 11
426.2462774292407
 21
332.8527994879971
 31
0.0
  0
LINE
  5
19E2D
330
18
100
AcDbEntity
  8
0
100
AcDbLine
 10
426.2462774292407
 20
459.1027994879972
 30
0.0
 11
439.2462774292407
 21
459.1027994879972
 31
0.0
  0
LINE
  5
19E2E
330
18
100
AcDbEntity
  8
0
100
AcDbLine
 10
439.2462774292408
 20
459.8527994879965
 30
0.0
 11
459.5462774292424
 21
459.8527994879959
 31
0.0
  0
LINE
  5
19E2F
330
18
100
AcDbEntity
  8
0
100
AcDbLine
 10
426.2462774292407
 20
206.602799487997
 30
0.0
 11
439.2462774292407
 21
206.602799487997
 31
0.0
  0
LINE
  5
19E30
330
18
100
AcDbEntity
  8
0
100
AcDbLine
 10
439.2462774292408
 20
205.8527994879968
 30
0.0
 11
459.5462774292406
 21
205.8527994879966
 31
0.0
  0
ARC
  5
19E89
330
18
100
AcDbEntity
  8
中心線
100
AcDbCircle
 10
697.8891538212661
 20
332.8528026838203
 30
0.0
 40
56.0
100
AcDbArc
 50
242.9136257036318
 51
290.4471661235738
  0
ARC
  5
19E8A
330
18
100
AcDbEntity
  8
中心線
100
AcDbCircle
 10
697.8891538212661
 20
332.8528026838203
 30
0.0
 40
56.0
100
AcDbArc
 50
310.1291896074862
 51
353.862016437797
  0
ARC
  5
19E8B
330
18
100
AcDbEntity
  8
中心線
100
AcDbCircle
 10
697.8891538212661
 20
332.8528026838203
 30
0.0
 40
56.0
100
AcDbArc
 50
63.12900727677345
 51
107.9609028404409
  0
LINE
  5
19F99
330
18
100
AcDbEntity
  8
0
100
AcDbLine
 10
426.2462774292407
 20
332.8527994879971
 30
0.0
 11
426.2462774292407
 21
459.8527994879965
 31
0.0
  0
LINE
  5
19F9A
330
18
100
AcDbEntity
  8
0
100
AcDbLine
 10
439.2462774292405
 20
332.8527994879971
 30
0.0
 11
439.2462774292407
 21
459.8527994879965
 31
0.0
  0
CIRCLE
  5
1A103
102
{ACAD_REACTORS
330
1A10C
102
}
330
18
100
AcDbEntity
  8
細線
100
AcDbCircle
 10
648.3916971663217
 20
382.3502953949861
 30
0.0
 40
3.5
  0
ARC
  5
1A104
102
{ACAD_REACTORS
330
1A10C
102
}
330
18
100
AcDbEntity
  8
細線
100
AcDbCircle
 10
648.3916971663217
 20
381.2702953949862
 30
0.0
 40
0.5
100
AcDbArc
 50
42.3463876628242
 51
137.6536123371757
  0
ARC
  5
1A105
102
{ACAD_REACTORS
330
1A10C
102
}
330
18
100
AcDbEntity
  8
細線
100
AcDbCircle
 10
647.4563897302345
 20
381.8102953949863
 30
0.0
 40
0.5
100
AcDbArc
 50
342.3463876628246
 51
77.65361233717316
  0
ARC
  5
1A106
102
{ACAD_REACTORS
330
1A10C
102
}
330
18
100
AcDbEntity
  8
細線
100
AcDbCircle
 10
649.3270046024089
 20
381.8102953949863
 30
0.0
 40
0.5
100
AcDbArc
 50
102.3463876628267
 51
197.6536123371752
  0
ARC
  5
1A107
102
{ACAD_REACTORS
330
1A10C
102
}
330
18
100
AcDbEntity
  8
細線
100
AcDbCircle
 10
648.3916971663217
 20
383.4302953949863
 30
0.0
 40
0.5
100
AcDbArc
 50
222.3463876628239
 51
317.6536123371756
  0
ARC
  5
1A108
102
{ACAD_REACTORS
330
1A10C
102
}
330
18
100
AcDbEntity
  8
細線
100
AcDbCircle
 10
647.4563897302346
 20
382.8902953949863
 30
0.0
 40
0.5
100
AcDbArc
 50
282.3463876628268
 51
17.65361233717522
  0
CIRCLE
  5
1A109
102
{ACAD_REACTORS
330
1A10C
102
}
330
18
100
AcDbEntity
  8
細線
100
AcDbCircle
 10
648.3916971663217
 20
382.3502953949861
 30
0.0
 40
0.8299999999999998
  0
ARC
  5
1A10A
102
{ACAD_REACTORS
330
1A10C
102
}
330
18
100
AcDbEntity
  8
細線
100
AcDbCircle
 10
649.3270046024088
 20
382.8902953949863
 30
0.0
 40
0.5
100
AcDbArc
 50
162.3463876628247
 51
257.653612337173
  0
ARC
  5
1A10D
102
{ACAD_REACTORS
330
1A115
102
}
330
18
100
AcDbEntity
  8
細線
100
AcDbCircle
 10
649.3270077982349
 20
283.8953067768313
 30
0.0
 40
0.5
100
AcDbArc
 50
162.3463876628247
 51
257.653612337173
  0
CIRCLE
  5
1A10E
102
{ACAD_REACTORS
330
1A115
102
}
330
18
100
AcDbEntity
  8
細線
100
AcDbCircle
 10
648.3917003621478
 20
283.3553067768312
 30
0.0
 40
0.8299999999999998
  0
ARC
  5
1A10F
102
{ACAD_REACTORS
330
1A115
102
}
330
18
100
AcDbEntity
  8
細線
100
AcDbCircle
 10
647.4563929260607
 20
283.8953067768313
 30
0.0
 40
0.5
100
AcDbArc
 50
282.3463876628268
 51
17.65361233717522
  0
CIRCLE
  5
1A110
102
{ACAD_REACTORS
330
1A115
102
}
330
18
100
AcDbEntity
  8
細線
100
AcDbCircle
 10
648.3917003621478
 20
283.3553067768312
 30
0.0
 40
3.5
  0
ARC
  5
1A111
102
{ACAD_REACTORS
330
1A115
102
}
330
18
100
AcDbEntity
  8
細線
100
AcDbCircle
 10
648.3917003621478
 20
282.2753067768313
 30
0.0
 40
0.5
100
AcDbArc
 50
42.3463876628242
 51
137.6536123371757
  0
ARC
  5
1A112
102
{ACAD_REACTORS
330
1A115
102
}
330
18
100
AcDbEntity
  8
細線
100
AcDbCircle
 10
647.4563929260604
 20
282.8153067768313
 30
0.0
 40
0.5
100
AcDbArc
 50
342.3463876628246
 51
77.65361233717316
  0
ARC
  5
1A113
102
{ACAD_REACTORS
330
1A115
102
}
330
18
100
AcDbEntity
  8
細線
100
AcDbCircle
 10
649.3270077982349
 20
282.8153067768313
 30
0.0
 40
0.5
100
AcDbArc
 50
102.3463876628267
 51
197.6536123371752
  0
ARC
  5
1A114
102
{ACAD_REACTORS
330
1A115
102
}
330
18
100
AcDbEntity
  8
細線
100
AcDbCircle
 10
648.3917003621478
 20
284.4353067768313
 30
0.0
 40
0.5
100
AcDbArc
 50
222.3463876628239
 51
317.6536123371756
  0
ARC
  5
1A116
102
{ACAD_REACTORS
330
1A11E
102
}
330
18
100
AcDbEntity
  8
細線
100
AcDbCircle
 10
748.3219539685205
 20
283.8953460288779
 30
0.0
 40
0.5
100
AcDbArc
 50
162.3463876628247
 51
257.653612337173
  0
CIRCLE
  5
1A117
102
{ACAD_REACTORS
330
1A11E
102
}
330
18
100
AcDbEntity
  8
細線
100
AcDbCircle
 10
747.3866465324333
 20
283.3553460288778
 30
0.0
 40
0.8299999999999998
  0
ARC
  5
1A118
102
{ACAD_REACTORS
330
1A11E
102
}
330
18
100
AcDbEntity
  8
細線
100
AcDbCircle
 10
746.4513390963461
 20
283.8953460288779
 30
0.0
 40
0.5
100
AcDbArc
 50
282.3463876628268
 51
17.65361233717522
  0
CIRCLE
  5
1A119
102
{ACAD_REACTORS
330
1A11E
102
}
330
18
100
AcDbEntity
  8
細線
100
AcDbCircle
 10
747.3866465324333
 20
283.3553460288778
 30
0.0
 40
3.5
  0
ARC
  5
1A11A
102
{ACAD_REACTORS
330
1A11E
102
}
330
18
100
AcDbEntity
  8
細線
100
AcDbCircle
 10
747.3866465324333
 20
282.2753460288779
 30
0.0
 40
0.5
100
AcDbArc
 50
42.3463876628242
 51
137.6536123371757
  0
ARC
  5
1A11B
102
{ACAD_REACTORS
330
1A11E
102
}
330
18
100
AcDbEntity
  8
細線
100
AcDbCircle
 10
746.4513390963461
 20
282.8153460288778
 30
0.0
 40
0.5
100
AcDbArc
 50
342.3463876628246
 51
77.65361233717316
  0
ARC
  5
1A11C
102
{ACAD_REACTORS
330
1A11E
102
}
330
18
100
AcDbEntity
  8
細線
100
AcDbCircle
 10
748.3219539685205
 20
282.8153460288778
 30
0.0
 40
0.5
100
AcDbArc
 50
102.3463876628267
 51
197.6536123371752
  0
ARC
  5
1A11D
102
{ACAD_REACTORS
330
1A11E
102
}
330
18
100
AcDbEntity
  8
細線
100
AcDbCircle
 10
747.3866465324333
 20
284.4353460288778
 30
0.0
 40
0.5
100
AcDbArc
 50
222.3463876628239
 51
317.6536123371756
  0
ARC
  5
1A11F
102
{ACAD_REACTORS
330
1A127
102
}
330
18
100
AcDbEntity
  8
細線
100
AcDbCircle
 10
748.3219571643411
 20
382.8902561429405
 30
0.0
 40
0.5
100
AcDbArc
 50
162.3463876628247
 51
257.653612337173
  0
CIRCLE
  5
1A120
102
{ACAD_REACTORS
330
1A127
102
}
330
18
100
AcDbEntity
  8
細線
100
AcDbCircle
 10
747.386649728254
 20
382.3502561429402
 30
0.0
 40
0.8299999999999998
  0
ARC
  5
1A121
102
{ACAD_REACTORS
330
1A127
102
}
330
18
100
AcDbEntity
  8
細線
100
AcDbCircle
 10
746.4513422921669
 20
382.8902561429405
 30
0.0
 40
0.5
100
AcDbArc
 50
282.3463876628268
 51
17.65361233717522
  0
CIRCLE
  5
1A122
102
{ACAD_REACTORS
330
1A127
102
}
330
18
100
AcDbEntity
  8
細線
100
AcDbCircle
 10
747.386649728254
 20
382.3502561429402
 30
0.0
 40
3.5
  0
ARC
  5
1A123
102
{ACAD_REACTORS
330
1A127
102
}
330
18
100
AcDbEntity
  8
細線
100
AcDbCircle
 10
747.386649728254
 20
381.2702561429403
 30
0.0
 40
0.5
100
AcDbArc
 50
42.3463876628242
 51
137.6536123371757
  0
ARC
  5
1A124
102
{ACAD_REACTORS
330
1A127
102
}
330
18
100
AcDbEntity
  8
細線
100
AcDbCircle
 10
746.4513422921668
 20
381.8102561429403
 30
0.0
 40
0.5
100
AcDbArc
 50
342.3463876628246
 51
77.65361233717316
  0
ARC
  5
1A125
102
{ACAD_REACTORS
330
1A127
102
}
330
18
100
AcDbEntity
  8
細線
100
AcDbCircle
 10
748.3219571643411
 20
381.8102561429403
 30
0.0
 40
0.5
100
AcDbArc
 50
102.3463876628267
 51
197.6536123371752
  0
ARC
  5
1A126
102
{ACAD_REACTORS
330
1A127
102
}
330
18
100
AcDbEntity
  8
細線
100
AcDbCircle
 10
747.386649728254
 20
383.4302561429402
 30
0.0
 40
0.5
100
AcDbArc
 50
222.3463876628239
 51
317.6536123371756
  0
LINE
  5
1A166
330
18
100
AcDbEntity
  8
0
100
AcDbLine
 10
531.8156313640413
 20
483.5344764075045
 30
0.0
 11
534.5690538150551
 21
505.4253836501072
 31
0.0
  0
LINE
  5
1A167
330
18
100
AcDbEntity
  8
0
100
AcDbLine
 10
534.215624220389
 20
483.5286206854063
 30
0.0
 11
536.9690466714025
 21
505.419527928009
 31
0.0
  0
LINE
  5
1A168
330
18
100
AcDbEntity
  8
0
100
AcDbLine
 10
533.8156254109978
 20
483.5295966390892
 30
0.0
 11
536.5690478620112
 21
505.4205038816919
 31
0.0
  0
LINE
  5
1A169
330
18
100
AcDbEntity
  8
0
100
AcDbLine
 10
531.7915855840396
 20
483.5237409169913
 30
0.0
 11
529.0381631330259
 21
505.414648159594
 31
0.0
  0
LINE
  5
1A16A
330
18
100
AcDbEntity
  8
0
100
AcDbLine
 10
536.2156182673452
 20
483.5237409169913
 30
0.0
 11
538.9690407183588
 21
505.414648159594
 31
0.0
  0
LINE
  5
1A16B
330
18
100
AcDbEntity
  8
0
100
AcDbLine
 10
532.8032372332772
 20
491.3863730417216
 30
0.0
 11
531.0381571799822
 21
505.419527928009
 31
0.0
  0
LINE
  5
1A16C
330
18
100
AcDbEntity
  8
0
100
AcDbLine
 10
533.0032980153466
 20
492.9769433595991
 30
0.0
 11
531.4381559893734
 21
505.4205038816919
 31
0.0
  0
LINE
  5
1A16D
330
18
100
AcDbEntity
  8
0
100
AcDbLine
 10
534.1915784403869
 20
483.5295966390892
 30
0.0
 11
534.0036019256922
 21
485.024091770213
 31
0.0
  0
LINE
  5
1A16F
330
18
100
AcDbEntity
  8
0
100
AcDbLine
 10
535.2039666181073
 20
491.3863730417216
 30
0.0
 11
535.0039058360381
 21
492.9769433595991
 31
0.0
  0
LINE
  5
1A170
330
18
100
AcDbEntity
  8
0
100
AcDbLine
 10
540.1690579821862
 20
505.4287994880032
 30
0.0
 11
528.1690579821853
 21
505.428799487992
 31
0.0
  0
LINE
  5
1A171
330
18
100
AcDbEntity
  8
0
100
AcDbLine
 10
539.1690640352159
 20
519.6288445894773
 30
0.0
 11
529.1690640352157
 21
519.6288445894681
 31
0.0
  0
LINE
  5
1A172
330
18
100
AcDbEntity
  8
0
100
AcDbLine
 10
527.9062068923556
 20
523.0288445894679
 30
0.0
 11
527.9062068923586
 21
519.6288445894671
 31
0.0
  0
LINE
  5
1A173
330
18
100
AcDbEntity
  8
0
100
AcDbLine
 10
526.7404926066411
 20
522.9317017323234
 30
0.0
 11
526.7404926066442
 21
519.6288445894662
 31
0.0
  0
LINE
  5
1A174
330
18
100
AcDbEntity
  8
0
100
AcDbLine
 10
534.2440640352069
 20
529.1288445894735
 30
0.0
 11
534.2440640352157
 21
519.628844589473
 31
0.0
  0
LINE
  5
1A175
330
18
100
AcDbEntity
  8
0
100
AcDbLine
 10
533.5940640352073
 20
529.1288445894728
 30
0.0
 11
533.5940640352161
 21
519.6288445894722
 31
0.0
  0
LINE
  5
1A176
330
18
100
AcDbEntity
  8
0
100
AcDbLine
 10
530.1440640352072
 20
529.1288445894697
 30
0.0
 11
530.1440640352158
 21
519.6288445894691
 31
0.0
  0
LINE
  5
1A177
330
18
100
AcDbEntity
  8
0
100
AcDbLine
 10
537.6940640352072
 20
529.1288445894764
 30
0.0
 11
537.6940640352155
 21
519.6288445894761
 31
0.0
  0
LINE
  5
1A178
330
18
100
AcDbEntity
  8
0
100
AcDbLine
 10
525.3513497494989
 20
522.5139874466078
 30
0.0
 11
525.3513497495082
 21
512.1488445894653
 31
0.0
  0
LINE
  5
1A179
330
18
100
AcDbEntity
  8
0
100
AcDbLine
 10
525.7690640352115
 20
524.3888445894655
 30
0.0
 11
525.7690640352213
 21
513.1202731608937
 31
0.0
  0
LINE
  5
1A17A
330
18
100
AcDbEntity
  8
0
100
AcDbLine
 10
529.1690640352276
 20
506.5287994879922
 30
0.0
 11
529.1690640352157
 21
519.6288445894681
 31
0.0
  0
LINE
  5
1A17B
330
18
100
AcDbEntity
  8
0
100
AcDbLine
 10
528.1690579821853
 20
505.428799487992
 30
0.0
 11
528.1690579821844
 21
506.5287994879914
 31
0.0
  0
LINE
  5
1A17C
330
18
100
AcDbEntity
  8
0
100
AcDbLine
 10
529.1690640352276
 20
506.5287994879922
 30
0.0
 11
528.1690579821844
 21
506.5287994879914
 31
0.0
  0
LINE
  5
1A17D
330
18
100
AcDbEntity
  8
0
100
AcDbLine
 10
534.0036019256922
 20
500.9297949489843
 30
0.0
 11
533.4381500363296
 21
505.4253836501072
 31
0.0
  0
LINE
  5
1A17E
330
18
100
AcDbEntity
  8
0
100
AcDbLine
 10
529.1690640352157
 20
519.6288445894681
 30
0.0
 11
525.3513497495015
 21
519.628844589465
 31
0.0
  0
LINE
  5
1A17F
330
18
100
AcDbEntity
  8
0
100
AcDbLine
 10
528.6833497495033
 20
518.0162731608962
 30
0.0
 11
528.1826412491689
 21
518.0162731608962
 31
0.0
  0
LINE
  5
1A180
330
18
100
AcDbEntity
  8
0
100
AcDbLine
 10
527.7043060548486
 20
517.6149022757628
 30
0.0
 11
526.7404926066508
 21
512.1488445894657
 31
0.0
  0
LINE
  5
1A181
330
18
100
AcDbEntity
  8
0
100
AcDbLine
 10
526.7404926066508
 20
512.1488445894657
 30
0.0
 11
525.3513497495082
 21
512.1488445894648
 31
0.0
  0
LINE
  5
1A182
330
18
100
AcDbEntity
  8
0
100
AcDbLine
 10
525.7690640352213
 20
513.1202731608937
 30
0.0
 11
525.3513497495073
 21
513.1202731608935
 31
0.0
  0
ARC
  5
1A183
330
18
100
AcDbEntity
  8
0
100
AcDbCircle
 10
528.1826412491689
 20
517.5305588751822
 30
0.0
 40
0.4857142857142857
100
AcDbArc
 50
90.00000000003906
 51
170.0000000000479
  0
ARC
  5
1A184
330
18
100
AcDbEntity
  8
0
100
AcDbCircle
 10
528.6833497495035
 20
517.5305588751822
 30
0.0
 40
0.4857142857142857
100
AcDbArc
 50
0.0000000000521102
 51
90.00000000003906
  0
LINE
  5
1A185
330
18
100
AcDbEntity
  8
0
100
AcDbLine
 10
533.5940640352073
 20
529.1288445894728
 30
0.0
 11
530.1440640352072
 21
529.1288445894697
 31
0.0
  0
LINE
  5
1A186
330
18
100
AcDbEntity
  8
0
100
AcDbLine
 10
528.0033497494963
 20
525.3602731608959
 30
0.0
 11
528.9747783209255
 21
524.3888445894683
 31
0.0
  0
LINE
  5
1A187
330
18
100
AcDbEntity
  8
0
100
AcDbLine
 10
525.7690640352115
 20
524.3888445894655
 30
0.0
 11
526.7404926066391
 21
525.3602731608947
 31
0.0
  0
LINE
  5
1A188
330
18
100
AcDbEntity
  8
0
100
AcDbLine
 10
526.7404926066411
 20
522.9317017323234
 30
0.0
 11
525.7690640352127
 21
522.9317017323221
 31
0.0
  0
LINE
  5
1A189
330
18
100
AcDbEntity
  8
0
100
AcDbLine
 10
525.7690640352127
 20
522.9317017323221
 30
0.0
 11
525.3513497494989
 21
522.5139874466078
 31
0.0
  0
LINE
  5
1A18A
330
18
100
AcDbEntity
  8
0
100
AcDbLine
 10
528.9747783209255
 20
524.3888445894683
 30
0.0
 11
528.9747783209271
 21
522.9317017323259
 31
0.0
  0
LINE
  5
1A18B
330
18
100
AcDbEntity
  8
0
100
AcDbLine
 10
528.9747783209271
 20
522.9317017323253
 30
0.0
 11
527.9062068923556
 21
523.0288445894679
 31
0.0
  0
LINE
  5
1A18C
330
18
100
AcDbEntity
  8
0
100
AcDbLine
 10
528.0033497494963
 20
525.3602731608959
 30
0.0
 11
526.7404926066391
 21
525.3602731608947
 31
0.0
  0
LINE
  5
1A18D
330
18
100
AcDbEntity
  8
0
100
AcDbLine
 10
537.6940640352072
 20
529.1288445894764
 30
0.0
 11
534.2440640352069
 21
529.1288445894735
 31
0.0
  0
LINE
  5
1A18E
330
18
100
AcDbEntity
  8
0
100
AcDbLine
 10
539.1690640352276
 20
506.528799488001
 30
0.0
 11
539.1690640352159
 21
519.6288445894773
 31
0.0
  0
LINE
  5
1A18F
330
18
100
AcDbEntity
  8
0
100
AcDbLine
 10
540.1690579821862
 20
505.4287994880025
 30
0.0
 11
540.1690579821853
 21
506.5287994880024
 31
0.0
  0
LINE
  5
1A190
330
18
100
AcDbEntity
  8
0
100
AcDbLine
 10
540.1690579821853
 20
506.5287994880033
 30
0.0
 11
539.1690640352276
 21
506.5287994880026
 31
0.0
  0
LINE
  5
1A22E
330
18
100
AcDbEntity
  8
0
100
AcDbLine
 10
533.7983253446881
 20
207.8831283719472
 30
0.0
 11
541.3040185867679
 21
218.8520457743887
 31
0.0
  0
LINE
  5
1A22F
330
18
100
AcDbEntity
  8
0
100
AcDbLine
 10
530.3000317573856
 20
207.8850841186229
 30
0.0
 11
522.8914240115325
 21
218.6957437976734
 31
0.0
  0
LINE
  5
1A230
330
18
100
AcDbEntity
  8
0
100
AcDbLine
 10
534.157704333369
 20
208.408329484739
 30
0.0
 11
526.885258628716
 21
219.0451807984211
 31
0.0
  0
ARC
  5
1A231
330
18
100
AcDbEntity
  8
0
100
AcDbCircle
 10
535.1402838031928
 20
224.6891651506988
 30
0.0
 40
10.0
100
AcDbArc
 50
180.0
 51
214.3605280011013
  0
ARC
  5
1A232
330
18
100
AcDbEntity
  8
0
100
AcDbCircle
 10
531.14028380319
 20
224.34873523032
 30
0.0
 40
10.0
100
AcDbArc
 50
180.0
 51
214.4230669294485
  0
LINE
  5
1A233
330
18
100
AcDbEntity
  8
0
100
AcDbLine
 10
538.0069377322093
 20
207.8817964139195
 30
0.0
 11
545.5067272063337
 21
218.8533777324166
 31
0.0
  0
ARC
  5
1A234
330
18
100
AcDbEntity
  8
0
100
AcDbCircle
 10
537.2511719657283
 20
224.4965867192709
 30
0.0
 40
10.0
100
AcDbArc
 50
325.6448534167714
 51
0.0
  0
ARC
  5
1A235
330
18
100
AcDbEntity
  8
0
100
AcDbCircle
 10
533.0511719657278
 20
224.4992152113355
 30
0.0
 40
10.0
100
AcDbArc
 50
325.6173623158439
 51
0.0
  0
LINE
  5
1A247
330
18
100
AcDbEntity
  8
0
100
AcDbLine
 10
547.2511719657283
 20
224.4965867192709
 30
0.0
 11
547.2511719657283
 21
284.9477571324438
 31
0.0
  0
LINE
  5
1A248
330
18
100
AcDbEntity
  8
0
100
AcDbLine
 10
521.1402838031898
 20
224.34873523032
 30
0.0
 11
521.1402838031898
 21
256.8527994879969
 31
0.0
  0
LINE
  5
1A249
330
18
100
AcDbEntity
  8
0
100
AcDbLine
 10
543.0511719657281
 20
284.9477571324438
 30
0.0
 11
543.0511719657276
 21
224.4992152113355
 31
0.0
  0
LINE
  5
1A24B
330
18
100
AcDbEntity
  8
0
100
AcDbLine
 10
525.3402838031901
 20
256.8527994879969
 30
0.0
 11
525.1402838031927
 21
224.6891651506988
 31
0.0
  0
LINE
  5
1A62D
330
18
100
AcDbEntity
  8
0
100
AcDbLine
 10
442.0462774292409
 20
205.8528003463444
 30
0.0
 11
449.5462782875961
 21
205.8528003463444
 31
0.0
  0
LINE
  5
1A62E
330
18
100
AcDbEntity
  8
0
100
AcDbLine
 10
442.0462774292409
 20
205.8527994879968
 30
0.0
 11
459.5462767136456
 21
205.8527994879966
 31
0.0
  0
LINE
  5
1A636
330
18
100
AcDbEntity
  8
0
100
AcDbLine
 10
447.5462774292507
 20
205.8527994879971
 30
0.0
 11
459.5462767136456
 21
205.8527994879971
 31
0.0
  0
LINE
  5
1A63E
330
18
100
AcDbEntity
  8
0
100
AcDbLine
 10
460.0462774292408
 20
206.3528002035917
 30
0.0
 11
459.5462767136456
 21
205.8527994879966
 31
0.0
  0
LINE
  5
1A641
330
18
100
AcDbEntity
  8
0
100
AcDbLine
 10
460.0462774292407
 20
206.3528002035921
 30
0.0
 11
459.5462767136456
 21
205.8527994879971
 31
0.0
  0
LINE
  5
1A665
330
18
100
AcDbEntity
  8
0
100
AcDbLine
 10
447.8462774292441
 20
206.4705612689993
 30
0.0
 11
455.046277429244
 21
206.4705612689993
 31
0.0
  0
LINE
  5
1A666
330
18
100
AcDbEntity
  8
0
100
AcDbLine
 10
447.8462774292441
 20
212.0848992488745
 30
0.0
 11
455.046277429244
 21
212.0848992488745
 31
0.0
  0
LINE
  5
1A667
330
18
100
AcDbEntity
  8
0
100
AcDbLine
 10
455.046277429244
 20
212.0848992488745
 30
0.0
 11
455.046277429244
 21
206.4705612689993
 31
0.0
  0
LINE
  5
1A668
330
18
100
AcDbEntity
  8
0
100
AcDbLine
 10
447.8462774292441
 20
212.0848992488745
 30
0.0
 11
447.8462774292441
 21
206.4705612689993
 31
0.0
  0
ARC
  5
1A73C
330
18
100
AcDbEntity
  8
0
100
AcDbCircle
 10
610.9150589873669
 20
419.8269335739427
 30
0.0
 40
4.0
100
AcDbArc
 50
225.9316797493668
 51
44.06832025063932
  0
LINE
  5
1A73E
330
18
100
AcDbEntity
  8
0
100
AcDbLine
 10
613.7894889867111
 20
422.6093578697915
 30
0.0
 11
610.9596107724362
 21
425.4392332728398
 31
0.0
  0
LINE
  5
1A73F
330
18
100
AcDbEntity
  8
0
100
AcDbLine
 10
608.1326347357316
 20
416.9525036217851
 30
0.0
 11
605.3027566100896
 21
419.7823789362002
 31
0.0
  0
LINE
  5
1A741
330
18
100
AcDbEntity
  8
0
100
AcDbLine
 10
580.178476895866
 20
368.5344187398881
 30
0.0
 11
576.3127927711633
 21
369.5702236213352
 31
0.0
  0
ARC
  5
1A742
330
18
100
AcDbEntity
  8
0
100
AcDbCircle
 10
579.0803596429584
 20
364.6875536159039
 30
0.0
 40
4.0
100
AcDbArc
 50
255.931679749367
 51
74.06832025063931
  0
LINE
  5
1A743
330
18
100
AcDbEntity
  8
0
100
AcDbLine
 10
578.1079245330148
 20
360.8070121301187
 30
0.0
 11
574.2422405293874
 21
361.8428169791238
 31
0.0
  0
LINE
  5
1A744
330
18
100
AcDbEntity
  8
0
100
AcDbLine
 10
578.10795614324
 20
304.8986416998721
 30
0.0
 11
574.2422730475178
 21
303.8628329782179
 31
0.0
  0
ARC
  5
1A745
330
18
100
AcDbEntity
  8
0
100
AcDbCircle
 10
579.0803912678799
 20
301.0181001511156
 30
0.0
 40
4.0
100
AcDbArc
 50
285.9316797493668
 51
104.0683202506393
  0
LINE
  5
1A746
330
18
100
AcDbEntity
  8
0
100
AcDbLine
 10
580.1785085020297
 20
297.1712350890145
 30
0.0
 11
576.3128255273824
 21
296.1354263998023
 31
0.0
  0
LINE
  5
1A747
330
18
100
AcDbEntity
  8
0
100
AcDbLine
 10
608.132721092411
 20
248.7531818173428
 30
0.0
 11
605.3028456893626
 21
245.9233036030676
 31
0.0
  0
ARC
  5
1A748
330
18
100
AcDbEntity
  8
0
100
AcDbCircle
 10
610.9151453882597
 20
245.8787518179986
 30
0.0
 40
4.0
100
AcDbArc
 50
315.9316797493668
 51
134.0683202506393
  0
LINE
  5
1A749
330
18
100
AcDbEntity
  8
0
100
AcDbLine
 10
613.7895753404174
 20
243.0963275663631
 30
0.0
 11
610.959700026002
 21
240.2664494407208
 31
0.0
  0
LINE
  5
1A74A
330
18
100
AcDbEntity
  8
0
100
AcDbLine
 10
662.2076602223139
 20
215.1421697264976
 30
0.0
 11
661.1718553408669
 21
211.2764856017951
 31
0.0
  0
ARC
  5
1A74B
330
18
100
AcDbEntity
  8
0
100
AcDbCircle
 10
666.0545253462981
 20
214.0440524735899
 30
0.0
 40
4.0
100
AcDbArc
 50
345.931679749367
 51
164.0683202506393
  0
LINE
  5
1A74C
330
18
100
AcDbEntity
  8
0
100
AcDbLine
 10
669.9350668320833
 20
213.0716173636465
 30
0.0
 11
668.8992619830782
 21
209.2059333600191
 31
0.0
  0
LINE
  5
1A74D
330
18
100
AcDbEntity
  8
0
100
AcDbLine
 10
725.8434372623301
 20
213.0716489738716
 30
0.0
 11
726.8792459839843
 21
209.2059658781495
 31
0.0
  0
ARC
  5
1A74E
330
18
100
AcDbEntity
  8
0
100
AcDbCircle
 10
729.7239788110864
 20
214.0440840985115
 30
0.0
 40
4.0
100
AcDbArc
 50
15.931679749367
 51
194.0683202506392
  0
LINE
  5
1A74F
330
18
100
AcDbEntity
  8
0
100
AcDbLine
 10
733.5708438731877
 20
215.1422013326611
 30
0.0
 11
734.6066525623999
 21
211.2765183580139
 31
0.0
  0
LINE
  5
1A750
330
18
100
AcDbEntity
  8
0
100
AcDbLine
 10
781.9888971448597
 20
243.0964139230423
 30
0.0
 11
784.8187753591347
 21
240.266538519994
 31
0.0
  0
ARC
  5
1A751
330
18
100
AcDbEntity
  8
0
100
AcDbCircle
 10
784.8633271442036
 20
245.878838218891
 30
0.0
 40
4.0
100
AcDbArc
 50
45.93167974936696
 51
224.0683202506392
  0
LINE
  5
1A752
330
18
100
AcDbEntity
  8
0
100
AcDbLine
 10
787.6457513958391
 20
248.7532681710487
 30
0.0
 11
790.475629521481
 21
245.9233928566334
 31
0.0
  0
LINE
  5
1A753
330
18
100
AcDbEntity
  8
0
100
AcDbLine
 10
815.5999092357049
 20
297.1713530529456
 30
0.0
 11
819.4655933604073
 21
296.1355481714986
 31
0.0
  0
ARC
  5
1A754
330
18
100
AcDbEntity
  8
0
100
AcDbCircle
 10
816.6980264886126
 20
301.0182181769298
 30
0.0
 40
4.0
100
AcDbArc
 50
75.93167974936695
 51
254.0683202506393
  0
LINE
  5
1A755
330
18
100
AcDbEntity
  8
0
100
AcDbLine
 10
817.6704615985558
 20
304.8987596627148
 30
0.0
 11
821.5361456021835
 21
303.8629548137098
 31
0.0
  0
LINE
  5
1A756
330
18
100
AcDbEntity
  8
0
100
AcDbLine
 10
817.6704299883306
 20
360.8071300929615
 30
0.0
 11
821.536113084053
 21
361.8429388146156
 31
0.0
  0
ARC
  5
1A757
330
18
100
AcDbEntity
  8
0
100
AcDbCircle
 10
816.6979948636909
 20
364.687671641718
 30
0.0
 40
4.0
100
AcDbArc
 50
105.931679749367
 51
284.0683202506392
  0
LINE
  5
1A758
330
18
100
AcDbEntity
  8
0
100
AcDbLine
 10
815.5998776295412
 20
368.5345367038191
 30
0.0
 11
819.4655606041884
 21
369.5703453930311
 31
0.0
  0
LINE
  5
1A759
330
18
100
AcDbEntity
  8
0
100
AcDbLine
 10
787.6456650391599
 20
416.952589975491
 30
0.0
 11
790.4755404422083
 21
419.7824681897658
 31
0.0
  0
ARC
  5
1A75A
330
18
100
AcDbEntity
  8
0
100
AcDbCircle
 10
784.8632407433109
 20
419.8270199748351
 30
0.0
 40
4.0
100
AcDbArc
 50
135.931679749367
 51
314.0683202506393
  0
LINE
  5
1A75B
330
18
100
AcDbEntity
  8
0
100
AcDbLine
 10
781.9888107911536
 20
422.6094442264707
 30
0.0
 11
784.8186861055686
 21
425.4393223521126
 31
0.0
  0
LINE
  5
1A75C
330
18
100
AcDbEntity
  8
0
100
AcDbLine
 10
733.5707259092567
 20
450.5636020663362
 30
0.0
 11
734.6065307907037
 21
454.4292861910387
 31
0.0
  0
ARC
  5
1A75D
330
18
100
AcDbEntity
  8
0
100
AcDbCircle
 10
729.7238607852724
 20
451.6617193192438
 30
0.0
 40
4.0
100
AcDbArc
 50
165.931679749367
 51
344.0683202506393
  0
LINE
  5
1A75E
330
18
100
AcDbEntity
  8
0
100
AcDbLine
 10
725.8433192994873
 20
452.6341544291874
 30
0.0
 11
726.8791241484924
 21
456.4998384328148
 31
0.0
  0
LINE
  5
1A75F
330
18
100
AcDbEntity
  8
0
100
AcDbLine
 10
669.9349488692408
 20
452.6341228189624
 30
0.0
 11
668.8991401475864
 21
456.4998059146843
 31
0.0
  0
ARC
  5
1A760
330
18
100
AcDbEntity
  8
0
100
AcDbCircle
 10
666.0544073204841
 20
451.6616876943222
 30
0.0
 40
4.0
100
AcDbArc
 50
195.931679749367
 51
14.06832025063934
  0
LINE
  5
1A761
330
18
100
AcDbEntity
  8
0
100
AcDbLine
 10
662.2075422583831
 20
450.5635704601726
 30
0.0
 11
661.1717335691707
 21
454.4292534348198
 31
0.0
  0
LINE
  5
1AA3C
330
18
100
AcDbEntity
  8
0
100
AcDbLine
 10
532.8957339529818
 20
183.5911086221813
 30
0.0
 11
529.1112590671368
 21
161.1911086221816
 31
0.0
  0
LINE
  5
1AA3D
330
18
100
AcDbEntity
  8
0
100
AcDbLine
 10
534.1869439986437
 20
161.1911086221816
 30
0.0
 11
534.1869439986437
 21
183.5911086221813
 31
0.0
  0
LINE
  5
1AA3E
330
18
100
AcDbEntity
  8
0
100
AcDbLine
 10
535.4781540443054
 20
183.5911086221813
 30
0.0
 11
539.2626289301501
 21
161.1911086221816
 31
0.0
  0
LINE
  5
1AA3F
330
18
100
AcDbEntity
  8
0
100
AcDbLine
 10
540.0119500516868
 20
137.4910635207061
 30
0.0
 11
540.0119500516868
 21
146.9910635207066
 31
0.0
  0
LINE
  5
1AA40
330
18
100
AcDbEntity
  8
0
100
AcDbLine
 10
527.1926643374008
 20
142.2310635207064
 30
0.0
 11
527.1926643374008
 21
143.6882063778488
 31
0.0
  0
LINE
  5
1AA41
330
18
100
AcDbEntity
  8
0
100
AcDbLine
 10
531.8119500516868
 20
137.4910635207061
 30
0.0
 11
531.8119500516868
 21
146.9910635207066
 31
0.0
  0
LINE
  5
1AA42
330
18
100
AcDbEntity
  8
0
100
AcDbLine
 10
532.4619500516867
 20
137.4910635207061
 30
0.0
 11
532.4619500516867
 21
146.9910635207066
 31
0.0
  0
LINE
  5
1AA43
330
18
100
AcDbEntity
  8
0
100
AcDbLine
 10
535.9119500516867
 20
137.4910635207061
 30
0.0
 11
535.9119500516865
 21
146.9910635207066
 31
0.0
  0
LINE
  5
1AA44
330
18
100
AcDbEntity
  8
0
100
AcDbLine
 10
536.5619500516864
 20
137.4910635207061
 30
0.0
 11
536.5619500516864
 21
146.9910635207066
 31
0.0
  0
LINE
  5
1AA45
330
18
100
AcDbEntity
  8
0
100
AcDbLine
 10
528.3619500516867
 20
137.4910635207061
 30
0.0
 11
528.3619500516867
 21
146.9910635207066
 31
0.0
  0
LINE
  5
1AA46
330
18
100
AcDbEntity
  8
0
100
AcDbLine
 10
523.9869500516867
 20
142.2310635207064
 30
0.0
 11
523.9869500516863
 21
153.499634949278
 31
0.0
  0
LINE
  5
1AA47
330
18
100
AcDbEntity
  8
0
100
AcDbLine
 10
535.9119500516867
 20
137.4910635207061
 30
0.0
 11
532.4619500516867
 21
137.4910635207061
 31
0.0
  0
LINE
  5
1AA48
330
18
100
AcDbEntity
  8
0
100
AcDbLine
 10
526.2212357659723
 20
141.2596349492778
 30
0.0
 11
527.1926643374008
 21
142.2310635207064
 31
0.0
  0
LINE
  5
1AA49
330
18
100
AcDbEntity
  8
0
100
AcDbLine
 10
523.9869500516867
 20
142.2310635207064
 30
0.0
 11
524.9583786231153
 21
141.2596349492778
 31
0.0
  0
LINE
  5
1AA4A
330
18
100
AcDbEntity
  8
0
100
AcDbLine
 10
526.2212357659723
 20
141.2596349492778
 30
0.0
 11
524.9583786231153
 21
141.2596349492778
 31
0.0
  0
LINE
  5
1AA4B
330
18
100
AcDbEntity
  8
0
100
AcDbLine
 10
531.8119500516868
 20
137.4910635207061
 30
0.0
 11
528.3619500516867
 21
137.4910635207061
 31
0.0
  0
LINE
  5
1AA4C
330
18
100
AcDbEntity
  8
0
100
AcDbLine
 10
540.0119500516868
 20
137.4910635207066
 30
0.0
 11
536.5619500516861
 21
137.4910635207061
 31
0.0
  0
LINE
  5
1AA4D
330
18
100
AcDbEntity
  8
0
100
AcDbLine
 10
541.9869439986439
 20
161.1911086221812
 30
0.0
 11
526.3869439986433
 21
161.1911086221821
 31
0.0
  0
LINE
  5
1AA4E
330
18
100
AcDbEntity
  8
0
100
AcDbLine
 10
540.9869500516863
 20
146.9910635207066
 30
0.0
 11
527.3869500516866
 21
146.9910635207066
 31
0.0
  0
LINE
  5
1AA4F
330
18
100
AcDbEntity
  8
0
100
AcDbLine
 10
525.9221920713176
 20
149.0050058344109
 30
0.0
 11
524.9583786231153
 21
154.4710635207071
 31
0.0
  0
LINE
  5
1AA50
330
18
100
AcDbEntity
  8
0
100
AcDbLine
 10
523.5692357659725
 20
144.1059206635634
 30
0.0
 11
523.5692357659725
 21
154.4710635207062
 31
0.0
  0
LINE
  5
1AA51
330
18
100
AcDbEntity
  8
0
100
AcDbLine
 10
527.3869500516866
 20
160.0911086221825
 30
0.0
 11
527.3869500516866
 21
146.9910635207066
 31
0.0
  0
LINE
  5
1AA52
330
18
100
AcDbEntity
  8
0
100
AcDbLine
 10
527.3869500516866
 20
146.9910635207066
 30
0.0
 11
523.5692357659725
 21
146.9910635207066
 31
0.0
  0
LINE
  5
1AA53
330
18
100
AcDbEntity
  8
0
100
AcDbLine
 10
526.9012357659724
 20
148.6036349492783
 30
0.0
 11
526.4005272656381
 21
148.6036349492779
 31
0.0
  0
LINE
  5
1AA54
330
18
100
AcDbEntity
  8
0
100
AcDbLine
 10
527.1926643374008
 20
143.6882063778494
 30
0.0
 11
526.1240929088296
 21
143.591063520706
 31
0.0
  0
ARC
  5
1AA55
330
18
100
AcDbEntity
  8
0
100
AcDbCircle
 10
526.4005272656379
 20
149.0893492349919
 30
0.0
 40
0.4857142857142857
100
AcDbArc
 50
190.0000000000034
 51
270.000000000013
  0
LINE
  5
1AA56
330
18
100
AcDbEntity
  8
0
100
AcDbLine
 10
523.9869500516863
 20
153.499634949278
 30
0.0
 11
523.5692357659725
 21
153.499634949278
 31
0.0
  0
LINE
  5
1AA57
330
18
100
AcDbEntity
  8
0
100
AcDbLine
 10
524.9583786231153
 20
143.6882063778494
 30
0.0
 11
523.9869500516867
 21
143.6882063778494
 31
0.0
  0
LINE
  5
1AA58
330
18
100
AcDbEntity
  8
0
100
AcDbLine
 10
523.9869500516867
 20
143.6882063778494
 30
0.0
 11
523.5692357659725
 21
144.1059206635634
 31
0.0
  0
LINE
  5
1AA59
330
18
100
AcDbEntity
  8
0
100
AcDbLine
 10
526.1240929088296
 20
143.591063520706
 30
0.0
 11
526.1240929088296
 21
146.9910635207066
 31
0.0
  0
LINE
  5
1AA5A
330
18
100
AcDbEntity
  8
0
100
AcDbLine
 10
524.9583786231153
 20
143.6882063778494
 30
0.0
 11
524.9583786231153
 21
146.9910635207066
 31
0.0
  0
ARC
  5
1AA5B
330
18
100
AcDbEntity
  8
0
100
AcDbCircle
 10
526.9012357659724
 20
149.0893492349924
 30
0.0
 40
0.4857142857142857
100
AcDbArc
 50
270.000000000013
 51
0.0
  0
LINE
  5
1AA5C
330
18
100
AcDbEntity
  8
0
100
AcDbLine
 10
527.3869500516866
 20
160.0911086221825
 30
0.0
 11
526.3869439986433
 21
160.0911086221825
 31
0.0
  0
LINE
  5
1AA5D
330
18
100
AcDbEntity
  8
0
100
AcDbLine
 10
526.3869439986433
 20
161.1911086221821
 30
0.0
 11
526.3869439986433
 21
160.0911086221825
 31
0.0
  0
LINE
  5
1AA5E
330
18
100
AcDbEntity
  8
0
100
AcDbLine
 10
524.9583786231153
 20
154.4710635207071
 30
0.0
 11
523.5692357659725
 21
154.4710635207065
 31
0.0
  0
LINE
  5
1AA5F
330
18
100
AcDbEntity
  8
0
100
AcDbLine
 10
540.9869500516863
 20
160.0911086221813
 30
0.0
 11
540.9869500516863
 21
146.9910635207066
 31
0.0
  0
LINE
  5
1AA60
330
18
100
AcDbEntity
  8
0
100
AcDbLine
 10
541.9869439986439
 20
161.1911086221821
 30
0.0
 11
541.9869439986439
 21
160.0911086221825
 31
0.0
  0
LINE
  5
1AA61
330
18
100
AcDbEntity
  8
0
100
AcDbLine
 10
541.9869439986439
 20
160.0911086221818
 30
0.0
 11
540.9869500516863
 21
160.0911086221813
 31
0.0
  0
LINE
  5
1AA66
330
18
100
AcDbEntity
  8
0
100
AcDbLine
 10
537.1269439986438
 20
183.5911086221813
 30
0.0
 11
537.1269439986438
 21
197.3527994879968
 31
0.0
  0
LINE
  5
1AA67
330
18
100
AcDbEntity
  8
0
100
AcDbLine
 10
531.2469439986442
 20
183.5911086221813
 30
0.0
 11
531.2469439986442
 21
197.3527994879968
 31
0.0
  0
LINE
  5
1AA68
330
18
100
AcDbEntity
  8
0
100
AcDbLine
 10
537.1269439986438
 20
183.5911086221813
 30
0.0
 11
531.2469439986442
 21
183.5911086221813
 31
0.0
  0
LINE
  5
1AA69
330
18
100
AcDbEntity
  8
0
100
AcDbLine
 10
531.2469439986442
 20
197.3527994879968
 30
0.0
 11
537.1269439986438
 21
197.3527994879968
 31
0.0
  0
LINE
  5
1AA6A
330
18
100
AcDbEntity
  8
0
100
AcDbLine
 10
532.0511719657281
 20
197.3527994879968
 30
0.0
 11
532.0511719657281
 21
202.232092685976
 31
0.0
  0
LINE
  5
1AA6B
330
18
100
AcDbEntity
  8
0
100
AcDbLine
 10
532.0511719657281
 20
197.3527994879968
 30
0.0
 11
532.0511719657281
 21
202.235958935
 31
0.0
  0
ARC
  5
1AA6C
330
18
100
AcDbEntity
  8
0
100
AcDbCircle
 10
542.0511719657281
 20
202.235958935
 30
0.0
 40
10.0
100
AcDbArc
 50
145.6173623158446
 51
180.0
  0
ARC
  5
1AA6D
330
18
100
AcDbEntity
  8
0
100
AcDbCircle
 10
522.0511719657281
 20
202.2320926859761
 30
0.0
 40
10.0
100
AcDbArc
 50
0.0
 51
34.42306692944801
  0
LINE
  5
1AA6E
330
18
100
AcDbEntity
  8
0
100
AcDbLine
 10
536.2624929728147
 20
197.3527994879968
 30
0.0
 11
536.2624929728147
 21
202.2385874270655
 31
0.0
  0
ARC
  5
1AA6F
330
18
100
AcDbEntity
  8
0
100
AcDbCircle
 10
546.2624929728145
 20
202.2385874270653
 30
0.0
 40
10.0
100
AcDbArc
 50
145.6448534167714
 51
180.0
  0
CIRCLE
  5
1AA7C
330
18
100
AcDbEntity
  8
0
100
AcDbCircle
 10
697.8891930733126
 20
332.8527994879976
 30
0.0
 40
32.49999999999999
  0
CIRCLE
  5
1AA7D
330
18
100
AcDbEntity
  8
0
100
AcDbCircle
 10
697.8891930733126
 20
332.8527994879976
 30
0.0
 40
34.39999999999863
  0
CIRCLE
  5
1AA7E
330
18
100
AcDbEntity
  8
0
100
AcDbCircle
 10
697.8891930733126
 20
332.8527994879976
 30
0.0
 40
74.99997137530619
  0
CIRCLE
  5
1AA7F
330
18
100
AcDbEntity
  8
0
100
AcDbCircle
 10
697.8891930733126
 20
332.8527994879976
 30
0.0
 40
77.99997153766949
  0
CIRCLE
  5
1AA80
330
18
100
AcDbEntity
  8
0
100
AcDbCircle
 10
195.9573209669592
 20
332.8527994879973
 30
0.0
 40
32.50000000000024
  0
CIRCLE
  5
1AA81
330
18
100
AcDbEntity
  8
中心線
100
AcDbCircle
 10
195.9573209669592
 20
332.8527994879973
 30
0.0
 40
74.99999999999999
  0
LINE
  5
1AACC
330
18
100
AcDbEntity
  8
破線
100
AcDbLine
 10
403.0462775466618
 20
387.8527994879976
 30
0.0
 11
405.0462775466618
 21
387.8527994879976
 31
0.0
  0
LINE
  5
1AACD
330
18
100
AcDbEntity
  8
破線
100
AcDbLine
 10
403.0462775466618
 20
277.8527994879976
 30
0.0
 11
405.0462775466618
 21
277.8527994879976
 31
0.0
  0
LINE
  5
1AACE
330
18
100
AcDbEntity
  8
破線
100
AcDbLine
 10
405.0462775466618
 20
277.8527994879976
 30
0.0
 11
405.0462775466618
 21
387.8527994879976
 31
0.0
  0
VIEWPORT
  5
23
330
15
100
AcDbEntity
 67
     1
  8
0
100
AcDbViewport
 10
199.998431485001
 20
144.0048754237498
 30
0.0
 40
443.4189265123289
 41
290.2110582157103
 68
     1
 69
     1
1001
ACAD
1000
MVIEW
1002
{
1070
    16
1010
0.0
1020
0.0
1030
0.0
1010
0.0
1020
0.0
1030
1.0
1040
0.0
1040
290.2110582157103
1040
199.998431485001
1040
144.0048754237498
1040
50.0
1040
0.0
1040
0.0
1070
     0
1070
   100
1070
     1
1070
     0
1070
     0
1070
     0
1070
     0
1070
     0
1040
0.0
1040
0.0
1040
0.0
1040
10.0
1040
10.0
1040
10.0
1040
10.0
1070
     0
1002
{
1002
}
1002
}
  0
VIEWPORT
  5
2E
330
15
100
AcDbEntity
 67
     1
  8
M_VIEW
100
AcDbViewport
 10
200.0
 20
144.0
 30
0.0
 40
400.0
 41
288.0
 68
     2
 69
     2
1001
ACAD
1000
MVIEW
1002
{
1070
    16
1010
0.0
1020
0.0
1030
0.0
1010
0.0
1020
0.0
1030
1.0
1040
0.0
1040
575.9999988130675
1040
448.7395197562093
1040
283.7596855984364
1040
50.0
1040
0.0
1040
0.0
1070
     0
1070
   100
1070
     1
1070
     0
1070
     0
1070
     0
1070
     0
1070
     0
1040
0.0
1040
0.0
1040
0.0
1040
10.0
1040
10.0
1040
10.0
1040
10.0
1070
     0
1002
{
1002
}
1002
}
  0
INSERT
  5
115F
330
15
100
AcDbEntity
 67
     1
  8
FRAME025
100
AcDbBlockReference
  2
機械A4横_LBP
 10
82.74908858651452
 20
152.030959079227
 30
0.0
  0
TEXT
  5
AA6A
330
15
100
AcDbEntity
 67
     1
  8
文字
  6
BYBLOCK
 62
     0
100
AcDbText
 10
32.81885892396519
 20
73.01882819621747
 30
0.0
 40
3.2
  1

 50
90.0
 41
0.625
  7
MSｺ_ｼｯｸ
100
AcDbText
  0
TEXT
  5
AA6C
330
15
100
AcDbEntity
 67
     1
  8
文字
  6
BYBLOCK
 62
     0
100
AcDbText
 10
37.25020936743055
 20
73.01882819621747
 30
0.0
 40
3.2
  1

 50
90.0
 41
0.625
  7
MSｺ_ｼｯｸ
100
AcDbText
  0
TEXT
  5
FCA5
330
15
100
AcDbEntity
 67
     1
  8
FRAME020
  6
CONTINUOUS
100
AcDbText
 10
126.6213117262079
 20
29.63926951973459
 30
0.0
 40
2.5
  1

 41
0.625
  7
MSｺ_ｼｯｸ
100
AcDbText
  0
TEXT
  5
12229
330
15
100
AcDbEntity
 67
     1
  8
0
100
AcDbText
 10
324.703280378293
 20
10.63168299257869
 30
0.0
 40
6.0
  1
ＳＥ－３１２４３
 41
1.1
100
AcDbText
  0
MTEXT
  5
1A84F
330
15
100
AcDbEntity
 67
     1
  8
DIMENSION
100
AcDbMText
 10
231.522998095244
 20
25.57839855321423
 30
0.0
 40
6.0
 41
160.751760090197
 71
     1
 72
     5
  1
{\Fisocp.shx,extfont.shx;\C7;τDISCﾓｰﾀ D250-040-L NMR-FTDBA2C-401A}
1001
ACAD
1000
MTEXTBEGIN
1070
    73
1070
     1
1070
    44
1040
1.0
1070
    74
1070
     0
1000
MTEXTEND
1000
MTEXTBEGIN
1070
    73
1070
     1
1070
    44
1040
1.0
1070
    74
1070
     0
1000
MTEXTEND
  0
ENDSEC
  0
SECTION
  2
OBJECTS
  0
DICTIONARY
  5
C
330
0
100
AcDbDictionary
  3
ACAD_GROUP
350
D
  3
ACAD_LAYOUT
350
DB2
  3
ACAD_MLINESTYLE
350
1B
  3
ACAD_PLOTSETTINGS
350
DB3
  3
ACAD_PLOTSTYLENAME
350
1A9D3
  3
ACADDIM
350
19E78
  3
ACDBHEADERROUNDTRIPXREC
350
1AB16
  3
DWGPROPS
350
15EC9
1001
ACAD
1000
TREAT_AS_HARD
1070
     0
1000
TREAT_AS_HARD
1070
     0
  0
DICTIONARY
  5
1A5FF
330
2
100
AcDbDictionary
280
     1
  3
ACAD_LAYERFILTERS
360
1A600
  3
ACAD_LAYERSTATES
360
1A60D
1001
ACAD
1000
TREAT_AS_HARD
1070
     1
  0
DICTIONARY
  5
EFC6
330
18
100
AcDbDictionary
280
     1
  3
ACAD_LAYOUTSELFREF
360
1AB38
1001
ACAD
1000
TREAT_AS_HARD
1070
     1
  0
DICTIONARY
  5
EFC4
330
15
100
AcDbDictionary
280
     1
  3
ACAD_LAYOUTSELFREF
360
1AB37
1001
ACAD
1000
TREAT_AS_HARD
1070
     1
  0
DICTIONARY
  5
D
102
{ACAD_REACTORS
330
C
102
}
330
C
100
AcDbDictionary
  3
*A1
350
AC8A
  3
*A10
350
1A0F5
  3
*A11
350
106B3
  3
*A12
350
ACA2
  3
*A13
350
1A10C
  3
*A14
350
185B2
  3
*A15
350
18B72
  3
*A16
350
18B74
  3
*A17
350
1A115
  3
*A18
350
1A11E
  3
*A19
350
ACBD
  3
*A2
350
18122
  3
*A20
350
1A127
  3
*A21
350
18B71
  3
*A22
350
1940E
  3
*A23
350
ACB4
  3
*A24
350
1A128
  3
*A25
350
1A129
  3
*A26
350
185B3
  3
*A27
350
1A12A
  3
*A28
350
18B75
  3
*A29
350
1629C
  3
*A3
350
16068
  3
*A30
350
18518
  3
*A31
350
16F4A
  3
*A32
350
106A5
  3
*A33
350
106C7
  3
*A34
350
1621E
  3
*A35
350
FC91
  3
*A36
350
18B6E
  3
*A37
350
18516
  3
*A38
350
18121
  3
*A39
350
AC9A
  3
*A4
350
18CB7
  3
*A40
350
FC9A
  3
*A41
350
18B8C
  3
*A42
350
1629A
  3
*A43
350
16B69
  3
*A44
350
1944C
  3
*A45
350
FB6C
  3
*A46
350
1606B
  3
*A47
350
18D1B
  3
*A48
350
16B68
  3
*A49
350
FB6B
  3
*A5
350
16059
  3
*A50
350
18D1A
  3
*A51
350
ACAB
  3
*A52
350
106C6
  3
*A53
350
18C1A
  3
*A54
350
FCB8
  3
*A55
350
16058
  3
*A56
350
19448
  3
*A57
350
1606A
  3
*A58
350
FC95
  3
*A59
350
18B8D
  3
*A6
350
18125
  3
*A60
350
FC9B
  3
*A61
350
FBFF
  3
*A62
350
171B1
  3
*A63
350
170B6
  3
*A64
350
ACA1
  3
*A65
350
19046
  3
*A66
350
160D1
  3
*A67
350
16F49
  3
*A68
350
18517
  3
*A69
350
18515
  3
*A7
350
18624
  3
*A8
350
18625
  3
*A9
350
16069
1001
ACAD
1000
TREAT_AS_HARD
1070
     0
1000
TREAT_AS_HARD
1070
     0
  0
DICTIONARY
  5
DB2
102
{ACAD_REACTORS
330
C
102
}
330
C
100
AcDbDictionary
1001
ACAD
1000
TREAT_AS_HARD
1070
     0
1000
TREAT_AS_HARD
1070
     0
  0
DICTIONARY
  5
1B
102
{ACAD_REACTORS
330
C
102
}
330
C
100
AcDbDictionary
  3
STANDARD
350
1C
1001
ACAD
1000
TREAT_AS_HARD
1070
     0
1000
TREAT_AS_HARD
1070
     0
  0
DICTIONARY
  5
DB3
102
{ACAD_REACTORS
330
C
102
}
330
C
100
AcDbDictionary
1001
ACAD
1000
TREAT_AS_HARD
1070
     0
1000
TREAT_AS_HARD
1070
     0
  0
ACDBDICTIONARYWDFLT
  5
1A9D3
102
{ACAD_REACTORS
330
C
102
}
330
C
100
AcDbDictionary
281
     1
  3
Normal
350
1A9D4
100
AcDbDictionaryWithDefault
340
1A9D4
  0
XRECORD
  5
19E78
102
{ACAD_REACTORS
330
C
102
}
330
C
100
AcDbXrecord
 90
   990106
  3

 60
     0
 61
     0
 62
     4
 63
     4
 64
     1
 65
     0
 66
     0
 67
     3
 68
     1
 69
     0
 70
     0
 71
     0
 72
     0
 40
0.0
170
     1
340
19E7D
  0
DICTIONARY
  5
1AB16
102
{ACAD_REACTORS
330
C
102
}
330
C
100
AcDbDictionary
  3
CEPSNTYPE
350
1AB20
  3
DIMSTYLEDATA
350
1AB24
  3
FINGERPRINTGUID
350
1AB21
  3
HYPERLINKBASE
350
1AB19
  3
INSUNITS
350
1AB1F
  3
LAYOUTDICT
350
1AB1B
  3
LWETCUNION
350
1AB1E
  3
PLOTSETDICT
350
1AB1C
  3
PLOTSTYLNAMDICT
350
1AB1D
  3
PSVPSCALE
350
1AB23
  3
PUCSBASE
350
1AB27
  3
PUCSORGBACK
350
1AB2D
  3
PUCSORGBOTTOM
350
1AB29
  3
PUCSORGFRONT
350
1AB2C
  3
PUCSORGLEFT
350
1AB2A
  3
PUCSORGRIGHT
350
1AB2B
  3
PUCSORGTOP
350
1AB28
  3
PUCSORTHOREF
350
1AB25
  3
PUCSORTHOVIEW
350
1AB26
  3
STYLESHEET
350
1AB1A
  3
TSTACKALIGN
350
1AB17
  3
TSTACKSIZE
350
1AB18
  3
UCSBASE
350
1AB30
  3
UCSORGBACK
350
1AB36
  3
UCSORGBOTTOM
350
1AB32
  3
UCSORGFRONT
350
1AB35
  3
UCSORGLEFT
350
1AB33
  3
UCSORGRIGHT
350
1AB34
  3
UCSORGTOP
350
1AB31
  3
UCSORTHOREF
350
1AB2E
  3
UCSORTHOVIEW
350
1AB2F
  3
VERSIONGUID
350
1AB22
  0
XRECORD
  5
15EC9
102
{ACAD_REACTORS
330
C
102
}
330
C
100
AcDbXrecord
  1
DWGPROPS COOKIE
  2

  3

  4

  6

  7

  8

  9

300
=
301
=
302
=
303
=
304
=
305
=
306
=
307
=
308
=
309
=
 40
12.65185717592592
 41
2451224.660162384
 42
2452395.660827315
  1

 90
        0
  0
DICTIONARY
  5
1A600
102
{ACAD_REACTORS
330
1A5FF
102
}
330
1A5FF
100
AcDbDictionary
  3
0
350
1A601
  3
11
350
1A602
  3
150_
350
1A603
  3
160_
350
1A604
  3
170_
350
1A605
  3
171_
350
1A606
  3
350_
350
1A607
  3
4
350
1A608
  3
5
350
1A609
  3
7
350
1A60A
  3
KISEKI
350
1A60B
1001
ACAD
1000
TREAT_AS_HARD
1070
     1
  0
DICTIONARY
  5
1A60D
102
{ACAD_REACTORS
330
1A5FF
102
}
330
1A5FF
100
AcDbDictionary
1001
ACAD
1000
TREAT_AS_HARD
1070
     0
  0
XRECORD
  5
1AB38
102
{ACAD_REACTORS
330
EFC6
102
}
330
EFC6
100
AcDbXrecord
340
18
  0
XRECORD
  5
1AB37
102
{ACAD_REACTORS
330
EFC4
102
}
330
EFC4
100
AcDbXrecord
340
15
  0
GROUP
  5
AC8A
102
{ACAD_REACTORS
330
D
102
}
330
D
100
AcDbGroup
300

 70
     1
 71
     1
  0
GROUP
  5
1A0F5
102
{ACAD_REACTORS
330
D
102
}
330
D
100
AcDbGroup
300

 70
     1
 71
     1
340
195B8
340
195BF
340
195BE
340
195BD
340
195BC
340
195BB
340
195BA
340
195B9
  0
GROUP
  5
106B3
102
{ACAD_REACTORS
330
D
102
}
330
D
100
AcDbGroup
300

 70
     1
 71
     1
  0
GROUP
  5
ACA2
102
{ACAD_REACTORS
330
D
102
}
330
D
100
AcDbGroup
300

 70
     1
 71
     1
  0
GROUP
  5
1A10C
102
{ACAD_REACTORS
330
D
102
}
330
D
100
AcDbGroup
300

 70
     1
 71
     1
340
1A10A
340
1A109
340
1A108
340
1A103
340
1A104
340
1A105
340
1A106
340
1A107
  0
GROUP
  5
185B2
102
{ACAD_REACTORS
330
D
102
}
330
D
100
AcDbGroup
300

 70
     1
 71
     1
  0
GROUP
  5
18B72
102
{ACAD_REACTORS
330
D
102
}
330
D
100
AcDbGroup
300

 70
     1
 71
     1
  0
GROUP
  5
18B74
102
{ACAD_REACTORS
330
D
102
}
330
D
100
AcDbGroup
300

 70
     1
 71
     1
  0
GROUP
  5
1A115
102
{ACAD_REACTORS
330
D
102
}
330
D
100
AcDbGroup
300

 70
     1
 71
     1
340
1A10D
340
1A10E
340
1A10F
340
1A110
340
1A111
340
1A112
340
1A113
340
1A114
  0
GROUP
  5
1A11E
102
{ACAD_REACTORS
330
D
102
}
330
D
100
AcDbGroup
300

 70
     1
 71
     1
340
1A116
340
1A117
340
1A118
340
1A119
340
1A11A
340
1A11B
340
1A11C
340
1A11D
  0
GROUP
  5
ACBD
102
{ACAD_REACTORS
330
D
102
}
330
D
100
AcDbGroup
300

 70
     1
 71
     1
  0
GROUP
  5
18122
102
{ACAD_REACTORS
330
D
102
}
330
D
100
AcDbGroup
300

 70
     1
 71
     1
  0
GROUP
  5
1A127
102
{ACAD_REACTORS
330
D
102
}
330
D
100
AcDbGroup
300

 70
     1
 71
     1
340
1A11F
340
1A120
340
1A121
340
1A122
340
1A123
340
1A124
340
1A125
340
1A126
  0
GROUP
  5
18B71
102
{ACAD_REACTORS
330
D
102
}
330
D
100
AcDbGroup
300

 70
     1
 71
     1
  0
GROUP
  5
1940E
102
{ACAD_REACTORS
330
D
102
}
330
D
100
AcDbGroup
300

 70
     1
 71
     1
  0
GROUP
  5
ACB4
102
{ACAD_REACTORS
330
D
102
}
330
D
100
AcDbGroup
300

 70
     1
 71
     1
  0
GROUP
  5
1A128
102
{ACAD_REACTORS
330
D
102
}
330
D
100
AcDbGroup
300

 70
     1
 71
     1
  0
GROUP
  5
1A129
102
{ACAD_REACTORS
330
D
102
}
330
D
100
AcDbGroup
300

 70
     1
 71
     1
  0
GROUP
  5
185B3
102
{ACAD_REACTORS
330
D
102
}
330
D
100
AcDbGroup
300

 70
     1
 71
     1
  0
GROUP
  5
1A12A
102
{ACAD_REACTORS
330
D
102
}
330
D
100
AcDbGroup
300

 70
     1
 71
     1
  0
GROUP
  5
18B75
102
{ACAD_REACTORS
330
D
102
}
330
D
100
AcDbGroup
300

 70
     1
 71
     1
  0
GROUP
  5
1629C
102
{ACAD_REACTORS
330
D
102
}
330
D
100
AcDbGroup
300

 70
     1
 71
     1
  0
GROUP
  5
16068
102
{ACAD_REACTORS
330
D
102
}
330
D
100
AcDbGroup
300

 70
     1
 71
     1
  0
GROUP
  5
18518
102
{ACAD_REACTORS
330
D
102
}
330
D
100
AcDbGroup
300

 70
     1
 71
     1
  0
GROUP
  5
16F4A
102
{ACAD_REACTORS
330
D
102
}
330
D
100
AcDbGroup
300

 70
     1
 71
     1
  0
GROUP
  5
106A5
102
{ACAD_REACTORS
330
D
102
}
330
D
100
AcDbGroup
300

 70
     1
 71
     1
  0
GROUP
  5
106C7
102
{ACAD_REACTORS
330
D
102
}
330
D
100
AcDbGroup
300

 70
     1
 71
     1
  0
GROUP
  5
1621E
102
{ACAD_REACTORS
330
D
102
}
330
D
100
AcDbGroup
300

 70
     1
 71
     1
  0
GROUP
  5
FC91
102
{ACAD_REACTORS
330
D
102
}
330
D
100
AcDbGroup
300

 70
     1
 71
     1
  0
GROUP
  5
18B6E
102
{ACAD_REACTORS
330
D
102
}
330
D
100
AcDbGroup
300

 70
     1
 71
     1
  0
GROUP
  5
18516
102
{ACAD_REACTORS
330
D
102
}
330
D
100
AcDbGroup
300

 70
     1
 71
     1
  0
GROUP
  5
18121
102
{ACAD_REACTORS
330
D
102
}
330
D
100
AcDbGroup
300

 70
     1
 71
     1
  0
GROUP
  5
AC9A
102
{ACAD_REACTORS
330
D
102
}
330
D
100
AcDbGroup
300

 70
     1
 71
     1
  0
GROUP
  5
18CB7
102
{ACAD_REACTORS
330
D
102
}
330
D
100
AcDbGroup
300

 70
     1
 71
     1
  0
GROUP
  5
FC9A
102
{ACAD_REACTORS
330
D
102
}
330
D
100
AcDbGroup
300

 70
     1
 71
     1
  0
GROUP
  5
18B8C
102
{ACAD_REACTORS
330
D
102
}
330
D
100
AcDbGroup
300

 70
     1
 71
     1
  0
GROUP
  5
1629A
102
{ACAD_REACTORS
330
D
102
}
330
D
100
AcDbGroup
300

 70
     1
 71
     1
  0
GROUP
  5
16B69
102
{ACAD_REACTORS
330
D
102
}
330
D
100
AcDbGroup
300

 70
     1
 71
     1
  0
GROUP
  5
1944C
102
{ACAD_REACTORS
330
D
102
}
330
D
100
AcDbGroup
300

 70
     1
 71
     1
  0
GROUP
  5
FB6C
102
{ACAD_REACTORS
330
D
102
}
330
D
100
AcDbGroup
300

 70
     1
 71
     1
  0
GROUP
  5
1606B
102
{ACAD_REACTORS
330
D
102
}
330
D
100
AcDbGroup
300

 70
     1
 71
     1
  0
GROUP
  5
18D1B
102
{ACAD_REACTORS
330
D
102
}
330
D
100
AcDbGroup
300

 70
     1
 71
     1
  0
GROUP
  5
16B68
102
{ACAD_REACTORS
330
D
102
}
330
D
100
AcDbGroup
300

 70
     1
 71
     1
  0
GROUP
  5
FB6B
102
{ACAD_REACTORS
330
D
102
}
330
D
100
AcDbGroup
300

 70
     1
 71
     1
  0
GROUP
  5
16059
102
{ACAD_REACTORS
330
D
102
}
330
D
100
AcDbGroup
300

 70
     1
 71
     1
  0
GROUP
  5
18D1A
102
{ACAD_REACTORS
330
D
102
}
330
D
100
AcDbGroup
300

 70
     1
 71
     1
  0
GROUP
  5
ACAB
102
{ACAD_REACTORS
330
D
102
}
330
D
100
AcDbGroup
300

 70
     1
 71
     1
  0
GROUP
  5
106C6
102
{ACAD_REACTORS
330
D
102
}
330
D
100
AcDbGroup
300

 70
     1
 71
     1
  0
GROUP
  5
18C1A
102
{ACAD_REACTORS
330
D
102
}
330
D
100
AcDbGroup
300

 70
     1
 71
     1
  0
GROUP
  5
FCB8
102
{ACAD_REACTORS
330
D
102
}
330
D
100
AcDbGroup
300

 70
     1
 71
     1
  0
GROUP
  5
16058
102
{ACAD_REACTORS
330
D
102
}
330
D
100
AcDbGroup
300

 70
     1
 71
     1
  0
GROUP
  5
19448
102
{ACAD_REACTORS
330
D
102
}
330
D
100
AcDbGroup
300

 70
     1
 71
     1
  0
GROUP
  5
1606A
102
{ACAD_REACTORS
330
D
102
}
330
D
100
AcDbGroup
300

 70
     1
 71
     1
  0
GROUP
  5
FC95
102
{ACAD_REACTORS
330
D
102
}
330
D
100
AcDbGroup
300

 70
     1
 71
     1
  0
GROUP
  5
18B8D
102
{ACAD_REACTORS
330
D
102
}
330
D
100
AcDbGroup
300

 70
     1
 71
     1
  0
GROUP
  5
18125
102
{ACAD_REACTORS
330
D
102
}
330
D
100
AcDbGroup
300

 70
     1
 71
     1
  0
GROUP
  5
FC9B
102
{ACAD_REACTORS
330
D
102
}
330
D
100
AcDbGroup
300

 70
     1
 71
     1
  0
GROUP
  5
FBFF
102
{ACAD_REACTORS
330
D
102
}
330
D
100
AcDbGroup
300

 70
     1
 71
     1
  0
GROUP
  5
171B1
102
{ACAD_REACTORS
330
D
102
}
330
D
100
AcDbGroup
300

 70
     1
 71
     1
  0
GROUP
  5
170B6
102
{ACAD_REACTORS
330
D
102
}
330
D
100
AcDbGroup
300

 70
     1
 71
     1
  0
GROUP
  5
ACA1
102
{ACAD_REACTORS
330
D
102
}
330
D
100
AcDbGroup
300

 70
     1
 71
     1
  0
GROUP
  5
19046
102
{ACAD_REACTORS
330
D
102
}
330
D
100
AcDbGroup
300

 70
     1
 71
     1
  0
GROUP
  5
160D1
102
{ACAD_REACTORS
330
D
102
}
330
D
100
AcDbGroup
300

 70
     1
 71
     1
  0
GROUP
  5
16F49
102
{ACAD_REACTORS
330
D
102
}
330
D
100
AcDbGroup
300

 70
     1
 71
     1
  0
GROUP
  5
18517
102
{ACAD_REACTORS
330
D
102
}
330
D
100
AcDbGroup
300

 70
     1
 71
     1
  0
GROUP
  5
18515
102
{ACAD_REACTORS
330
D
102
}
330
D
100
AcDbGroup
300

 70
     1
 71
     1
  0
GROUP
  5
18624
102
{ACAD_REACTORS
330
D
102
}
330
D
100
AcDbGroup
300

 70
     1
 71
     1
  0
GROUP
  5
18625
102
{ACAD_REACTORS
330
D
102
}
330
D
100
AcDbGroup
300

 70
     1
 71
     1
  0
GROUP
  5
16069
102
{ACAD_REACTORS
330
D
102
}
330
D
100
AcDbGroup
300

 70
     1
 71
     1
  0
MLINESTYLE
  5
1C
102
{ACAD_REACTORS
330
1B
102
}
330
1B
100
AcDbMlineStyle
  2
STANDARD
 70
     0
  3

 62
   256
 51
90.0
 52
90.0
 71
     2
 49
0.5
 62
   256
  6
BYLAYER
 49
-0.5
 62
   256
  6
BYLAYER
  0
ACDBPLACEHOLDER
  5
1A9D4
102
{ACAD_REACTORS
330
1A9D3
102
}
330
1A9D3
100
AcDbPlaceHolder
280
     0
  0
XRECORD
  5
1AB20
102
{ACAD_REACTORS
330
1AB16
102
}
330
1AB16
100
AcDbXrecord
 90
        0
  0
XRECORD
  5
1AB24
102
{ACAD_REACTORS
330
1AB16
102
}
330
1AB16
100
AcDbXrecord
1000
DSTYLE
1002
{
1070
   341
340
1215D
1070
   342
340
1215D
1002
}
  0
XRECORD
  5
1AB21
102
{ACAD_REACTORS
330
1AB16
102
}
330
1AB16
100
AcDbXrecord
  1
{5157DEAF-2D56-4EB1-952C-13238C7D7F71}
  0
XRECORD
  5
1AB19
102
{ACAD_REACTORS
330
1AB16
102
}
330
1AB16
100
AcDbXrecord
  1

  0
XRECORD
  5
1AB1F
102
{ACAD_REACTORS
330
1AB16
102
}
330
1AB16
100
AcDbXrecord
 90
        0
  0
XRECORD
  5
1AB1B
102
{ACAD_REACTORS
330
1AB16
102
}
330
1AB16
100
AcDbXrecord
340
DB2
  0
XRECORD
  5
1AB1E
102
{ACAD_REACTORS
330
1AB16
102
}
330
1AB16
100
AcDbXrecord
 90
    10781
  0
XRECORD
  5
1AB1C
102
{ACAD_REACTORS
330
1AB16
102
}
330
1AB16
100
AcDbXrecord
340
DB3
  0
XRECORD
  5
1AB1D
102
{ACAD_REACTORS
330
1AB16
102
}
330
1AB16
100
AcDbXrecord
340
1A9D3
  0
XRECORD
  5
1AB23
102
{ACAD_REACTORS
330
1AB16
102
}
330
1AB16
100
AcDbXrecord
 40
0.0
  0
XRECORD
  5
1AB27
102
{ACAD_REACTORS
330
1AB16
102
}
330
1AB16
100
AcDbXrecord
340
0
  0
XRECORD
  5
1AB2D
102
{ACAD_REACTORS
330
1AB16
102
}
330
1AB16
100
AcDbXrecord
 10
0.0
 20
0.0
 30
0.0
  0
XRECORD
  5
1AB29
102
{ACAD_REACTORS
330
1AB16
102
}
330
1AB16
100
AcDbXrecord
 10
0.0
 20
0.0
 30
0.0
  0
XRECORD
  5
1AB2C
102
{ACAD_REACTORS
330
1AB16
102
}
330
1AB16
100
AcDbXrecord
 10
0.0
 20
0.0
 30
0.0
  0
XRECORD
  5
1AB2A
102
{ACAD_REACTORS
330
1AB16
102
}
330
1AB16
100
AcDbXrecord
 10
0.0
 20
0.0
 30
0.0
  0
XRECORD
  5
1AB2B
102
{ACAD_REACTORS
330
1AB16
102
}
330
1AB16
100
AcDbXrecord
 10
0.0
 20
0.0
 30
0.0
  0
XRECORD
  5
1AB28
102
{ACAD_REACTORS
330
1AB16
102
}
330
1AB16
100
AcDbXrecord
 10
0.0
 20
0.0
 30
0.0
  0
XRECORD
  5
1AB25
102
{ACAD_REACTORS
330
1AB16
102
}
330
1AB16
100
AcDbXrecord
340
0
  0
XRECORD
  5
1AB26
102
{ACAD_REACTORS
330
1AB16
102
}
330
1AB16
100
AcDbXrecord
 70
     0
  0
XRECORD
  5
1AB1A
102
{ACAD_REACTORS
330
1AB16
102
}
330
1AB16
100
AcDbXrecord
  1

  0
XRECORD
  5
1AB17
102
{ACAD_REACTORS
330
1AB16
102
}
330
1AB16
100
AcDbXrecord
 90
        1
  0
XRECORD
  5
1AB18
102
{ACAD_REACTORS
330
1AB16
102
}
330
1AB16
100
AcDbXrecord
 90
       70
  0
XRECORD
  5
1AB30
102
{ACAD_REACTORS
330
1AB16
102
}
330
1AB16
100
AcDbXrecord
340
0
  0
XRECORD
  5
1AB36
102
{ACAD_REACTORS
330
1AB16
102
}
330
1AB16
100
AcDbXrecord
 10
0.0
 20
0.0
 30
0.0
  0
XRECORD
  5
1AB32
102
{ACAD_REACTORS
330
1AB16
102
}
330
1AB16
100
AcDbXrecord
 10
0.0
 20
0.0
 30
0.0
  0
XRECORD
  5
1AB35
102
{ACAD_REACTORS
330
1AB16
102
}
330
1AB16
100
AcDbXrecord
 10
0.0
 20
0.0
 30
0.0
  0
XRECORD
  5
1AB33
102
{ACAD_REACTORS
330
1AB16
102
}
330
1AB16
100
AcDbXrecord
 10
0.0
 20
0.0
 30
0.0
  0
XRECORD
  5
1AB34
102
{ACAD_REACTORS
330
1AB16
102
}
330
1AB16
100
AcDbXrecord
 10
0.0
 20
0.0
 30
0.0
  0
XRECORD
  5
1AB31
102
{ACAD_REACTORS
330
1AB16
102
}
330
1AB16
100
AcDbXrecord
 10
0.0
 20
0.0
 30
0.0
  0
XRECORD
  5
1AB2E
102
{ACAD_REACTORS
330
1AB16
102
}
330
1AB16
100
AcDbXrecord
340
0
  0
XRECORD
  5
1AB2F
102
{ACAD_REACTORS
330
1AB16
102
}
330
1AB16
100
AcDbXrecord
 70
     0
  0
XRECORD
  5
1AB22
102
{ACAD_REACTORS
330
1AB16
102
}
330
1AB16
100
AcDbXrecord
  1
{344F6B08-5AE6-4AD7-B23E-F7F5A86590C9}
  0
XRECORD
  5
1A601
102
{ACAD_REACTORS
330
1A600
102
}
330
1A600
100
AcDbXrecord
  1
0
  1
*0
  1
*
  1
*
 70
     0
  1
*
  1
*
  0
XRECORD
  5
1A602
102
{ACAD_REACTORS
330
1A600
102
}
330
1A600
100
AcDbXrecord
  1
11
  1
*11
  1
*
  1
*
 70
     0
  1
*
  1
*
  0
XRECORD
  5
1A603
102
{ACAD_REACTORS
330
1A600
102
}
330
1A600
100
AcDbXrecord
  1
150_
  1
150_*
  1
*
  1
*
 70
     0
  1
*
  1
*
  0
XRECORD
  5
1A604
102
{ACAD_REACTORS
330
1A600
102
}
330
1A600
100
AcDbXrecord
  1
160_
  1
160_*
  1
*
  1
*
 70
     0
  1
*
  1
*
  0
XRECORD
  5
1A605
102
{ACAD_REACTORS
330
1A600
102
}
330
1A600
100
AcDbXrecord
  1
170_
  1
170_*
  1
*
  1
*
 70
     0
  1
*
  1
*
  0
XRECORD
  5
1A606
102
{ACAD_REACTORS
330
1A600
102
}
330
1A600
100
AcDbXrecord
  1
171_
  1
171_*
  1
*
  1
*
 70
     0
  1
*
  1
*
  0
XRECORD
  5
1A607
102
{ACAD_REACTORS
330
1A600
102
}
330
1A600
100
AcDbXrecord
  1
350_
  1
350_*
  1
*
  1
*
 70
     0
  1
*
  1
*
  0
XRECORD
  5
1A608
102
{ACAD_REACTORS
330
1A600
102
}
330
1A600
100
AcDbXrecord
  1
4
  1
*4
  1
*
  1
*
 70
     0
  1
*
  1
*
  0
XRECORD
  5
1A609
102
{ACAD_REACTORS
330
1A600
102
}
330
1A600
100
AcDbXrecord
  1
5
  1
*5
  1
*
  1
*
 70
     0
  1
*
  1
*
  0
XRECORD
  5
1A60A
102
{ACAD_REACTORS
330
1A600
102
}
330
1A600
100
AcDbXrecord
  1
7
  1
*7
  1
*
  1
*
 70
     0
  1
*
  1
*
  0
XRECORD
  5
1A60B
102
{ACAD_REACTORS
330
1A600
102
}
330
1A600
100
AcDbXrecord
  1
kiseki
  1
kiseki*
  1
*
  1
*
 70
     0
  1
*
  1
*
  0
ENDSEC
  0
EOF
