  0
SECTION
  2
HEADER
  9
$ACADVER
  1
AC1014
  9
$ACADMAINTVER
 70
     9
  9
$DWGCODEPAGE
  3
ANSI_932
  9
$INSBASE
 10
0.0
 20
0.0
 30
0.0
  9
$EXTMIN
 10
-249.1376849701971
 20
34.02297785402287
 30
0.0
  9
$EXTMAX
 10
501.4096308736277
 20
446.6614262630981
 30
0.0
  9
$LIMMIN
 10
0.0
 20
0.0
  9
$LIMMAX
 10
420.0
 20
297.0
  9
$ORTHOMODE
 70
     1
  9
$REGENMODE
 70
     1
  9
$FILLMODE
 70
     1
  9
$QTEXTMODE
 70
     0
  9
$MIRRTEXT
 70
     0
  9
$DRAGMODE
 70
     2
  9
$LTSCALE
 40
20.0
  9
$OSMODE
 70
    37
  9
$ATTMODE
 70
     1
  9
$TEXTSIZE
 40
2.5
  9
$TRACEWID
 40
1.0
  9
$TEXTSTYLE
  7
STANDARD
  9
$CLAYER
  8
0
  9
$CELTYPE
  6
BYLAYER
  9
$CECOLOR
 62
     2
  9
$CELTSCALE
 40
1.0
  9
$DELOBJ
 70
     1
  9
$DISPSILH
 70
     0
  9
$DIMSCALE
 40
2.0
  9
$DIMASZ
 40
3.5
  9
$DIMEXO
 40
1.0
  9
$DIMDLI
 40
6.5
  9
$DIMRND
 40
0.005
  9
$DIMDLE
 40
0.0
  9
$DIMEXE
 40
1.0
  9
$DIMTP
 40
0.0
  9
$DIMTM
 40
0.0
  9
$DIMTXT
 40
3.5
  9
$DIMCEN
 40
2.5
  9
$DIMTSZ
 40
0.0
  9
$DIMTOL
 70
     0
  9
$DIMLIM
 70
     0
  9
$DIMTIH
 70
     0
  9
$DIMTOH
 70
     0
  9
$DIMSE1
 70
     0
  9
$DIMSE2
 70
     0
  9
$DIMTAD
 70
     1
  9
$DIMZIN
 70
     9
  9
$DIMBLK
  1
OPEN30
  9
$DIMASO
 70
     1
  9
$DIMSHO
 70
     1
  9
$DIMPOST
  1

  9
$DIMAPOST
  1

  9
$DIMALT
 70
     0
  9
$DIMALTD
 70
     4
  9
$DIMALTF
 40
0.0394
  9
$DIMLFAC
 40
1.0
  9
$DIMTOFL
 70
     1
  9
$DIMTVP
 40
0.0
  9
$DIMTIX
 70
     0
  9
$DIMSOXD
 70
     0
  9
$DIMSAH
 70
     0
  9
$DIMBLK1
  1
OPEN30
  9
$DIMBLK2
  1
OPEN
  9
$DIMSTYLE
  2
STD_M_
  9
$DIMCLRD
 70
     3
  9
$DIMCLRE
 70
     3
  9
$DIMCLRT
 70
     2
  9
$DIMTFAC
 40
1.0
  9
$DIMGAP
 40
0.75
  9
$DIMJUST
 70
     0
  9
$DIMSD1
 70
     0
  9
$DIMSD2
 70
     0
  9
$DIMTOLJ
 70
     1
  9
$DIMTZIN
 70
     9
  9
$DIMALTZ
 70
     0
  9
$DIMALTTZ
 70
     0
  9
$DIMFIT
 70
     3
  9
$DIMUPT
 70
     0
  9
$DIMUNIT
 70
     2
  9
$DIMDEC
 70
     2
  9
$DIMTDEC
 70
     2
  9
$DIMALTU
 70
     8
  9
$DIMALTTD
 70
     4
  9
$DIMTXSTY
  7
STANDARD
  9
$DIMAUNIT
 70
     0
  9
$LUNITS
 70
     2
  9
$LUPREC
 70
     4
  9
$SKETCHINC
 40
1.0
  9
$FILLETRAD
 40
0.0
  9
$AUNITS
 70
     0
  9
$AUPREC
 70
     0
  9
$MENU
  1
.
  9
$ELEVATION
 40
0.0
  9
$PELEVATION
 40
0.0
  9
$THICKNESS
 40
0.0
  9
$LIMCHECK
 70
     0
  9
$BLIPMODE
 70
     0
  9
$CHAMFERA
 40
1.0
  9
$CHAMFERB
 40
1.0
  9
$CHAMFERC
 40
20.0
  9
$CHAMFERD
 40
0.0
  9
$SKPOLY
 70
     0
  9
$TDCREATE
 40
2451224.660162384
  9
$TDUPDATE
 40
2455573.781707893
  9
$TDINDWG
 40
13.8318258333
  9
$TDUSRTIMER
 40
13.8318254630
  9
$USRTIMER
 70
     1
  9
$ANGBASE
 50
0.0
  9
$ANGDIR
 70
     0
  9
$PDMODE
 70
     0
  9
$PDSIZE
 40
0.0
  9
$PLINEWID
 40
0.0
  9
$COORDS
 70
     0
  9
$SPLFRAME
 70
     0
  9
$SPLINETYPE
 70
     6
  9
$SPLINESEGS
 70
     8
  9
$ATTDIA
 70
     0
  9
$ATTREQ
 70
     1
  9
$HANDLING
 70
-16383
  9
$HANDSEED
  5
1DAA6
  9
$SURFTAB1
 70
     6
  9
$SURFTAB2
 70
     6
  9
$SURFTYPE
 70
     6
  9
$SURFU
 70
     6
  9
$SURFV
 70
     6
  9
$UCSNAME
  2

  9
$UCSORG
 10
0.0
 20
0.0
 30
0.0
  9
$UCSXDIR
 10
1.0
 20
0.0
 30
0.0
  9
$UCSYDIR
 10
0.0
 20
1.0
 30
0.0
  9
$PUCSNAME
  2

  9
$PUCSORG
 10
0.0
 20
0.0
 30
0.0
  9
$PUCSXDIR
 10
1.0
 20
0.0
 30
0.0
  9
$PUCSYDIR
 10
0.0
 20
1.0
 30
0.0
  9
$USERI1
 70
     0
  9
$USERI2
 70
     0
  9
$USERI3
 70
     0
  9
$USERI4
 70
     0
  9
$USERI5
 70
     0
  9
$USERR1
 40
0.0
  9
$USERR2
 40
0.0
  9
$USERR3
 40
0.0
  9
$USERR4
 40
0.0
  9
$USERR5
 40
0.0
  9
$WORLDVIEW
 70
     1
  9
$SHADEDGE
 70
     3
  9
$SHADEDIF
 70
    70
  9
$TILEMODE
 70
     0
  9
$MAXACTVP
 70
    48
  9
$PINSBASE
 10
0.0
 20
0.0
 30
0.0
  9
$PLIMCHECK
 70
     0
  9
$PEXTMIN
 10
0.0
 20
0.0
 30
0.0
  9
$PEXTMAX
 10
400.0
 20
288.0
 30
0.0
  9
$PLIMMIN
 10
-7.917913978980127
 20
-4.347948360411933
  9
$PLIMMAX
 10
418.1938900752071
 20
296.9371547762131
  9
$UNITMODE
 70
     0
  9
$VISRETAIN
 70
     1
  9
$PLINEGEN
 70
     0
  9
$PSLTSCALE
 70
     0
  9
$TREEDEPTH
 70
  3020
  9
$PICKSTYLE
 70
     0
  9
$CMLSTYLE
  2
STANDARD
  9
$CMLJUST
 70
     0
  9
$CMLSCALE
 40
20.0
  9
$PROXYGRAPHICS
 70
     1
  9
$MEASUREMENT
 70
     0
  0
ENDSEC
  0
SECTION
  2
CLASSES
  0
CLASS
  1
HATCH
  2
AcDbHatch
  3
AutoCAD 2000
 90
        0
280
     0
281
     1
  0
CLASS
  1
LWPOLYLINE
  2
AcDbPolyline
  3
AutoCAD 2000
 90
        0
280
     0
281
     1
  0
CLASS
  1
ACDBDICTIONARYWDFLT
  2
AcDbDictionaryWithDefault
  3
AutoCAD 2000
 90
        0
280
     0
281
     0
  0
CLASS
  1
ACDBPLACEHOLDER
  2
AcDbPlaceHolder
  3
AutoCAD 2000
 90
        0
280
     0
281
     0
  0
CLASS
  1
LAYOUT
  2
AcDbLayout
  3
AutoCAD 2000
 90
        0
280
     0
281
     0
  0
CLASS
  1
LONG_TRANSACTION
  2
AcDbLongTransaction
  3
AutoCAD 2000
 90
        0
280
     0
281
     0
  0
CLASS
  1
LWPOLYLINE
  2
AcDbPolyline
  3
AutoCAD 2000
 90
        0
280
     0
281
     1
  0
CLASS
  1
HATCH
  2
AcDbHatch
  3
AutoCAD 2000
 90
        0
280
     0
281
     1
  0
CLASS
  1
XRECORD
  2
AcDbXrecord
  3
AutoCAD 2000
 90
        0
280
     0
281
     0
  0
CLASS
  1
DICTIONARYVAR
  2
AcDbDictionaryVar
  3
AutoCAD 2000
 90
        0
280
     0
281
     0
  0
CLASS
  1
LONG_TRANSACTION
  2
AcDbLongTransaction
  3
AutoCAD 2000
 90
        0
280
     0
281
     0
  0
CLASS
  1
LWPOLYLINE
  2
AcDbPolyline
  3
AutoCAD 2000
 90
        0
280
     0
281
     1
  0
CLASS
  1
HATCH
  2
AcDbHatch
  3
AutoCAD 2000
 90
        0
280
     0
281
     1
  0
CLASS
  1
XRECORD
  2
AcDbXrecord
  3
AutoCAD 2000
 90
        0
280
     0
281
     0
  0
ENDSEC
  0
SECTION
  2
TABLES
  0
TABLE
  2
VPORT
  5
8
330
0
100
AcDbSymbolTable
 70
     3
  0
VPORT
  5
1DA5F
330
8
100
AcDbSymbolTableRecord
100
AcDbViewportTableRecord
  2
*ACTIVE
 70
     0
 10
0.0
 20
0.0
 11
1.0
 21
1.0
 12
122.7861350669579
 22
240.342302480548
 13
0.0
 23
0.0
 14
10.0
 24
10.0
 15
10.0
 25
10.0
 16
0.0
 26
0.0
 36
1.0
 17
0.0
 27
0.0
 37
0.0
 40
489.2903124165709
 41
1.527918781725888
 42
50.0
 43
0.0
 44
0.0
 50
0.0
 51
0.0
 71
     0
 72
   100
 73
     1
 74
     0
 75
     0
 76
     0
 77
     0
 78
     0
  0
ENDTAB
  0
TABLE
  2
LTYPE
  5
5
330
0
100
AcDbSymbolTable
 70
     7
  0
LTYPE
  5
12
330
5
100
AcDbSymbolTableRecord
100
AcDbLinetypeTableRecord
  2
BYBLOCK
 70
     0
  3

 72
    65
 73
     0
 40
0.0
  0
LTYPE
  5
13
330
5
100
AcDbSymbolTableRecord
100
AcDbLinetypeTableRecord
  2
BYLAYER
 70
     0
  3

 72
    65
 73
     0
 40
0.0
  0
LTYPE
  5
14
330
5
100
AcDbSymbolTableRecord
100
AcDbLinetypeTableRecord
  2
CONTINUOUS
 70
     0
  3
Solid line
 72
    65
 73
     0
 40
0.0
  0
LTYPE
  5
126C
330
5
100
AcDbSymbolTableRecord
100
AcDbLinetypeTableRecord
  2
CENTER
 70
     0
  3
____ _ ____ _ ____ _ ____ _ ____ _ ____ _ ____
 72
    65
 73
     4
 40
2.0
 49
1.25
 74
     0
 49
-0.25
 74
     0
 49
0.25
 74
     0
 49
-0.25
 74
     0
  0
LTYPE
  5
126E
330
5
100
AcDbSymbolTableRecord
100
AcDbLinetypeTableRecord
  2
DASHDOT
 70
     0
  3
__ . __ . __ . __ . __ . __ . __ . __ . __ . __
 72
    65
 73
     4
 40
1.0
 49
0.5
 74
     0
 49
-0.25
 74
     0
 49
0.0
 74
     0
 49
-0.25
 74
     0
  0
LTYPE
  5
15420
330
5
100
AcDbSymbolTableRecord
100
AcDbLinetypeTableRecord
  2
CENTER2
 70
     0
  3
Center (.5x) ___ _ ___ _ ___ _ ___ _ ___ _ ___
 72
    65
 73
     4
 40
1.125
 49
0.75
 74
     0
 49
-0.125
 74
     0
 49
0.125
 74
     0
 49
-0.125
 74
     0
  0
LTYPE
  5
15421
330
5
100
AcDbSymbolTableRecord
100
AcDbLinetypeTableRecord
  2
PHANTOM2
 70
     0
  3
Phantom (.5x) ___ _ _ ___ _ _ ___ _ _ ___ _ _
 72
    65
 73
     6
 40
1.25
 49
0.625
 74
     0
 49
-0.125
 74
     0
 49
0.125
 74
     0
 49
-0.125
 74
     0
 49
0.125
 74
     0
 49
-0.125
 74
     0
  0
LTYPE
  5
1AB5E
330
5
100
AcDbSymbolTableRecord
100
AcDbLinetypeTableRecord
  2
HIDDEN2
 70
     0
  3
Hidden (.5x) _ _ _ _ _ _ _ _ _ _ _ _ _ _ _ _ _
 72
    65
 73
     2
 40
0.1875
 49
0.125
 74
     0
 49
-0.0625
 74
     0
  0
LTYPE
  5
1C412
330
5
100
AcDbSymbolTableRecord
100
AcDbLinetypeTableRecord
  2
PHANTOM
 70
     0
  3
Phantom ______  __  __  ______  __  __  ______
 72
    65
 73
     6
 40
2.5
 49
1.25
 74
     0
 49
-0.25
 74
     0
 49
0.25
 74
     0
 49
-0.25
 74
     0
 49
0.25
 74
     0
 49
-0.25
 74
     0
  0
ENDTAB
  0
TABLE
  2
LAYER
  5
2
330
0
100
AcDbSymbolTable
 70
    17
  0
LAYER
  5
E
330
2
100
AcDbSymbolTableRecord
100
AcDbLayerTableRecord
  2
0
 70
     2
 62
     7
  6
CONTINUOUS
  0
LAYER
  5
2C
330
2
100
AcDbSymbolTableRecord
100
AcDbLayerTableRecord
  2
M_VIEW
 70
     4
 62
    -1
  6
CONTINUOUS
  0
LAYER
  5
30
330
2
100
AcDbSymbolTableRecord
100
AcDbLayerTableRecord
  2
FRAME025
 70
     0
 62
     7
  6
CONTINUOUS
  0
LAYER
  5
12B
330
2
100
AcDbSymbolTableRecord
100
AcDbLayerTableRecord
  2
DEFPOINTS
 70
     4
 62
    -7
  6
CONTINUOUS
  0
LAYER
  5
651
330
2
100
AcDbSymbolTableRecord
100
AcDbLayerTableRecord
  2
FRAME020
 70
     0
 62
     7
  6
CONTINUOUS
  0
LAYER
  5
1271
330
2
100
AcDbSymbolTableRecord
100
AcDbLayerTableRecord
  2
A
 70
     0
 62
     7
  6
CONTINUOUS
  0
LAYER
  5
A9BB
330
2
100
AcDbSymbolTableRecord
100
AcDbLayerTableRecord
  2
文字
 70
     0
 62
     7
  6
CONTINUOUS
  0
LAYER
  5
122DE
330
2
100
AcDbSymbolTableRecord
100
AcDbLayerTableRecord
  2
DIMENSION
 70
     0
 62
     7
  6
CONTINUOUS
  0
LAYER
  5
15422
330
2
100
AcDbSymbolTableRecord
100
AcDbLayerTableRecord
  2
細線
 70
     0
 62
     7
  6
CONTINUOUS
  0
LAYER
  5
15423
330
2
100
AcDbSymbolTableRecord
100
AcDbLayerTableRecord
  2
CENTER
 70
     0
 62
     7
  6
CENTER
  0
LAYER
  5
15425
330
2
100
AcDbSymbolTableRecord
100
AcDbLayerTableRecord
  2
中心線
 70
     0
 62
     7
  6
CENTER2
  0
LAYER
  5
15426
330
2
100
AcDbSymbolTableRecord
100
AcDbLayerTableRecord
  2
仮想線
 70
     0
 62
     7
  6
PHANTOM2
  0
LAYER
  5
1AB5F
330
2
100
AcDbSymbolTableRecord
100
AcDbLayerTableRecord
  2
破線
 70
     0
 62
     7
  6
HIDDEN2
  0
LAYER
  5
1C413
330
2
100
AcDbSymbolTableRecord
100
AcDbLayerTableRecord
  2
２点鎖線
 70
     0
 62
     7
  6
PHANTOM
  0
LAYER
  5
1C7F0
330
2
100
AcDbSymbolTableRecord
100
AcDbLayerTableRecord
  2
ｷｬｯﾌ_ﾎ_ﾙﾄ
 70
     0
 62
     7
  6
CONTINUOUS
  0
ENDTAB
  0
TABLE
  2
STYLE
  5
3
330
0
100
AcDbSymbolTable
 70
     4
  0
STYLE
  5
F
330
3
100
AcDbSymbolTableRecord
100
AcDbTextStyleTableRecord
  2
STANDARD
 70
     0
 40
0.0
 41
1.0
 50
0.0
 71
     0
 42
2.5
  3
isocp.shx
  4
bigfont.shx
  0
STYLE
  5
35
330
3
100
AcDbSymbolTableRecord
100
AcDbTextStyleTableRecord
  2
MSｺ_ｼｯｸ
 70
     0
 40
0.0
 41
1.0
 50
0.0
 71
     0
 42
5.0
  3
MS Gothic.ttf
  4

1001
ACAD
1000
MS Gothic
1071
    32817
  0
STYLE
  5
1275
330
3
100
AcDbSymbolTableRecord
100
AcDbTextStyleTableRecord
  2
BIGFONT
 70
     0
 40
2.0
 41
1.0
 50
0.0
 71
     0
 42
2.0
  3
txt.shx
  4
bigfont.shx
  0
ENDTAB
  0
TABLE
  2
VIEW
  5
6
330
0
100
AcDbSymbolTable
 70
     0
  0
ENDTAB
  0
TABLE
  2
UCS
  5
7
330
0
100
AcDbSymbolTable
 70
     0
  0
ENDTAB
  0
TABLE
  2
APPID
  5
9
330
0
100
AcDbSymbolTable
 70
     3
  0
APPID
  5
10
330
9
100
AcDbSymbolTableRecord
100
AcDbRegAppTableRecord
  2
ACAD
 70
     0
  0
APPID
  5
F013
330
9
100
AcDbSymbolTableRecord
100
AcDbRegAppTableRecord
  2
CONTENTBLOCKDESCRIPTION
 70
     0
  0
APPID
  5
F014
330
9
100
AcDbSymbolTableRecord
100
AcDbRegAppTableRecord
  2
CONTENTBLOCKICON
 70
     0
  0
ENDTAB
  0
TABLE
  2
DIMSTYLE
  5
A
330
0
100
AcDbSymbolTable
 70
     2
  0
DIMSTYLE
105
1D
330
A
100
AcDbSymbolTableRecord
100
AcDbDimStyleTableRecord
  2
STANDARD
 70
     0
  3

  4

  5

  6

  7

 40
1.0
 41
0.18
 42
0.0625
 43
0.38
 44
0.18
 45
0.0
 46
0.0
 47
0.0
 48
0.0
140
0.18
141
0.09
142
0.0
143
25.4
144
1.0
145
0.0
146
1.0
147
0.09
 71
     0
 72
     0
 73
     1
 74
     1
 75
     0
 76
     0
 77
     0
 78
     0
170
     0
171
     2
172
     0
173
     0
174
     0
175
     0
176
     0
177
     0
178
     0
270
     2
271
     4
272
     4
273
     2
274
     2
340
F
275
     0
280
     0
281
     0
282
     0
283
     1
284
     0
285
     0
286
     0
287
     3
288
     0
  0
DIMSTYLE
105
1542A
102
{ACAD_REACTORS
330
1596E
330
1588C
330
158FF
330
158FE
330
15ABA
330
1A3D1
330
1B8CF
102
}
330
A
100
AcDbSymbolTableRecord
100
AcDbDimStyleTableRecord
  2
STD_M_
 70
     0
  3

  4

  5
OPEN30
  6
OPEN30
  7
OPEN
 40
2.0
 41
3.5
 42
1.0
 43
6.5
 44
1.0
 45
0.005
 46
0.0
 47
0.0
 48
0.0
140
3.5
141
2.5
142
0.0
143
0.0394
144
1.0
145
0.0
146
1.0
147
0.75
 71
     0
 72
     0
 73
     0
 74
     0
 75
     0
 76
     0
 77
     1
 78
     9
170
     0
171
     4
172
     1
173
     0
174
     0
175
     0
176
     3
177
     3
178
     2
270
     2
271
     2
272
     2
273
     8
274
     4
340
F
275
     0
280
     0
281
     0
282
     0
283
     1
284
     9
285
     0
286
     0
287
     3
288
     0
  0
ENDTAB
  0
TABLE
  2
BLOCK_RECORD
  5
1
330
0
100
AcDbSymbolTable
 70
    43
  0
BLOCK_RECORD
  5
18
102
{ACAD_XDICTIONARY
360
EFC6
102
}
330
1
100
AcDbSymbolTableRecord
100
AcDbBlockTableRecord
  2
*MODEL_SPACE
  0
BLOCK_RECORD
  5
15
102
{ACAD_XDICTIONARY
360
EFC4
102
}
330
1
100
AcDbSymbolTableRecord
100
AcDbBlockTableRecord
  2
*PAPER_SPACE
  0
BLOCK_RECORD
  5
115C
330
1
100
AcDbSymbolTableRecord
100
AcDbBlockTableRecord
  2
機械A4横_LBP
  0
BLOCK_RECORD
  5
1215D
330
1
100
AcDbSymbolTableRecord
100
AcDbBlockTableRecord
  2
_OPEN30
  0
BLOCK_RECORD
  5
15351
330
1
100
AcDbSymbolTableRecord
100
AcDbBlockTableRecord
  2
_OPEN
  0
ENDTAB
  0
ENDSEC
  0
SECTION
  2
BLOCKS
  0
BLOCK
  5
19
330
18
100
AcDbEntity
  8
0
100
AcDbBlockBegin
  2
*MODEL_SPACE
 70
     0
 10
0.0
 20
0.0
 30
0.0
  3
*MODEL_SPACE
  1

  0
ENDBLK
  5
1A
330
18
100
AcDbEntity
  8
0
100
AcDbBlockEnd
  0
BLOCK
  5
16
330
15
100
AcDbEntity
 67
     1
  8
0
100
AcDbBlockBegin
  2
*PAPER_SPACE
 70
     0
 10
0.0
 20
0.0
 30
0.0
  3
*PAPER_SPACE
  1

  0
ENDBLK
  5
17
330
15
100
AcDbEntity
 67
     1
  8
0
100
AcDbBlockEnd
  0
BLOCK
  5
115D
330
115C
100
AcDbEntity
  8
0
100
AcDbBlockBegin
  2
機械A4横_LBP
 70
     0
 10
0.0
 20
0.0
 30
0.0
  3
機械A4横_LBP
  1

  0
ENDBLK
  5
115E
330
115C
100
AcDbEntity
  8
0
100
AcDbBlockEnd
  0
BLOCK
  5
12161
330
1215D
100
AcDbEntity
  8
0
100
AcDbBlockBegin
  2
_OPEN30
 70
     0
 10
0.0
 20
0.0
 30
0.0
  3
_OPEN30
  1

  0
LINE
  5
1215E
330
1215D
100
AcDbEntity
  8
0
  6
BYBLOCK
 62
     0
100
AcDbLine
 10
-1.0
 20
0.26794919
 30
0.0
 11
0.0
 21
0.0
 31
0.0
  0
LINE
  5
1215F
330
1215D
100
AcDbEntity
  8
0
  6
BYBLOCK
 62
     0
100
AcDbLine
 10
0.0
 20
0.0
 30
0.0
 11
-1.0
 21
-0.26794919
 31
0.0
  0
LINE
  5
12160
330
1215D
100
AcDbEntity
  8
0
  6
BYBLOCK
 62
     0
100
AcDbLine
 10
0.0
 20
0.0
 30
0.0
 11
-1.0
 21
0.0
 31
0.0
  0
ENDBLK
  5
12162
330
1215D
100
AcDbEntity
  8
0
100
AcDbBlockEnd
  0
BLOCK
  5
15355
330
15351
100
AcDbEntity
  8
0
100
AcDbBlockBegin
  2
_OPEN
 70
     0
 10
0.0
 20
0.0
 30
0.0
  3
_OPEN
  1

  0
LINE
  5
15352
330
15351
100
AcDbEntity
  8
0
  6
BYBLOCK
 62
     0
100
AcDbLine
 10
-1.0
 20
0.1666666666666666
 30
0.0
 11
0.0
 21
0.0
 31
0.0
  0
LINE
  5
15353
330
15351
100
AcDbEntity
  8
0
  6
BYBLOCK
 62
     0
100
AcDbLine
 10
-1.0
 20
-0.1666666666666666
 30
0.0
 11
0.0
 21
0.0
 31
0.0
  0
LINE
  5
15354
330
15351
100
AcDbEntity
  8
0
  6
BYBLOCK
 62
     0
100
AcDbLine
 10
0.0
 20
0.0
 30
0.0
 11
-1.0
 21
0.0
 31
0.0
  0
ENDBLK
  5
15356
330
15351
100
AcDbEntity
  8
0
100
AcDbBlockEnd
  0
ENDSEC
  0
SECTION
  2
ENTITIES
  0
INSERT
  5
1160
330
18
100
AcDbEntity
  8
FRAME025
100
AcDbBlockReference
  2
機械A4横_LBP
 10
76.00059629174575
 20
114.4379043572399
 30
0.0
  0
MTEXT
  5
1405
330
18
100
AcDbEntity
  8
0
  6
DASHDOT
100
AcDbMText
 10
173.682726410024
 20
430.5785054452221
 30
0.0
 40
1.0
 41
2.0
 71
     1
 72
     5
  1

  7
BIGFONT
1001
ACAD
1000
MTEXTBEGIN
1070
    73
1070
     1
1070
    44
1040
1.0
1070
    74
1070
     0
1000
MTEXTEND
1000
MTEXTBEGIN
1070
    73
1070
     1
1070
    44
1040
1.0
1070
    74
1070
     0
1000
MTEXTEND
  0
MTEXT
  5
1406
330
18
100
AcDbEntity
  8
0
  6
CENTER
100
AcDbMText
 10
411.3606673541956
 20
323.7890106174461
 30
0.0
 40
2.0
 41
15.6417
 71
     1
 72
     5
  1

  7
BIGFONT
1001
ACAD
1000
MTEXTBEGIN
1070
    73
1070
     1
1070
    44
1040
1.0
1070
    74
1070
     0
1000
MTEXTEND
1000
MTEXTBEGIN
1070
    73
1070
     1
1070
    44
1040
1.0
1070
    74
1070
     0
1000
MTEXTEND
  0
MTEXT
  5
1407
330
18
100
AcDbEntity
  8
0
100
AcDbMText
 10
85.77239017043272
 20
222.8564838730205
 30
0.0
 40
2.0
 41
0.0
 71
     1
 72
     5
  1

1001
ACAD
1000
MTEXTBEGIN
1070
    73
1070
     1
1070
    44
1040
1.0
1070
    74
1070
     0
1000
MTEXTEND
1000
MTEXTBEGIN
1070
    73
1070
     1
1070
    44
1040
1.0
1070
    74
1070
     0
1000
MTEXTEND
  0
MTEXT
  5
1408
330
18
100
AcDbEntity
  8
0
100
AcDbMText
 10
130.1718819235825
 20
254.48796746601
 30
0.0
 40
2.0
 41
10.1453
 71
     1
 72
     5
  1

 11
-0.0000000000000002
 21
-1.0
 31
0.0
1001
ACAD
1000
MTEXTBEGIN
1070
    73
1070
     1
1070
    44
1040
1.0
1070
    74
1070
     0
1000
MTEXTEND
1000
MTEXTBEGIN
1070
    73
1070
     1
1070
    44
1040
1.0
1070
    74
1070
     0
1000
MTEXTEND
  0
MTEXT
  5
142F
330
18
100
AcDbEntity
  8
0
  6
BYBLOCK
100
AcDbMText
 10
165.9513799082503
 20
329.2674780082993
 30
0.0
 40
2.0
 41
0.0
 71
     7
 72
     5
  1

 11
0.0000000000000001
 21
1.0
 31
0.0
1001
ACAD
1000
MTEXTBEGIN
1070
    73
1070
     1
1070
    44
1040
1.0
1070
    74
1070
     0
1000
MTEXTEND
1000
MTEXTBEGIN
1070
    73
1070
     1
1070
    44
1040
1.0
1070
    74
1070
     0
1000
MTEXTEND
  0
MTEXT
  5
1430
330
18
100
AcDbEntity
  8
0
  6
BYBLOCK
100
AcDbMText
 10
130.4859915450975
 20
340.0607863667167
 30
0.0
 40
2.0
 41
0.0
 71
     4
 72
     5
  1

 11
-0.0000000000000002
 21
-1.0
 31
0.0
1001
ACAD
1000
MTEXTBEGIN
1070
    73
1070
     1
1070
    44
1040
1.0
1070
    74
1070
     0
1000
MTEXTEND
1000
MTEXTBEGIN
1070
    73
1070
     1
1070
    44
1040
1.0
1070
    74
1070
     0
1000
MTEXTEND
  0
MTEXT
  5
1532
330
18
100
AcDbEntity
  8
0
  6
DASHDOT
100
AcDbMText
 10
173.6828134149741
 20
430.5785054452221
 30
0.0
 40
1.0
 41
2.0
 71
     1
 72
     5
  1

  7
BIGFONT
1001
ACAD
1000
MTEXTBEGIN
1070
    73
1070
     1
1070
    44
1040
1.0
1070
    74
1070
     0
1000
MTEXTEND
1000
MTEXTBEGIN
1070
    73
1070
     1
1070
    44
1040
1.0
1070
    74
1070
     0
1000
MTEXTEND
  0
MTEXT
  5
1533
330
18
100
AcDbEntity
  8
0
  6
CENTER
100
AcDbMText
 10
411.3607543591458
 20
323.7890106174461
 30
0.0
 40
2.0
 41
15.6417
 71
     1
 72
     5
  1

  7
BIGFONT
1001
ACAD
1000
MTEXTBEGIN
1070
    73
1070
     1
1070
    44
1040
1.0
1070
    74
1070
     0
1000
MTEXTEND
1000
MTEXTBEGIN
1070
    73
1070
     1
1070
    44
1040
1.0
1070
    74
1070
     0
1000
MTEXTEND
  0
MTEXT
  5
1534
330
18
100
AcDbEntity
  8
0
100
AcDbMText
 10
85.77247717538298
 20
222.8564838730205
 30
0.0
 40
2.0
 41
0.0
 71
     1
 72
     5
  1

1001
ACAD
1000
MTEXTBEGIN
1070
    73
1070
     1
1070
    44
1040
1.0
1070
    74
1070
     0
1000
MTEXTEND
1000
MTEXTBEGIN
1070
    73
1070
     1
1070
    44
1040
1.0
1070
    74
1070
     0
1000
MTEXTEND
  0
MTEXT
  5
1535
330
18
100
AcDbEntity
  8
0
100
AcDbMText
 10
130.1719689285329
 20
254.48796746601
 30
0.0
 40
2.0
 41
10.1453
 71
     1
 72
     5
  1

 11
-0.0000000000000002
 21
-1.0
 31
0.0
1001
ACAD
1000
MTEXTBEGIN
1070
    73
1070
     1
1070
    44
1040
1.0
1070
    74
1070
     0
1000
MTEXTEND
1000
MTEXTBEGIN
1070
    73
1070
     1
1070
    44
1040
1.0
1070
    74
1070
     0
1000
MTEXTEND
  0
MTEXT
  5
155C
330
18
100
AcDbEntity
  8
0
  6
BYBLOCK
100
AcDbMText
 10
165.9514669132005
 20
329.2674780082993
 30
0.0
 40
2.0
 41
0.0
 71
     7
 72
     5
  1

 11
0.0000000000000001
 21
1.0
 31
0.0
1001
ACAD
1000
MTEXTBEGIN
1070
    73
1070
     1
1070
    44
1040
1.0
1070
    74
1070
     0
1000
MTEXTEND
1000
MTEXTBEGIN
1070
    73
1070
     1
1070
    44
1040
1.0
1070
    74
1070
     0
1000
MTEXTEND
  0
MTEXT
  5
155D
330
18
100
AcDbEntity
  8
0
  6
BYBLOCK
100
AcDbMText
 10
130.4860785500478
 20
340.0607863667167
 30
0.0
 40
2.0
 41
0.0
 71
     4
 72
     5
  1

 11
-0.0000000000000002
 21
-1.0
 31
0.0
1001
ACAD
1000
MTEXTBEGIN
1070
    73
1070
     1
1070
    44
1040
1.0
1070
    74
1070
     0
1000
MTEXTEND
1000
MTEXTBEGIN
1070
    73
1070
     1
1070
    44
1040
1.0
1070
    74
1070
     0
1000
MTEXTEND
  0
TEXT
  5
2279
330
18
100
AcDbEntity
  8
A
100
AcDbText
 10
-27.8188103732038
 20
322.0637567728283
 30
0.0
 40
3.524999999999999
  1
�    
100
AcDbText
  0
TEXT
  5
2283
330
18
100
AcDbEntity
  8
A
100
AcDbText
 10
-175.7439103235753
 20
-107.9032633455339
 30
0.0
 40
2.5
  1

 41
0.5
  7
MSｺ_ｼｯｸ
100
AcDbText
  0
TEXT
  5
2293
330
18
100
AcDbEntity
  8
A
100
AcDbText
 10
-167.9189103235753
 20
-107.9032633455339
 30
0.0
 40
2.5
  1

  7
MSｺ_ｼｯｸ
100
AcDbText
  0
LINE
  5
15869
330
18
100
AcDbEntity
  8
0
100
AcDbLine
 10
178.3111705283129
 20
87.75146087766541
 30
0.0
 11
178.3111705283126
 21
68.85146087766724
 31
0.0
  0
LINE
  5
1586A
330
18
100
AcDbEntity
  8
破線
100
AcDbLine
 10
18.81117052831341
 20
90.05146076024413
 30
0.0
 11
18.81117052831337
 21
49.05146087766514
 31
0.0
  0
LINE
  5
1586B
330
18
100
AcDbEntity
  8
破線
100
AcDbLine
 10
83.81117052831346
 20
90.05146076024415
 30
0.0
 11
83.81117052831333
 21
49.05146087766617
 31
0.0
  0
LINE
  5
1586C
330
18
100
AcDbEntity
  8
0
100
AcDbLine
 10
-75.6888294716868
 20
87.75146087766547
 30
0.0
 11
-75.68882947168686
 21
68.85146087766727
 31
0.0
  0
LINE
  5
15870
330
18
100
AcDbEntity
  8
中心線
100
AcDbLine
 10
51.31117052831348
 20
127.8967612967418
 30
0.0
 11
51.31117052831342
 21
34.02297785402287
 31
0.0
  0
LINE
  5
15873
330
18
100
AcDbEntity
  8
0
100
AcDbLine
 10
-75.68882947168657
 20
87.75146087766547
 30
0.0
 11
178.3111705283134
 21
87.75146087766541
 31
0.0
  0
LINE
  5
15874
330
18
100
AcDbEntity
  8
0
100
AcDbLine
 10
-75.68882947168657
 20
87.25146087766548
 30
0.0
 11
178.3111705283134
 21
87.25146087766542
 31
0.0
  0
LINE
  5
15875
330
18
100
AcDbEntity
  8
0
100
AcDbLine
 10
-41.18882947168652
 20
89.05146076024823
 30
0.0
 11
143.8111705283134
 21
89.05146076024635
 31
0.0
  0
LINE
  5
15876
330
18
100
AcDbEntity
  8
0
100
AcDbLine
 10
-29.1888294716864
 20
92.05146076024414
 30
0.0
 11
131.8111705283117
 21
92.05146076024414
 31
0.0
  0
LINE
  5
1587C
330
18
100
AcDbEntity
  8
中心線
100
AcDbLine
 10
51.31117052831347
 20
446.6614262630981
 30
0.0
 11
51.31117052831347
 21
162.5195861638
 31
0.0
  0
ARC
  5
1587E
330
18
100
AcDbEntity
  8
中心線
100
AcDbCircle
 10
51.3111705283136
 20
304.8527994879977
 30
0.0
 40
75.00000000000074
100
AcDbArc
 50
274.8195344836871
 51
261.8666925622032
  0
CIRCLE
  5
15880
330
18
100
AcDbEntity
  8
0
100
AcDbCircle
 10
51.3111705283136
 20
304.8527994879977
 30
0.0
 40
80.99999999999964
  0
CIRCLE
  5
158D6
330
18
100
AcDbEntity
  8
細線
100
AcDbCircle
 10
28.93664051296623
 20
221.7871726568127
 30
0.0
 40
4.25
  0
CIRCLE
  5
158D7
330
18
100
AcDbEntity
  8
0
100
AcDbCircle
 10
28.93664051296623
 20
221.7871726568127
 30
0.0
 40
4.75
  0
LWPOLYLINE
  5
158D9
330
18
100
AcDbEntity
  8
細線
100
AcDbPolyline
 90
        6
 70
     1
 43
0.0
 10
26.70558146507264
 20
221.1907511745538
 10
28.33762285109287
 20
219.5568072396049
 10
30.5686805001283
 20
220.1532245724517
 10
31.16769676314369
 20
222.383585840247
 10
29.53565537712346
 20
224.0175297751959
 10
27.30459772808845
 20
223.4211124423493
  0
LWPOLYLINE
  5
158EE
330
18
100
AcDbEntity
  8
細線
100
AcDbPolyline
 90
        6
 70
     1
 43
0.0
 10
71.81956570215112
 20
220.1292916436015
 10
74.04992696994678
 20
219.5302753805864
 10
75.68387090489571
 20
221.1623167666066
 10
75.08745357204921
 20
223.3933744156415
 10
72.8570923042537
 20
223.9923906786574
 10
71.22314836930498
 20
222.3603492926366
  0
CIRCLE
  5
158EF
330
18
100
AcDbEntity
  8
細線
100
AcDbCircle
 10
73.45350877384112
 20
221.7613373225471
 30
0.0
 40
4.25
  0
CIRCLE
  5
158F1
330
18
100
AcDbEntity
  8
0
100
AcDbCircle
 10
73.45350877384112
 20
221.7613373225471
 30
0.0
 40
4.75
  0
LWPOLYLINE
  5
158F2
330
18
100
AcDbEntity
  8
細線
100
AcDbPolyline
 90
        6
 70
     1
 43
0.0
 10
114.3201132516082
 20
244.666994211987
 10
113.7236959187615
 20
242.4359365629515
 10
111.493334650966
 20
241.8369202999364
 10
109.8593907160174
 20
243.4689616859564
 10
110.4558080488635
 20
245.7000193349921
 10
112.6861693166592
 20
246.2990355980068
  0
CIRCLE
  5
158F4
330
18
100
AcDbEntity
  8
0
100
AcDbCircle
 10
112.0897486976601
 20
244.0679808430389
 30
0.0
 40
4.75
  0
CIRCLE
  5
158F5
330
18
100
AcDbEntity
  8
細線
100
AcDbCircle
 10
112.0897486976601
 20
244.0679808430389
 30
0.0
 40
4.25
  0
LWPOLYLINE
  5
15914
330
18
100
AcDbEntity
  8
細線
100
AcDbPolyline
 90
        6
 70
     1
 43
0.0
 10
135.9458987560144
 20
284.2184198226675
 10
136.5436205297247
 20
281.9877112918478
 10
134.910631160451
 20
280.3547147860101
 10
132.679920017468
 20
280.9524268109918
 10
132.0821982437577
 20
283.1831353418116
 10
133.7151876130311
 20
284.8161318476492
  0
CIRCLE
  5
15915
330
18
100
AcDbEntity
  8
細線
100
AcDbCircle
 10
134.3129050943179
 20
282.5854241825803
 30
0.0
 40
4.25
  0
CIRCLE
  5
15917
330
18
100
AcDbEntity
  8
0
100
AcDbCircle
 10
134.3129050943179
 20
282.5854241825803
 30
0.0
 40
4.75
  0
LINE
  5
15967
330
18
100
AcDbEntity
  8
0
100
AcDbLine
 10
-41.18882947168652
 20
89.05146076024823
 30
0.0
 11
-41.18882947168652
 21
87.75146087766547
 31
0.0
  0
LINE
  5
15968
330
18
100
AcDbEntity
  8
0
100
AcDbLine
 10
-29.68882947168651
 20
91.55146076024403
 30
0.0
 11
-29.68882947168651
 21
89.05146076024811
 31
0.0
  0
LINE
  5
1596A
330
18
100
AcDbEntity
  8
0
100
AcDbLine
 10
-29.68882947168651
 20
91.55146076024403
 30
0.0
 11
-29.18882947168651
 21
92.05146076024403
 31
0.0
  0
LINE
  5
15970
330
18
100
AcDbEntity
  8
中心線
100
AcDbLine
 10
-79.8667977722024
 20
304.8527994879977
 30
0.0
 11
182.565896851225
 21
304.8527994879971
 31
0.0
  0
CIRCLE
  5
15999
330
18
100
AcDbEntity
  8
0
100
AcDbCircle
 10
-9.603180630743665
 20
244.0679808430389
 30
0.0
 40
4.75
  0
CIRCLE
  5
1599A
330
18
100
AcDbEntity
  8
細線
100
AcDbCircle
 10
-9.603180630743665
 20
244.0679808430389
 30
0.0
 40
4.25
  0
LWPOLYLINE
  5
1599B
330
18
100
AcDbEntity
  8
細線
100
AcDbPolyline
 90
        6
 70
     1
 43
0.0
 10
-11.83354518469201
 20
244.666994211987
 10
-11.2371278518453
 20
242.4359365629515
 10
-9.006766584049612
 20
241.8369202999364
 10
-7.372822649101093
 20
243.4689616859564
 10
-7.969239981947196
 20
245.7000193349918
 10
-10.19960124974286
 20
246.2990355980068
  0
CIRCLE
  5
159A2
330
18
100
AcDbEntity
  8
細線
100
AcDbCircle
 10
-31.81340537112662
 20
282.5372185409053
 30
0.0
 40
4.25
  0
CIRCLE
  5
159A3
330
18
100
AcDbEntity
  8
0
100
AcDbCircle
 10
-31.81340537112662
 20
282.5372185409053
 30
0.0
 40
4.75
  0
LWPOLYLINE
  5
159A4
330
18
100
AcDbEntity
  8
細線
100
AcDbPolyline
 90
        6
 70
     1
 43
0.0
 10
-32.40982685338514
 20
280.3061594930117
 10
-34.04377078833405
 20
281.9382008790318
 10
-33.44735345548737
 20
284.1692585280675
 10
-31.2169921876922
 20
284.7682747910825
 10
-29.58304825274316
 20
283.1362334050628
 10
-30.17946558558981
 20
280.9051757560272
  0
LINE
  5
159C9
330
18
100
AcDbEntity
  8
中心線
100
AcDbLine
 10
16.53403966471693
 20
365.2730959167783
 30
0.0
 11
10.64243008437449
 21
375.3351336638802
 31
0.0
  0
CIRCLE
  5
159CA
330
18
100
AcDbEntity
  8
細線
100
AcDbCircle
 10
-31.8263370274011
 20
327.1022999402144
 30
0.0
 40
4.25
  0
CIRCLE
  5
159CB
330
18
100
AcDbEntity
  8
0
100
AcDbCircle
 10
-31.8263370274011
 20
327.1022999402144
 30
0.0
 40
4.75
  0
LWPOLYLINE
  5
159CD
330
18
100
AcDbEntity
  8
細線
100
AcDbPolyline
 90
        6
 70
     1
 43
0.0
 10
-33.45933068909806
 20
325.4693043001268
 10
-34.05705246280823
 20
327.7000128309467
 10
-32.42406309353498
 20
329.3330093367841
 10
-30.19335195055139
 20
328.7352973118028
 10
-29.59563017684124
 20
326.5045887809831
 10
-31.22861954611487
 20
324.8715922751451
  0
LWPOLYLINE
  5
159E6
330
18
100
AcDbEntity
  8
細線
100
AcDbPolyline
 90
        6
 70
     1
 43
0.0
 10
-11.83354518469188
 20
365.0207299108068
 10
-11.23712785184524
 20
367.2517875598424
 10
-9.006766584049685
 20
367.8508038228575
 10
-7.372822649101037
 20
366.2187624368374
 10
-7.96923998194731
 20
363.9877047878022
 10
-10.19960124974284
 20
363.3886885247871
  0
CIRCLE
  5
159E7
330
18
100
AcDbEntity
  8
細線
100
AcDbCircle
 10
-9.603180630743722
 20
365.6197432797557
 30
0.0
 40
4.25
  0
CIRCLE
  5
159E8
330
18
100
AcDbEntity
  8
0
100
AcDbCircle
 10
-9.603180630743722
 20
365.6197432797557
 30
0.0
 40
4.75
  0
LINE
  5
159EB
330
18
100
AcDbEntity
  8
中心線
100
AcDbLine
 10
86.04589272700229
 20
365.2975625504008
 30
0.0
 11
91.93750230734474
 21
375.3596002975031
 31
0.0
  0
LWPOLYLINE
  5
159ED
330
18
100
AcDbEntity
  8
細線
100
AcDbPolyline
 90
        6
 70
     1
 43
0.0
 10
30.66700236476531
 20
389.5584324791925
 10
28.43664109696966
 20
390.1574487422077
 10
26.80269716202071
 20
388.5254073561872
 10
27.39911449486722
 20
386.2943497071523
 10
29.62947576266248
 20
385.6953334441369
 10
31.26341969761142
 20
387.3273748301571
  0
CIRCLE
  5
159EE
330
18
100
AcDbEntity
  8
細線
100
AcDbCircle
 10
29.0330592930753
 20
387.9263868002476
 30
0.0
 40
4.25
  0
CIRCLE
  5
159EF
330
18
100
AcDbEntity
  8
0
100
AcDbCircle
 10
29.0330592930753
 20
387.9263868002476
 30
0.0
 40
4.75
  0
LWPOLYLINE
  5
15A1D
330
18
100
AcDbEntity
  8
細線
100
AcDbPolyline
 90
        6
 70
     1
 43
0.0
 10
134.8963949203012
 20
329.3815646297827
 10
136.53033885525
 20
327.7495232437623
 10
135.9339215224034
 20
325.5184655947268
 10
133.7035602546082
 20
324.9194493317117
 10
132.0696163196594
 20
326.5514907177315
 10
132.6660336525059
 20
328.7825483667671
  0
CIRCLE
  5
15A1E
330
18
100
AcDbEntity
  8
細線
100
AcDbCircle
 10
134.2999734380431
 20
327.1505055818891
 30
0.0
 40
4.25
  0
CIRCLE
  5
15A1F
330
18
100
AcDbEntity
  8
0
100
AcDbCircle
 10
134.2999734380431
 20
327.1505055818891
 30
0.0
 40
4.75
  0
LWPOLYLINE
  5
15A26
330
18
100
AcDbEntity
  8
細線
100
AcDbPolyline
 90
        6
 70
     1
 43
0.0
 10
114.3201132516082
 20
365.0207299108073
 10
113.7236959187615
 20
367.2517875598426
 10
111.4933346509658
 20
367.8508038228578
 10
109.8593907160173
 20
366.2187624368378
 10
110.4558080488634
 20
363.9877047878026
 10
112.686169316659
 20
363.3886885247873
  0
CIRCLE
  5
15A28
330
18
100
AcDbEntity
  8
0
100
AcDbCircle
 10
112.0897486976601
 20
365.6197432797557
 30
0.0
 40
4.75
  0
CIRCLE
  5
15A29
330
18
100
AcDbEntity
  8
細線
100
AcDbCircle
 10
112.0897486976601
 20
365.6197432797557
 30
0.0
 40
4.25
  0
LWPOLYLINE
  5
15A41
330
18
100
AcDbEntity
  8
細線
100
AcDbPolyline
 90
        6
 70
     1
 43
0.0
 10
75.73243445170803
 20
388.5111992974616
 10
74.0994450824348
 20
390.1441958032993
 10
71.86873393945095
 20
389.5464837783178
 10
71.27101216574121
 20
387.315775247498
 10
72.9040015350147
 20
385.6827787416601
 10
75.13471267799791
 20
386.2804907666418
  0
CIRCLE
  5
15A42
330
18
100
AcDbEntity
  8
細線
100
AcDbCircle
 10
73.5017219122751
 20
387.9134831222567
 30
0.0
 40
4.25
  0
CIRCLE
  5
15A43
330
18
100
AcDbEntity
  8
0
100
AcDbCircle
 10
73.5017219122751
 20
387.9134831222567
 30
0.0
 40
4.75
  0
LINE
  5
15A78
330
18
100
AcDbEntity
  8
0
100
AcDbLine
 10
132.3111705283134
 20
91.55146076024243
 30
0.0
 11
132.3111705283134
 21
89.05146076024653
 31
0.0
  0
LINE
  5
15A7A
330
18
100
AcDbEntity
  8
0
100
AcDbLine
 10
132.3111705283134
 20
91.55146076024243
 30
0.0
 11
131.8111705283132
 21
92.05146076024243
 31
0.0
  0
LINE
  5
15A7C
330
18
100
AcDbEntity
  8
0
100
AcDbLine
 10
143.8111705283134
 20
89.05146076024635
 30
0.0
 11
143.8111705283134
 21
87.75146087766543
 31
0.0
  0
TEXT
  5
15BB9
330
18
100
AcDbEntity
  8
文字
100
AcDbText
 10
33.75741007352962
 20
-205.4742353503406
 30
0.0
 40
3.599999999999998
  1

100
AcDbText
  0
TEXT
  5
15BBA
330
18
100
AcDbEntity
  8
文字
100
AcDbText
 10
36.10086009232259
 20
-210.4640001125286
 30
0.0
 40
3.599999999999998
  1

100
AcDbText
  0
LINE
  5
1825F
330
18
100
AcDbEntity
  8
0
100
AcDbLine
 10
-132.5544688097892
 20
356.9527994879982
 30
0.0
 11
-112.1070618282955
 21
356.952799487998
 31
0.0
  0
LINE
  5
18260
330
18
100
AcDbEntity
  8
0
100
AcDbLine
 10
-158.6729658441345
 20
356.9527994879982
 30
0.0
 11
-107.0991774094385
 21
356.952799487998
 31
0.0
  0
LINE
  5
18261
330
18
100
AcDbEntity
  8
0
100
AcDbLine
 10
-158.6733089916224
 20
352.7527994879982
 30
0.0
 11
-107.0991774094385
 21
352.7527994879982
 31
0.0
  0
ARC
  5
18267
330
18
100
AcDbEntity
  8
0
100
AcDbCircle
 10
-105.9188744630298
 20
353.8027994879981
 30
0.0
 40
1.579751577084588
100
AcDbArc
 50
138.343640729248
 51
221.6563592707518
  0
ARC
  5
18268
330
18
100
AcDbEntity
  8
0
100
AcDbCircle
 10
-108.2794803558474
 20
353.8027994879981
 30
0.0
 40
1.579751577084588
100
AcDbArc
 50
318.3436407292481
 51
41.65635927075181
  0
ARC
  5
18269
330
18
100
AcDbEntity
  8
0
100
AcDbCircle
 10
-108.2794803558474
 20
355.9027994879981
 30
0.0
 40
1.579751577084588
100
AcDbArc
 50
318.3436407292481
 51
41.65635927075181
  0
LINE
  5
182DA
330
18
100
AcDbEntity
  8
0
100
AcDbLine
 10
-48.68882947168663
 20
179.8527994879973
 30
0.0
 11
28.86122620767105
 21
179.8527994879973
 31
0.0
  0
LINE
  5
183FC
330
18
100
AcDbEntity
  8
0
100
AcDbLine
 10
-73.68882947168661
 20
282.4028551673541
 30
0.0
 11
-73.68882947168661
 21
204.8527994879973
 31
0.0
  0
LINE
  5
188B8
330
18
100
AcDbEntity
  8
0
100
AcDbLine
 10
73.76111484895591
 20
179.8527994879973
 30
0.0
 11
151.3111705283133
 21
179.8527994879977
 31
0.0
  0
LINE
  5
18E3B
330
18
100
AcDbEntity
  8
0
100
AcDbLine
 10
-48.68882947168684
 20
429.8527994879978
 30
0.0
 11
28.86122620767037
 21
429.8527994879978
 31
0.0
  0
LINE
  5
18E6F
330
18
100
AcDbEntity
  8
0
100
AcDbLine
 10
-73.68882947168689
 20
404.8527994879978
 30
0.0
 11
-73.68882947168661
 21
327.302743808641
 31
0.0
  0
ARC
  5
1901D
330
18
100
AcDbEntity
  8
0
100
AcDbCircle
 10
-80.71503295411686
 20
365.0517146745873
 30
0.0
 40
9.015903847971632
100
AcDbArc
 50
185.5396333185073
 51
207.8204388558359
  0
LINE
  5
1901E
330
18
100
AcDbEntity
  8
0
100
AcDbLine
 10
-88.68882947168641
 20
365.3527994879977
 30
0.0
 11
-93.18882947168686
 21
360.0813709165699
 31
0.0
  0
ARC
  5
1901F
330
18
100
AcDbEntity
  8
0
100
AcDbCircle
 10
-80.71503295411686
 20
344.6538843014077
 30
0.0
 40
9.015903847971632
100
AcDbArc
 50
152.179561144164
 51
174.4603666814926
  0
LINE
  5
19020
330
18
100
AcDbEntity
  8
0
100
AcDbLine
 10
-88.68882947168641
 20
344.3527994879977
 30
0.0
 11
-93.18882947168686
 21
349.6242280594255
 31
0.0
  0
ARC
  5
19021
330
18
100
AcDbEntity
  8
0
100
AcDbCircle
 10
-79.1888294716864
 20
354.8527994879977
 30
0.0
 40
10.50000000000042
100
AcDbArc
 50
154.7912347032435
 51
205.2087652967562
  0
LINE
  5
19022
330
18
100
AcDbEntity
  8
0
100
AcDbLine
 10
-89.68882947168641
 20
345.5242280594263
 30
0.0
 11
-89.68882947168685
 21
364.1813709165691
 31
0.0
  0
LINE
  5
19023
330
18
100
AcDbEntity
  8
0
100
AcDbLine
 10
-93.18882947168686
 20
349.6242280594252
 30
0.0
 11
-93.18882947168686
 21
360.0813709165699
 31
0.0
  0
ARC
  5
19024
330
18
100
AcDbEntity
  8
0
100
AcDbCircle
 10
-104.0492681062701
 20
353.8027994879975
 30
0.0
 40
1.579751577084588
100
AcDbArc
 50
138.343640729248
 51
221.6563592707518
  0
LINE
  5
19025
330
18
100
AcDbEntity
  8
0
100
AcDbLine
 10
-105.2295710526791
 20
352.7527994879978
 30
0.0
 11
-93.18882947168665
 21
352.7527994879978
 31
0.0
  0
LINE
  5
19026
330
18
100
AcDbEntity
  8
0
100
AcDbLine
 10
-105.2295710526796
 20
356.9527994879976
 30
0.0
 11
-93.18882947168665
 21
356.9527994879976
 31
0.0
  0
ARC
  5
19027
330
18
100
AcDbEntity
  8
0
100
AcDbCircle
 10
-106.4098739990879
 20
355.9027994879976
 30
0.0
 40
1.579751577084588
100
AcDbArc
 50
318.3436407292481
 51
41.65635927075181
  0
ARC
  5
19028
330
18
100
AcDbEntity
  8
0
100
AcDbCircle
 10
-104.0492681062709
 20
355.9027994879976
 30
0.0
 40
1.579751577084588
100
AcDbArc
 50
138.343640729248
 51
221.6563592707518
  0
LINE
  5
19029
330
18
100
AcDbEntity
  8
0
100
AcDbLine
 10
-79.68882947168686
 20
364.3527994879975
 30
0.0
 11
-79.68882947168686
 21
345.3527994879975
 31
0.0
  0
LINE
  5
1902A
330
18
100
AcDbEntity
  8
0
100
AcDbLine
 10
-82.68882947168686
 20
344.3527994879977
 30
0.0
 11
-82.68882947168686
 21
365.3527994879977
 31
0.0
  0
LINE
  5
1902B
330
18
100
AcDbEntity
  8
0
100
AcDbLine
 10
-74.68882947168731
 20
365.3527994879977
 30
0.0
 11
-74.68882947168731
 21
344.3527994879977
 31
0.0
  0
LINE
  5
1902C
330
18
100
AcDbEntity
  8
0
100
AcDbLine
 10
-77.68882947168686
 20
344.3527994879977
 30
0.0
 11
-77.68882947168686
 21
365.3527994879977
 31
0.0
  0
LINE
  5
1902D
330
18
100
AcDbEntity
  8
0
100
AcDbLine
 10
-79.68882947168686
 20
345.3527994879975
 30
0.0
 11
-82.68882947168686
 21
345.3527994879975
 31
0.0
  0
LINE
  5
1902E
330
18
100
AcDbEntity
  8
0
100
AcDbLine
 10
-88.68882947168684
 20
348.8616261295453
 30
0.0
 11
-88.68882947168684
 21
350.3806635329979
 31
0.0
  0
LINE
  5
1902F
330
18
100
AcDbEntity
  8
0
100
AcDbLine
 10
-82.68882947168686
 20
344.3527994879977
 30
0.0
 11
-88.68882947168684
 21
344.3527994879977
 31
0.0
  0
LINE
  5
19030
330
18
100
AcDbEntity
  8
0
100
AcDbLine
 10
-82.68882947168686
 20
348.8616261295453
 30
0.0
 11
-88.68882947168684
 21
348.8616261295453
 31
0.0
  0
LINE
  5
19031
330
18
100
AcDbEntity
  8
0
100
AcDbLine
 10
-82.68882947168686
 20
350.3806635329979
 30
0.0
 11
-88.68882947168684
 21
350.3806635329979
 31
0.0
  0
LINE
  5
19032
330
18
100
AcDbEntity
  8
0
100
AcDbLine
 10
-73.68882947168684
 20
345.8527994879975
 30
0.0
 11
-74.68882947168731
 21
345.8527994879975
 31
0.0
  0
LINE
  5
19033
330
18
100
AcDbEntity
  8
0
100
AcDbLine
 10
-77.68882947168686
 20
347.4527994879971
 30
0.0
 11
-79.68882947168686
 21
347.4527994879971
 31
0.0
  0
LINE
  5
19034
330
18
100
AcDbEntity
  8
0
100
AcDbLine
 10
-74.68882947168731
 20
344.3527994879977
 30
0.0
 11
-77.68882947168686
 21
344.3527994879977
 31
0.0
  0
LINE
  5
19035
330
18
100
AcDbEntity
  8
0
100
AcDbLine
 10
-74.68882947168731
 20
350.3806635329979
 30
0.0
 11
-77.68882947168686
 21
350.3806635329979
 31
0.0
  0
LINE
  5
19036
330
18
100
AcDbEntity
  8
0
100
AcDbLine
 10
-74.68882947168731
 20
348.8616261295453
 30
0.0
 11
-77.68882947168686
 21
348.8616261295453
 31
0.0
  0
LINE
  5
19037
330
18
100
AcDbEntity
  8
0
100
AcDbLine
 10
-79.68882947168686
 20
364.3527994879975
 30
0.0
 11
-82.68882947168686
 21
364.3527994879975
 31
0.0
  0
LINE
  5
19038
330
18
100
AcDbEntity
  8
0
100
AcDbLine
 10
-88.68882947168684
 20
359.3249354429972
 30
0.0
 11
-88.68882947168684
 21
360.8439728464496
 31
0.0
  0
LINE
  5
19039
330
18
100
AcDbEntity
  8
0
100
AcDbLine
 10
-88.68882947168684
 20
359.3249354429973
 30
0.0
 11
-82.68882947168686
 21
359.3249354429973
 31
0.0
  0
LINE
  5
1903A
330
18
100
AcDbEntity
  8
0
100
AcDbLine
 10
-88.68882947168684
 20
360.8439728464496
 30
0.0
 11
-82.68882947168686
 21
360.8439728464496
 31
0.0
  0
LINE
  5
1903B
330
18
100
AcDbEntity
  8
0
100
AcDbLine
 10
-82.68882947168686
 20
365.3527994879977
 30
0.0
 11
-88.68882947168641
 21
365.3527994879977
 31
0.0
  0
LINE
  5
1903C
330
18
100
AcDbEntity
  8
0
100
AcDbLine
 10
-73.68882947168684
 20
363.8527994879975
 30
0.0
 11
-74.68882947168731
 21
363.8527994879975
 31
0.0
  0
LINE
  5
1903D
330
18
100
AcDbEntity
  8
0
100
AcDbLine
 10
-77.68882947168686
 20
362.2527994879972
 30
0.0
 11
-79.68882947168686
 21
362.2527994879972
 31
0.0
  0
LINE
  5
1903E
330
18
100
AcDbEntity
  8
0
100
AcDbLine
 10
-74.68882947168731
 20
365.3527994879977
 30
0.0
 11
-77.68882947168686
 21
365.3527994879977
 31
0.0
  0
LINE
  5
1903F
330
18
100
AcDbEntity
  8
0
100
AcDbLine
 10
-77.68882947168686
 20
359.3249354429972
 30
0.0
 11
-74.68882947168731
 21
359.3249354429972
 31
0.0
  0
LINE
  5
19040
330
18
100
AcDbEntity
  8
0
100
AcDbLine
 10
-77.68882947168686
 20
360.8439728464496
 30
0.0
 11
-74.68882947168731
 21
360.8439728464496
 31
0.0
  0
LINE
  5
198F1
330
18
100
AcDbEntity
  8
0
100
AcDbLine
 10
73.76111484895659
 20
429.8527994879978
 30
0.0
 11
151.3111705283136
 21
429.8527994879974
 31
0.0
  0
LINE
  5
1997A
330
18
100
AcDbEntity
  8
0
100
AcDbLine
 10
176.3111705283131
 20
282.4028551673544
 30
0.0
 11
176.3111705283131
 21
204.8527994879977
 31
0.0
  0
LINE
  5
19983
330
18
100
AcDbEntity
  8
0
100
AcDbLine
 10
176.3111705283136
 20
404.8527994879974
 30
0.0
 11
176.3111705283136
 21
327.3027438086407
 31
0.0
  0
LINE
  5
19DAE
330
18
100
AcDbEntity
  8
0
100
AcDbLine
 10
176.3111705283131
 20
47.55146087766509
 30
0.0
 11
176.3111705283131
 21
67.55146087766617
 31
0.0
  0
LINE
  5
19DAF
330
18
100
AcDbEntity
  8
0
100
AcDbLine
 10
176.3111705283136
 20
47.5514608776661
 30
0.0
 11
176.3111705283136
 21
67.55146087766617
 31
0.0
  0
LINE
  5
19DB3
330
18
100
AcDbEntity
  8
中心線
100
AcDbLine
 10
151.711170528313
 20
72.55146087766616
 30
0.0
 11
151.711170528313
 21
42.55146087766519
 31
0.0
  0
LINE
  5
19DB5
330
18
100
AcDbEntity
  8
0
100
AcDbLine
 10
-73.68882947168732
 20
67.55146087766617
 30
0.0
 11
28.86122620766926
 21
67.55146087766606
 31
0.0
  0
LINE
  5
19DB6
330
18
100
AcDbEntity
  8
0
100
AcDbLine
 10
-73.68882947168732
 20
67.55146087766617
 30
0.0
 11
-73.68882947168732
 21
47.55146087766622
 31
0.0
  0
LINE
  5
19DBF
330
18
100
AcDbEntity
  8
0
100
AcDbLine
 10
-73.68882947168732
 20
47.55146087766622
 30
0.0
 11
176.3111705283131
 21
47.55146087766474
 31
0.0
  0
LINE
  5
19DC0
330
18
100
AcDbEntity
  8
0
100
AcDbLine
 10
-73.68882947168732
 20
47.55146087766622
 30
0.0
 11
176.3111705283136
 21
47.5514608776661
 31
0.0
  0
LINE
  5
1A1E0
330
18
100
AcDbEntity
  8
中心線
100
AcDbLine
 10
-49.08882947168644
 20
72.5514608776663
 30
0.0
 11
-49.08882947168649
 21
42.55146087766534
 31
0.0
  0
LINE
  5
1B8C4
330
18
100
AcDbEntity
  8
0
100
AcDbLine
 10
-75.68882947168686
 20
68.85146087766727
 30
0.0
 11
51.31117052831342
 21
68.85146087766725
 31
0.0
  0
LINE
  5
1B9E5
330
18
100
AcDbEntity
  8
中心線
100
AcDbLine
 10
-37.1097768055381
 20
393.2737468218498
 30
0.0
 11
-61.08620799481411
 21
417.2501780111256
 31
0.0
  0
ARC
  5
1B9E6
330
18
100
AcDbEntity
  8
中心線
100
AcDbCircle
 10
51.31117052831337
 20
304.8527994879977
 30
0.0
 40
142.0
100
AcDbArc
 50
125.9723870492882
 51
144.0276129507114
  0
ARC
  5
1B9E7
330
18
100
AcDbEntity
  8
中心線
100
AcDbCircle
 10
51.3111705283136
 20
304.8527994879971
 30
0.0
 40
142.0
100
AcDbArc
 50
215.972387049288
 51
234.0276129507115
  0
LINE
  5
1B9E8
330
18
100
AcDbEntity
  8
中心線
100
AcDbLine
 10
-37.1097768055385
 20
216.4318521541455
 30
0.0
 11
-61.08620799481435
 21
192.4554209648695
 31
0.0
  0
ARC
  5
1B9E9
330
18
100
AcDbEntity
  8
中心線
100
AcDbCircle
 10
51.3111705283141
 20
304.8527994879973
 30
0.0
 40
142.0
100
AcDbArc
 50
305.9723870492881
 51
324.0276129507116
  0
LINE
  5
1B9EA
330
18
100
AcDbEntity
  8
中心線
100
AcDbLine
 10
139.7321178621655
 20
216.4318521541451
 30
0.0
 11
163.7085490514415
 21
192.4554209648694
 31
0.0
  0
ARC
  5
1B9EB
330
18
100
AcDbEntity
  8
中心線
100
AcDbCircle
 10
51.31117052831388
 20
304.8527994879977
 30
0.0
 40
142.0
100
AcDbArc
 50
35.97238704928822
 51
54.02761295071162
  0
LINE
  5
1B9EC
330
18
100
AcDbEntity
  8
中心線
100
AcDbLine
 10
139.7321178621661
 20
393.2737468218492
 30
0.0
 11
163.7085490514419
 21
417.2501780111251
 31
0.0
  0
SOLID
  5
1C1D0
330
18
100
AcDbEntity
  8
0
  6
BYBLOCK
 62
     0
100
AcDbTrace
 10
-45.68882947168643
 20
307.1622005679977
 30
0.0
 11
-41.68882947168643
 21
304.8527994879976
 31
0.0
 12
-45.68882947168643
 22
302.5433984079975
 32
0.0
 13
-45.68882947168643
 23
302.5433984079975
 33
0.0
  0
SOLID
  5
1C1D2
330
18
100
AcDbEntity
  8
0
  6
BYBLOCK
 62
     0
100
AcDbTrace
 10
-36.68882947168643
 20
307.1622005679977
 30
0.0
 11
-40.68882947168643
 21
304.8527994879976
 31
0.0
 12
-36.68882947168643
 22
302.5433984079975
 32
0.0
 13
-36.68882947168643
 23
302.5433984079975
 33
0.0
  0
CIRCLE
  5
1C2BB
330
18
100
AcDbEntity
  8
0
100
AcDbCircle
 10
392.1667843708673
 20
186.0439228544419
 30
0.0
 40
4.0
  0
CIRCLE
  5
1C2BC
330
18
100
AcDbEntity
  8
DIMENSION
  6
CONTINUOUS
100
AcDbCircle
 10
392.1667843708673
 20
186.0439228544419
 30
0.0
 40
3.5
  0
LWPOLYLINE
  5
1C2BD
330
18
100
AcDbEntity
  8
DIMENSION
  6
CONTINUOUS
100
AcDbPolyline
 90
        6
 70
     1
 43
0.0
 10
393.8398169767863
 20
185.5956351187741
 10
392.6150721065346
 20
184.3708902485229
 10
390.9420395006158
 20
184.8191779841894
 10
390.4937517649483
 20
186.4922105901085
 10
391.7184966351999
 20
187.7169554603602
 10
393.3915292411191
 20
187.2686677246936
  0
CIRCLE
  5
1C2BE
330
18
100
AcDbEntity
  8
0
100
AcDbCircle
 10
328.4972992756475
 20
186.0439228544419
 30
0.0
 40
4.0
  0
CIRCLE
  5
1C2BF
330
18
100
AcDbEntity
  8
DIMENSION
  6
CONTINUOUS
100
AcDbCircle
 10
328.4972992756475
 20
186.0439228544419
 30
0.0
 40
3.5
  0
LWPOLYLINE
  5
1C2C0
330
18
100
AcDbEntity
  8
DIMENSION
  6
CONTINUOUS
100
AcDbPolyline
 90
        6
 70
     1
 43
0.0
 10
329.7220441458987
 20
184.8191779841894
 10
328.0490115399807
 20
184.3708902485229
 10
326.8242666697285
 20
185.5956351187746
 10
327.2725544053952
 20
187.2686677246939
 10
328.9455870113137
 20
187.7169554603606
 10
330.1703318815658
 20
186.4922105901088
  0
LINE
  5
1C2C4
330
18
100
AcDbEntity
  8
中心線
100
AcDbLine
 10
360.3434743172698
 20
173.6027999859094
 30
0.0
 11
360.3206093292456
 21
436.1027989900853
 31
0.0
  0
LINE
  5
1C2C5
330
18
100
AcDbEntity
  8
0
100
AcDbLine
 10
260.3320418232576
 20
179.852799487997
 30
0.0
 11
360.3429299128344
 21
179.852799487997
 31
0.0
  0
LINE
  5
1C2C8
330
18
100
AcDbEntity
  8
0
100
AcDbLine
 10
360.3429299128344
 20
179.852799487997
 30
0.0
 11
460.3320418232579
 21
179.8527994879973
 31
0.0
  0
LINE
  5
1C2D4
330
18
100
AcDbEntity
  8
0
100
AcDbLine
 10
260.3320418232576
 20
429.8527994879973
 30
0.0
 11
360.3211537336811
 21
429.8527994879973
 31
0.0
  0
CIRCLE
  5
1C2D5
330
18
100
AcDbEntity
  8
0
100
AcDbCircle
 10
328.4972992756478
 20
423.6616761215526
 30
0.0
 40
4.0
  0
CIRCLE
  5
1C2D6
330
18
100
AcDbEntity
  8
DIMENSION
  6
CONTINUOUS
100
AcDbCircle
 10
328.4972992756478
 20
423.6616761215526
 30
0.0
 40
3.5
  0
CIRCLE
  5
1C2D8
330
18
100
AcDbEntity
  8
0
100
AcDbCircle
 10
360.3320418232576
 20
304.8527994879973
 30
0.0
 40
32.5
  0
LINE
  5
1C2DB
330
18
100
AcDbEntity
  8
0
100
AcDbLine
 10
235.3320418232576
 20
404.8527994879973
 30
0.0
 11
235.3320418232578
 21
304.8419113984206
 31
0.0
  0
LINE
  5
1C2DC
330
18
100
AcDbEntity
  8
0
100
AcDbLine
 10
231.3227409970997
 20
390.6303246640858
 30
0.0
 11
231.3263993951697
 21
369.6303249827496
 31
0.0
  0
LINE
  5
1C2DD
330
18
100
AcDbEntity
  8
0
100
AcDbLine
 10
234.3263993496459
 20
369.6308476110451
 30
0.0
 11
234.3227409515758
 21
390.6308472923815
 31
0.0
  0
LINE
  5
1C2DE
330
18
100
AcDbEntity
  8
0
100
AcDbLine
 10
229.3262252160868
 20
370.6299765487113
 30
0.0
 11
229.3229152368805
 21
389.6299762603965
 31
0.0
  0
CIRCLE
  5
1C2DF
330
18
100
AcDbEntity
  8
0
100
AcDbCircle
 10
241.5231651897024
 20
273.0180569403874
 30
0.0
 40
4.0
  0
CIRCLE
  5
1C2E0
330
18
100
AcDbEntity
  8
DIMENSION
  6
CONTINUOUS
100
AcDbCircle
 10
241.5231651897024
 20
273.0180569403874
 30
0.0
 40
3.5
  0
LINE
  5
1C2E1
330
18
100
AcDbEntity
  8
0
100
AcDbLine
 10
235.3320418232578
 20
304.8419113984206
 30
0.0
 11
235.3320418232576
 21
204.8527994879969
 31
0.0
  0
ARC
  5
1C2E4
330
18
100
AcDbEntity
  8
中心線
100
AcDbCircle
 10
360.3320418232576
 20
304.8527994879973
 30
0.0
 40
142.0
100
AcDbArc
 50
219.7577689449203
 51
230.2522125203303
  0
LINE
  5
1C2E5
330
18
100
AcDbEntity
  8
中心線
100
AcDbLine
 10
269.1232128075213
 20
213.6280796496872
 30
0.0
 11
250.7400379671405
 21
195.2417020078574
 31
0.0
  0
LINE
  5
1C2E7
330
18
100
AcDbEntity
  8
0
100
AcDbLine
 10
229.3459457237783
 20
220.0299792633401
 30
0.0
 11
229.3426357445721
 21
239.0299789750253
 31
0.0
  0
LINE
  5
1C2E8
330
18
100
AcDbEntity
  8
0
100
AcDbLine
 10
234.3461198573371
 20
219.030850325674
 30
0.0
 11
234.3424614592672
 21
240.0308500070102
 31
0.0
  0
LINE
  5
1C2E9
330
18
100
AcDbEntity
  8
0
100
AcDbLine
 10
231.3424615047911
 20
240.0303273787144
 30
0.0
 11
231.3461199028612
 21
219.0303276973783
 31
0.0
  0
LINE
  5
1C2EC
330
18
100
AcDbEntity
  8
0
100
AcDbLine
 10
231.3450697920901
 20
225.0581916509092
 30
0.0
 11
234.3450697465665
 21
225.0587142792049
 31
0.0
  0
LINE
  5
1C2ED
330
18
100
AcDbEntity
  8
0
100
AcDbLine
 10
231.3453344227334
 20
223.5391542705073
 30
0.0
 11
234.3453343772095
 21
223.5396768988029
 31
0.0
  0
LINE
  5
1C2EE
330
18
100
AcDbEntity
  8
0
100
AcDbLine
 10
234.3461198573371
 20
219.030850325674
 30
0.0
 11
231.3461199028612
 21
219.0303276973783
 31
0.0
  0
LINE
  5
1C2EF
330
18
100
AcDbEntity
  8
0
100
AcDbLine
 10
231.3455798536223
 20
222.1303276503379
 30
0.0
 11
229.3455798839711
 21
222.129979231474
 31
0.0
  0
LINE
  5
1C2F0
330
18
100
AcDbEntity
  8
0
100
AcDbLine
 10
235.3458585280155
 20
220.5310245123443
 30
0.0
 11
234.3458585431893
 21
220.5308503029123
 31
0.0
  0
LINE
  5
1C2F1
330
18
100
AcDbEntity
  8
0
100
AcDbLine
 10
234.3432469393952
 20
235.5220234338815
 30
0.0
 11
231.3432469849189
 21
235.5215008055858
 31
0.0
  0
LINE
  5
1C2F2
330
18
100
AcDbEntity
  8
0
100
AcDbLine
 10
234.3435115700381
 20
234.0029860534794
 30
0.0
 11
231.3435116155621
 21
234.0024634251839
 31
0.0
  0
LINE
  5
1C2F3
330
18
100
AcDbEntity
  8
0
100
AcDbLine
 10
234.3424614592672
 20
240.0308500070102
 30
0.0
 11
231.3424615047911
 21
240.0303273787144
 31
0.0
  0
LINE
  5
1C2F4
330
18
100
AcDbEntity
  8
0
100
AcDbLine
 10
231.34300155403
 20
236.930327425756
 30
0.0
 11
229.343001584379
 21
236.9299790068922
 31
0.0
  0
LINE
  5
1C2F5
330
18
100
AcDbEntity
  8
0
100
AcDbLine
 10
235.3427227582411
 20
238.5310242392038
 30
0.0
 11
234.3427227734153
 21
238.5308500297719
 31
0.0
  0
LWPOLYLINE
  5
1C2F6
330
18
100
AcDbEntity
  8
DIMENSION
  6
CONTINUOUS
100
AcDbPolyline
 90
        6
 70
     1
 43
0.0
 10
241.0748774540345
 20
271.3450243344686
 10
239.8501325837834
 20
272.5697692047205
 10
240.2984203194498
 20
274.2428018106392
 10
241.971452925369
 20
274.6910895463066
 10
243.1961977956205
 20
273.4663446760549
 10
242.7479100599541
 20
271.7933120701359
  0
CIRCLE
  5
1C2F7
330
18
100
AcDbEntity
  8
0
100
AcDbCircle
 10
273.3579077373125
 20
217.8786654020522
 30
0.0
 40
4.0
  0
CIRCLE
  5
1C2F8
330
18
100
AcDbEntity
  8
DIMENSION
  6
CONTINUOUS
100
AcDbCircle
 10
273.3579077373125
 20
217.8786654020522
 30
0.0
 40
3.5
  0
LWPOLYLINE
  5
1C2F9
330
18
100
AcDbEntity
  8
DIMENSION
  6
CONTINUOUS
100
AcDbPolyline
 90
        6
 70
     1
 43
0.0
 10
273.8061954729785
 20
216.205632796133
 10
272.1331628670603
 20
216.6539205318001
 10
271.684875131393
 20
218.3269531377187
 10
272.909620001645
 20
219.5516980079712
 10
274.5826526075635
 20
219.1034102723043
 10
275.0309403432307
 20
217.4303776663858
  0
CIRCLE
  5
1C2FF
330
18
100
AcDbEntity
  8
0
100
AcDbCircle
 10
241.5231651897024
 20
336.6875420356076
 30
0.0
 40
4.0
  0
CIRCLE
  5
1C300
330
18
100
AcDbEntity
  8
DIMENSION
  6
CONTINUOUS
100
AcDbCircle
 10
241.5231651897024
 20
336.6875420356076
 30
0.0
 40
3.5
  0
LWPOLYLINE
  5
1C301
330
18
100
AcDbEntity
  8
DIMENSION
  6
CONTINUOUS
100
AcDbPolyline
 90
        6
 70
     1
 43
0.0
 10
240.2984203194498
 20
335.4627971653561
 10
239.8501325837834
 20
337.1358297712743
 10
241.0748774540349
 20
338.3605746415266
 10
242.7479100599541
 20
337.9122869058598
 10
243.1961977956209
 20
336.2392542999415
 10
241.9714529253695
 20
335.0145094296893
  0
LINE
  5
1C302
330
18
100
AcDbEntity
  8
0
100
AcDbLine
 10
234.3263993496459
 20
369.6308476110451
 30
0.0
 11
231.3263993951697
 21
369.6303249827496
 31
0.0
  0
LINE
  5
1C303
330
18
100
AcDbEntity
  8
0
100
AcDbLine
 10
235.3261380203241
 20
371.1310217977155
 30
0.0
 11
234.3261380354979
 21
371.1308475882833
 31
0.0
  0
ARC
  5
1C30C
330
18
100
AcDbEntity
  8
中心線
100
AcDbCircle
 10
360.3320418232576
 20
304.8527994879973
 30
0.0
 40
142.0
100
AcDbArc
 50
129.7577689449203
 51
140.2522125203302
  0
LINE
  5
1C30D
330
18
100
AcDbEntity
  8
中心線
100
AcDbLine
 10
269.1073219849474
 20
396.0616285037335
 30
0.0
 11
250.7209443431175
 21
414.4448033441146
 31
0.0
  0
LINE
  5
1C30F
330
18
100
AcDbEntity
  8
0
100
AcDbLine
 10
231.3256139150419
 20
374.1391515558785
 30
0.0
 11
234.325613869518
 21
374.1396741841741
 31
0.0
  0
LINE
  5
1C310
330
18
100
AcDbEntity
  8
0
100
AcDbLine
 10
231.3253492843989
 20
375.6581889362802
 30
0.0
 11
234.325349238875
 21
375.6587115645761
 31
0.0
  0
LINE
  5
1C311
330
18
100
AcDbEntity
  8
0
100
AcDbLine
 10
231.3258593459309
 20
372.7303249357091
 30
0.0
 11
229.3258593762798
 21
372.7299765168451
 31
0.0
  0
LINE
  5
1C312
330
18
100
AcDbEntity
  8
0
100
AcDbLine
 10
234.3227409515758
 20
390.6308472923815
 30
0.0
 11
231.3227409970997
 21
390.6303246640858
 31
0.0
  0
LINE
  5
1C313
330
18
100
AcDbEntity
  8
0
100
AcDbLine
 10
234.3237910623467
 20
384.6029833388507
 30
0.0
 11
231.3237911078704
 21
384.6024607105551
 31
0.0
  0
LINE
  5
1C314
330
18
100
AcDbEntity
  8
0
100
AcDbLine
 10
234.3235264317036
 20
386.1220207192527
 30
0.0
 11
231.3235264772276
 21
386.1214980909571
 31
0.0
  0
LINE
  5
1C315
330
18
100
AcDbEntity
  8
0
100
AcDbLine
 10
231.3232810463385
 20
387.5303247111271
 30
0.0
 11
229.3232810766876
 21
387.5299762922633
 31
0.0
  0
LINE
  5
1C316
330
18
100
AcDbEntity
  8
0
100
AcDbLine
 10
235.3230022505496
 20
389.1310215245751
 30
0.0
 11
234.3230022657237
 21
389.1308473151433
 31
0.0
  0
ARC
  5
1C319
330
18
100
AcDbEntity
  8
中心線
100
AcDbCircle
 10
360.3320418232576
 20
304.8527994879973
 30
0.0
 40
123.0
100
AcDbArc
 50
115.4690900631397
 51
134.5152249797357
  0
CIRCLE
  5
1C31A
330
18
100
AcDbEntity
  8
0
100
AcDbCircle
 10
273.3579077373125
 20
391.8269335739427
 30
0.0
 40
4.0
  0
CIRCLE
  5
1C31B
330
18
100
AcDbEntity
  8
DIMENSION
  6
CONTINUOUS
100
AcDbCircle
 10
273.3579077373125
 20
391.8269335739427
 30
0.0
 40
3.5
  0
LWPOLYLINE
  5
1C31C
330
18
100
AcDbEntity
  8
DIMENSION
  6
CONTINUOUS
100
AcDbPolyline
 90
        6
 70
     1
 43
0.0
 10
271.6848751313932
 20
391.3786458382766
 10
272.1331628670605
 20
393.0516784441948
 10
273.8061954729789
 20
393.4999661798619
 10
275.0309403432315
 20
392.2752213096102
 10
274.5826526075645
 20
390.6021887036917
 10
272.909620001646
 20
390.1539009680245
  0
LINE
  5
1C31D
330
18
100
AcDbEntity
  8
中心線
100
AcDbLine
 10
293.2414222139551
 20
400.6960528298852
 30
0.0
 11
286.3585049777423
 21
410.5258773613531
 31
0.0
  0
LINE
  5
1C31E
330
18
100
AcDbEntity
  8
DIMENSION
  6
BYBLOCK
 62
     0
100
AcDbLine
 10
291.5288933884298
 20
403.1692619450421
 30
0.0
 11
288.0874347703236
 21
408.0841742107759
 31
0.0
  0
LINE
  5
1C31F
330
18
100
AcDbEntity
  8
DIMENSION
  6
BYBLOCK
 62
     0
100
AcDbLine
 10
292.2656202122436
 20
407.3474473869621
 30
0.0
 11
287.3507079465098
 21
403.9059887688559
 31
0.0
  0
CIRCLE
  5
1C320
330
18
100
AcDbEntity
  8
0
100
AcDbCircle
 10
289.8081640793768
 20
405.6267180779087
 30
0.0
 40
3.0
  0
HATCH
  5
1C321
330
18
100
AcDbEntity
  8
DIMENSION
  6
BYBLOCK
 62
     0
100
AcDbHatch
 10
0.0
 20
0.0
 30
0.0
210
0.0
220
0.0
230
1.0
  2
ANSI31
 70
     0
 71
     0
 91
        4
 92
        7
 72
     1
 73
     1
 93
        3
 10
292.6086960020293
 20
404.5510689947024
 42
0.0088242164717323
 10
289.8081640793768
 20
405.626718077909
 42
0.0
 10
292.2656202122436
 20
407.3474473869621
 42
-0.2493796996436278
 97
        0
 92
        7
 72
     1
 73
     1
 93
        3
 10
289.8081640793768
 20
405.626718077909
 42
-0.0088242164717323
 10
292.6086960020293
 20
404.5510689947024
 42
-0.1494012440317256
 10
291.5288933884298
 20
403.1692619450421
 42
0.0
 97
        0
 92
        7
 72
     1
 73
     1
 93
        3
 10
289.8081640793768
 20
405.626718077909
 42
0.0
 10
287.3507079465097
 20
403.9059887688559
 42
-0.2400272838228544
 10
286.9714182591954
 20
406.6028702953852
 42
-0.0088242164717324
 97
        0
 92
        7
 72
     1
 73
     1
 93
        3
 10
286.9714182591954
 20
406.6028702953852
 42
-0.1584343322340092
 10
288.0874347703236
 20
408.0841742107759
 42
0.0
 10
289.8081640793768
 20
405.626718077909
 42
0.0088242164717324
 97
        0
 75
     0
 76
     1
 52
235.0
 41
1.0
 77
     0
 78
     1
 53
80.00000000000007
 43
724.9188941313989
 44
311.9708093192838
 45
0.123100969126526
 46
-0.0217060222083662
 79
     0
 47
0.0130930922504628
 98
        4
 10
292.3986445426725
 20
405.5694650484163
 10
291.4206726485798
 20
404.3410361019191
 10
288.2310226927173
 20
405.4494351679347
 10
287.6910017684737
 20
406.8141687133699
  0
LWPOLYLINE
  5
1C328
330
18
100
AcDbEntity
  8
DIMENSION
  6
CONTINUOUS
100
AcDbPolyline
 90
        6
 70
     1
 43
0.0
 10
326.8242666697291
 20
424.1099638572205
 10
328.0490115399808
 20
425.3347087274716
 10
329.7220441458996
 20
424.8864209918052
 10
330.170331881567
 20
423.2133883858861
 10
328.9455870113151
 20
421.9886435156345
 10
327.2725544053963
 20
422.4369312513009
  0
LINE
  5
1C32C
330
18
100
AcDbEntity
  8
0
100
AcDbLine
 10
485.3320418232579
 20
404.8527994879972
 30
0.0
 11
485.3320418232579
 21
304.8636875775741
 31
0.0
  0
ARC
  5
1C32E
330
18
100
AcDbEntity
  8
中心線
100
AcDbCircle
 10
360.3320418232576
 20
304.8527994879973
 30
0.0
 40
123.0
100
AcDbArc
 50
295.4690900631396
 51
314.5152249797356
  0
LINE
  5
1C32F
330
18
100
AcDbEntity
  8
中心線
100
AcDbLine
 10
427.4226614325603
 20
209.0095461461093
 30
0.0
 11
434.3055786687728
 21
199.1797216146414
 31
0.0
  0
CIRCLE
  5
1C330
330
18
100
AcDbEntity
  8
0
100
AcDbCircle
 10
430.8559195671387
 20
204.0788808980858
 30
0.0
 40
3.0
  0
LINE
  5
1C331
330
18
100
AcDbEntity
  8
DIMENSION
  6
BYBLOCK
 62
     0
100
AcDbLine
 10
428.3984634342718
 20
202.3581515890325
 30
0.0
 11
433.3133757000057
 21
205.7996102071385
 31
0.0
  0
LINE
  5
1C332
330
18
100
AcDbEntity
  8
DIMENSION
  6
BYBLOCK
 62
     0
100
AcDbLine
 10
429.1351902580855
 20
206.5363370309526
 30
0.0
 11
432.5766488761917
 21
201.6214247652186
 31
0.0
  0
HATCH
  5
1C333
330
18
100
AcDbEntity
  8
DIMENSION
  6
BYBLOCK
 62
     0
100
AcDbHatch
 10
0.0
 20
0.0
 30
0.0
210
0.0
220
0.0
230
1.0
  2
ANSI31
 70
     0
 71
     0
 91
        4
 92
        7
 72
     1
 73
     1
 93
        3
 10
428.0553876444861
 20
205.1545299812923
 42
0.0088242164717323
 10
430.8559195671387
 20
204.0788808980856
 42
0.0
 10
428.3984634342718
 20
202.3581515890325
 42
-0.2493796996436278
 97
        0
 92
        7
 72
     1
 73
     1
 93
        3
 10
430.8559195671387
 20
204.0788808980856
 42
-0.0088242164717323
 10
428.0553876444861
 20
205.1545299812923
 42
-0.1494012440317256
 10
429.1351902580855
 20
206.5363370309526
 42
0.0
 97
        0
 92
        7
 72
     1
 73
     1
 93
        3
 10
430.8559195671387
 20
204.0788808980856
 42
0.0
 10
433.3133757000058
 20
205.7996102071385
 42
-0.2400272838228544
 10
433.69266538732
 20
203.1027286806093
 42
-0.0088242164717324
 97
        0
 92
        7
 72
     1
 73
     1
 93
        3
 10
433.69266538732
 20
203.1027286806093
 42
-0.1584343322340092
 10
432.5766488761916
 20
201.6214247652186
 42
0.0
 10
430.8559195671387
 20
204.0788808980856
 42
0.0088242164717324
 97
        0
 75
     0
 76
     1
 52
414.9999999999998
 41
1.0
 77
     0
 78
     1
 53
260.0
 43
-4.254810484883363
 44
297.7347896567112
 45
-0.123100969126526
 46
0.0217060222083663
 79
     0
 47
0.0130930922504628
 98
        4
 10
428.265439103843
 20
204.1361339275783
 10
429.2434109979354
 20
205.3645628740755
 10
432.4330609537978
 20
204.2561638080599
 10
432.9730818780418
 20
202.8914302626247
  0
ARC
  5
1C334
330
18
100
AcDbEntity
  8
中心線
100
AcDbCircle
 10
360.3320418232576
 20
304.8527994879973
 30
0.0
 40
142.0
100
AcDbArc
 50
309.7577689449204
 51
320.2522125203303
  0
LINE
  5
1C335
330
18
100
AcDbEntity
  8
中心線
100
AcDbLine
 10
451.556761661568
 20
213.643970472261
 30
0.0
 11
469.9431393033978
 21
195.2607956318801
 31
0.0
  0
CIRCLE
  5
1C337
330
18
100
AcDbEntity
  8
0
100
AcDbCircle
 10
447.3061759092027
 20
217.878665402052
 30
0.0
 40
4.0
  0
CIRCLE
  5
1C338
330
18
100
AcDbEntity
  8
DIMENSION
  6
CONTINUOUS
100
AcDbCircle
 10
447.3061759092027
 20
217.878665402052
 30
0.0
 40
3.5
  0
LWPOLYLINE
  5
1C339
330
18
100
AcDbEntity
  8
DIMENSION
  6
CONTINUOUS
100
AcDbPolyline
 90
        6
 70
     1
 43
0.0
 10
448.9792085151218
 20
218.326953137718
 10
448.530920779455
 20
216.6539205318
 10
446.8578881735362
 20
216.2056327961327
 10
445.633143303284
 20
217.4303776663847
 10
446.0814310389507
 20
219.103410272303
 10
447.7544636448692
 20
219.5516980079704
  0
CIRCLE
  5
1C33E
330
18
100
AcDbEntity
  8
0
100
AcDbCircle
 10
479.1409184568131
 20
273.018056940387
 30
0.0
 40
4.0
  0
CIRCLE
  5
1C33F
330
18
100
AcDbEntity
  8
DIMENSION
  6
CONTINUOUS
100
AcDbCircle
 10
479.1409184568131
 20
273.018056940387
 30
0.0
 40
3.5
  0
LINE
  5
1C340
330
18
100
AcDbEntity
  8
0
100
AcDbLine
 10
485.3320418232579
 20
304.8636875775741
 30
0.0
 11
485.3320418232579
 21
204.8527994879973
 31
0.0
  0
LWPOLYLINE
  5
1C343
330
18
100
AcDbEntity
  8
DIMENSION
  6
CONTINUOUS
100
AcDbPolyline
 90
        6
 70
     1
 43
0.0
 10
480.3656633270656
 20
274.2428018106386
 10
480.813951062732
 20
272.5697692047203
 10
479.5892061924804
 20
271.345024334468
 10
477.9161735865613
 20
271.7933120701346
 10
477.4678858508946
 20
273.4663446760533
 10
478.692630721146
 20
274.6910895463055
  0
CIRCLE
  5
1C345
330
18
100
AcDbEntity
  8
0
100
AcDbCircle
 10
479.1409184568131
 20
336.6875420356072
 30
0.0
 40
4.0
  0
CIRCLE
  5
1C346
330
18
100
AcDbEntity
  8
DIMENSION
  6
CONTINUOUS
100
AcDbCircle
 10
479.1409184568131
 20
336.6875420356072
 30
0.0
 40
3.5
  0
LWPOLYLINE
  5
1C347
330
18
100
AcDbEntity
  8
DIMENSION
  6
CONTINUOUS
100
AcDbPolyline
 90
        6
 70
     1
 43
0.0
 10
479.589206192481
 20
338.3605746415259
 10
480.813951062732
 20
337.1358297712741
 10
480.3656633270656
 20
335.4627971653553
 10
478.6926307211465
 20
335.0145094296881
 10
477.4678858508948
 20
336.2392542999399
 10
477.9161735865613
 20
337.9122869058587
  0
LINE
  5
1C349
330
18
100
AcDbEntity
  8
0
100
AcDbLine
 10
360.3211537336811
 20
429.8527994879973
 30
0.0
 11
460.3320418232579
 21
429.8527994879972
 31
0.0
  0
CIRCLE
  5
1C34B
330
18
100
AcDbEntity
  8
0
100
AcDbCircle
 10
392.1667843708678
 20
423.6616761215526
 30
0.0
 40
4.0
  0
CIRCLE
  5
1C34C
330
18
100
AcDbEntity
  8
DIMENSION
  6
CONTINUOUS
100
AcDbCircle
 10
392.1667843708678
 20
423.6616761215526
 30
0.0
 40
3.5
  0
LWPOLYLINE
  5
1C34D
330
18
100
AcDbEntity
  8
DIMENSION
  6
CONTINUOUS
100
AcDbPolyline
 90
        6
 70
     1
 43
0.0
 10
390.9420395006165
 20
424.8864209918052
 10
392.6150721065346
 20
425.3347087274716
 10
393.8398169767868
 20
424.1099638572201
 10
393.3915292411202
 20
422.4369312513009
 10
391.7184966352017
 20
421.988643515634
 10
390.4937517649496
 20
423.2133883858857
  0
LINE
  5
1C34E
330
18
100
AcDbEntity
  8
中心線
100
AcDbLine
 10
451.5408708389942
 20
396.0775193263076
 30
0.0
 11
469.9240456793751
 21
414.4638969681373
 31
0.0
  0
ARC
  5
1C34F
330
18
100
AcDbEntity
  8
中心線
100
AcDbCircle
 10
360.3320418232576
 20
304.8527994879973
 30
0.0
 40
142.0
100
AcDbArc
 50
39.75776894492046
 51
50.25221252033039
  0
CIRCLE
  5
1C350
330
18
100
AcDbEntity
  8
0
100
AcDbCircle
 10
447.3061759092031
 20
391.8269335739426
 30
0.0
 40
4.0
  0
CIRCLE
  5
1C351
330
18
100
AcDbEntity
  8
DIMENSION
  6
CONTINUOUS
100
AcDbCircle
 10
447.3061759092031
 20
391.8269335739426
 30
0.0
 40
3.5
  0
LWPOLYLINE
  5
1C353
330
18
100
AcDbEntity
  8
DIMENSION
  6
CONTINUOUS
100
AcDbPolyline
 90
        6
 70
     1
 43
0.0
 10
446.8578881735369
 20
393.4999661798618
 10
448.5309207794552
 20
393.0516784441948
 10
448.9792085151223
 20
391.3786458382762
 10
447.7544636448705
 20
390.1539009680236
 10
446.081431038952
 20
390.6021887036905
 10
445.6331433032848
 20
392.2752213096091
  0
LINE
  5
1C358
330
18
100
AcDbEntity
  8
0
100
AcDbLine
 10
219.3229452530994
 20
389.4568055972499
 30
0.0
 11
219.3261955033573
 21
370.7996630232193
 31
0.0
  0
LINE
  5
1C359
330
18
100
AcDbEntity
  8
0
100
AcDbLine
 10
226.3227410729721
 20
390.6294536169263
 30
0.0
 11
226.326399471042
 21
369.6294539355901
 31
0.0
  0
LINE
  5
1C35A
330
18
100
AcDbEntity
  8
0
100
AcDbLine
 10
220.3263995620889
 20
369.6284086789986
 30
0.0
 11
215.8254812977971
 21
374.8990532279917
 31
0.0
  0
ARC
  5
1C35B
330
18
100
AcDbEntity
  8
0
100
AcDbCircle
 10
228.3001435068463
 20
369.9308825984014
 30
0.0
 40
9.015903847971632
100
AcDbArc
 50
152.1895426094193
 51
174.4703481467429
  0
LINE
  5
1C35C
330
18
100
AcDbEntity
  8
0
100
AcDbLine
 10
215.843380072572
 20
234.7561986410835
 30
0.0
 11
215.8452018054886
 21
224.2990559426206
 31
0.0
  0
ARC
  5
1C35D
330
18
100
AcDbEntity
  8
0
100
AcDbCircle
 10
229.8442907265883
 20
229.5300662238985
 30
0.0
 40
10.50000000000042
100
AcDbArc
 50
154.8012161684953
 51
205.2187467620091
  0
LINE
  5
1C35E
330
18
100
AcDbEntity
  8
0
100
AcDbLine
 10
226.3424615806635
 20
240.0294563315551
 30
0.0
 11
226.3461199787334
 21
219.0294566502188
 31
0.0
  0
LINE
  5
1C35F
330
18
100
AcDbEntity
  8
0
100
AcDbLine
 10
219.342665760791
 20
238.8568083118788
 30
0.0
 11
219.3459160110488
 21
220.1996657378483
 31
0.0
  0
LINE
  5
1C360
330
18
100
AcDbEntity
  8
0
100
AcDbLine
 10
220.3450699590093
 20
225.056275347158
 30
0.0
 11
226.3450698679626
 21
225.0573206037496
 31
0.0
  0
LINE
  5
1C361
330
18
100
AcDbEntity
  8
0
100
AcDbLine
 10
220.3453345896523
 20
223.5372379667563
 30
0.0
 11
226.3453344986057
 21
223.5382832233478
 31
0.0
  0
LINE
  5
1C362
330
18
100
AcDbEntity
  8
0
100
AcDbLine
 10
226.3461199787334
 20
219.0294566502188
 30
0.0
 11
220.3461200697805
 21
219.0284113936274
 31
0.0
  0
LINE
  5
1C363
330
18
100
AcDbEntity
  8
0
100
AcDbLine
 10
220.3450699590093
 20
225.0562753471583
 30
0.0
 11
220.3453345896523
 21
223.5372379667563
 31
0.0
  0
LINE
  5
1C364
330
18
100
AcDbEntity
  8
0
100
AcDbLine
 10
220.3461200697805
 20
219.0284113936274
 30
0.0
 11
215.8452018054886
 21
224.2990559426206
 31
0.0
  0
ARC
  5
1C365
330
18
100
AcDbEntity
  8
0
100
AcDbCircle
 10
228.3198640145377
 20
219.33088531303
 30
0.0
 40
9.015903847971632
100
AcDbArc
 50
152.1895426094193
 51
174.4703481467429
  0
LINE
  5
1C366
330
18
100
AcDbEntity
  8
0
100
AcDbLine
 10
229.3459457237783
 20
220.0299792633401
 30
0.0
 11
226.3459457693016
 21
220.0294566350443
 31
0.0
  0
LINE
  5
1C367
330
18
100
AcDbEntity
  8
0
100
AcDbLine
 10
226.3424615806635
 20
240.0294563315551
 30
0.0
 11
220.3424616717103
 21
240.0284110749637
 31
0.0
  0
LINE
  5
1C368
330
18
100
AcDbEntity
  8
0
100
AcDbLine
 10
226.3432470607913
 20
235.5206297584263
 30
0.0
 11
220.3432471518381
 21
235.5195845018349
 31
0.0
  0
LINE
  5
1C369
330
18
100
AcDbEntity
  8
0
100
AcDbLine
 10
226.3435116914345
 20
234.0015923780244
 30
0.0
 11
220.3435117824813
 21
234.0005471214329
 31
0.0
  0
LINE
  5
1C36A
330
18
100
AcDbEntity
  8
0
100
AcDbLine
 10
203.8170365794039
 20
227.4364204344827
 30
0.0
 11
215.8577779776849
 21
227.4385180452334
 31
0.0
  0
LINE
  5
1C36B
330
18
100
AcDbEntity
  8
0
100
AcDbLine
 10
203.8163048997905
 20
231.63642037075
 30
0.0
 11
215.8570462980708
 21
231.6385179815005
 31
0.0
  0
ARC
  5
1C36C
330
18
100
AcDbEntity
  8
0
100
AcDbCircle
 10
202.6365507310023
 20
228.4862147986439
 30
0.0
 40
1.579751577084588
100
AcDbArc
 50
318.3536221944966
 51
41.66634073600354
  0
ARC
  5
1C36D
330
18
100
AcDbEntity
  8
0
100
AcDbCircle
 10
204.9967907481923
 20
230.5866260065891
 30
0.0
 40
1.579751577084588
100
AcDbArc
 50
138.3536221944964
 51
221.6663407360035
  0
ARC
  5
1C36E
330
18
100
AcDbEntity
  8
0
100
AcDbCircle
 10
204.9971565879985
 20
228.4866260384553
 30
0.0
 40
1.579751577084588
100
AcDbArc
 50
138.3536221944964
 51
221.6663407360035
  0
LINE
  5
1C36F
330
18
100
AcDbEntity
  8
0
100
AcDbLine
 10
220.3424616717108
 20
240.0284110749637
 30
0.0
 11
215.843380072572
 21
234.7561986410834
 31
0.0
  0
ARC
  5
1C370
330
18
100
AcDbEntity
  8
0
100
AcDbCircle
 10
228.3163105200963
 20
239.7287153766835
 30
0.0
 40
9.015903847971632
100
AcDbArc
 50
185.5496147837551
 51
207.8304203210791
  0
LINE
  5
1C371
330
18
100
AcDbEntity
  8
0
100
AcDbLine
 10
220.3432471518381
 20
235.5195845018349
 30
0.0
 11
220.3435117824813
 21
234.0005471214331
 31
0.0
  0
LINE
  5
1C372
330
18
100
AcDbEntity
  8
0
100
AcDbLine
 10
229.3426357445721
 20
239.0299789750253
 30
0.0
 11
226.3426357900954
 21
239.0294563467295
 31
0.0
  0
LINE
  5
1C373
330
18
100
AcDbEntity
  8
0
100
AcDbLine
 10
226.326399471042
 20
369.6294539355901
 30
0.0
 11
220.3263995620889
 21
369.6284086789986
 31
0.0
  0
LINE
  5
1C374
330
18
100
AcDbEntity
  8
0
100
AcDbLine
 10
229.3262252160868
 20
370.6299765487113
 30
0.0
 11
226.3262252616101
 21
370.6294539204156
 31
0.0
  0
LINE
  5
1C375
330
18
100
AcDbEntity
  8
0
100
AcDbLine
 10
226.3227410729721
 20
390.6294536169263
 30
0.0
 11
220.3227411640189
 21
390.6284083603348
 31
0.0
  0
LINE
  5
1C376
330
18
100
AcDbEntity
  8
0
100
AcDbLine
 10
220.3256140819608
 20
374.1372352521275
 30
0.0
 11
226.3256139909142
 21
374.1382805087191
 31
0.0
  0
LINE
  5
1C377
330
18
100
AcDbEntity
  8
0
100
AcDbLine
 10
220.325349451318
 20
375.6562726325292
 30
0.0
 11
226.325349360271
 21
375.6573178891207
 31
0.0
  0
LINE
  5
1C378
330
18
100
AcDbEntity
  8
0
100
AcDbLine
 10
226.3237911837429
 20
384.6015896633955
 30
0.0
 11
220.3237912747896
 21
384.6005444068042
 31
0.0
  0
LINE
  5
1C379
330
18
100
AcDbEntity
  8
0
100
AcDbLine
 10
226.3235265531
 20
386.1206270437975
 30
0.0
 11
220.3235266441465
 21
386.1195817872062
 31
0.0
  0
ARC
  5
1C37A
330
18
100
AcDbEntity
  8
0
100
AcDbCircle
 10
207.1732159097686
 20
378.8885126683258
 30
0.0
 40
1.880656636903949
100
AcDbArc
 50
138.3436407292487
 51
221.656359270751
  0
ARC
  5
1C37B
330
18
100
AcDbEntity
  8
0
100
AcDbCircle
 10
207.173215909769
 20
381.3885126650258
 30
0.0
 40
1.880656636903949
100
AcDbArc
 50
138.3436407292487
 51
221.656359270751
  0
ARC
  5
1C37C
330
18
100
AcDbEntity
  8
0
100
AcDbCircle
 10
229.8245702188968
 20
380.1300635092697
 30
0.0
 40
10.50000000000042
100
AcDbArc
 50
154.8012161684953
 51
205.2187467620091
  0
LINE
  5
1C37D
330
18
100
AcDbEntity
  8
0
100
AcDbLine
 10
215.8236595648805
 20
385.3561959264546
 30
0.0
 11
215.8254812977971
 21
374.8990532279917
 31
0.0
  0
LINE
  5
1C37E
330
18
100
AcDbEntity
  8
0
100
AcDbLine
 10
215.8245690087329
 20
377.6385126699759
 30
0.0
 11
205.7680933563748
 21
377.6385126699758
 31
0.0
  0
LINE
  5
1C37F
330
18
100
AcDbEntity
  8
0
100
AcDbLine
 10
215.8245690087329
 20
382.6385126633758
 30
0.0
 11
205.7680933563755
 21
382.6385126633756
 31
0.0
  0
ARC
  5
1C380
330
18
100
AcDbEntity
  8
0
100
AcDbCircle
 10
204.3629708029817
 20
381.3885126650258
 30
0.0
 40
1.880656636903949
100
AcDbArc
 50
318.3436407292488
 51
41.6563592707512
  0
LINE
  5
1C381
330
18
100
AcDbEntity
  8
0
100
AcDbLine
 10
220.325349451318
 20
375.6562726325292
 30
0.0
 11
220.3256140819608
 21
374.1372352521275
 31
0.0
  0
LINE
  5
1C382
330
18
100
AcDbEntity
  8
0
100
AcDbLine
 10
220.3235266441465
 20
386.1195817872062
 30
0.0
 11
220.3237912747896
 21
384.6005444068042
 31
0.0
  0
LINE
  5
1C383
330
18
100
AcDbEntity
  8
0
100
AcDbLine
 10
220.3227411640193
 20
390.6284083603348
 30
0.0
 11
215.8236595648805
 21
385.3561959264546
 31
0.0
  0
ARC
  5
1C384
330
18
100
AcDbEntity
  8
0
100
AcDbCircle
 10
228.2965900124048
 20
390.3287126620548
 30
0.0
 40
9.015903847971632
100
AcDbArc
 50
185.5496147837551
 51
207.8304203210791
  0
LINE
  5
1C385
330
18
100
AcDbEntity
  8
0
100
AcDbLine
 10
229.3229152368805
 20
389.6299762603965
 30
0.0
 11
226.322915282404
 21
389.6294536321008
 31
0.0
  0
LINE
  5
1C386
330
18
100
AcDbEntity
  8
中心線
100
AcDbLine
 10
226.069777935741
 20
304.8527994879973
 30
0.0
 11
494.7050720353011
 21
304.8527994879973
 31
0.0
  0
LINE
  5
1C3CF
102
{ACAD_REACTORS
330
1C44A
102
}
330
18
100
AcDbEntity
  8
仮想線
  6
BYBLOCK
 48
0.5
100
AcDbLine
 10
71.39045482862332
 20
177.8528100612435
 30
0.0
 11
31.39045482862332
 21
177.8527889982495
 31
0.0
  0
LINE
  5
1C3D0
102
{ACAD_REACTORS
330
1C44A
102
}
330
18
100
AcDbEntity
  8
仮想線
 48
0.5
100
AcDbLine
 10
71.39045482862354
 20
173.3528100612428
 30
0.0
 11
31.39045482862287
 21
173.352788998249
 31
0.0
  0
LINE
  5
1C3D1
102
{ACAD_REACTORS
330
1C44A
102
}
330
18
100
AcDbEntity
  8
仮想線
 48
0.5
100
AcDbLine
 10
65.91106521334234
 20
171.0528047954944
 30
0.0
 11
56.71106521334253
 21
171.0528047954944
 31
0.0
  0
LINE
  5
1C3D2
102
{ACAD_REACTORS
330
1C44A
102
}
330
18
100
AcDbEntity
  8
仮想線
 48
0.5
100
AcDbLine
 10
61.31106521334244
 20
172.3528047954937
 30
0.0
 11
56.31106521334244
 21
172.3528047954945
 31
0.0
  0
LINE
  5
1C3D3
102
{ACAD_REACTORS
330
1C44A
102
}
330
18
100
AcDbEntity
  8
仮想線
 48
0.5
100
AcDbLine
 10
36.71106521334275
 20
171.0528047954944
 30
0.0
 11
45.91106521334257
 21
171.0528047954944
 31
0.0
  0
LINE
  5
1C3D4
102
{ACAD_REACTORS
330
1C44A
102
}
330
18
100
AcDbEntity
  8
仮想線
 48
0.5
100
AcDbLine
 10
41.31106521334244
 20
172.3528047954937
 30
0.0
 11
46.31106521334266
 21
172.3528047954945
 31
0.0
  0
LINE
  5
1C3D5
102
{ACAD_REACTORS
330
1C44A
102
}
330
18
100
AcDbEntity
  8
仮想線
 48
0.5
100
AcDbLine
 10
37.2816755980624
 20
166.0528047954944
 30
0.0
 11
45.18167559806204
 21
166.0528047954944
 31
0.0
  0
LINE
  5
1C3D6
102
{ACAD_REACTORS
330
1C44A
102
}
330
18
100
AcDbEntity
  8
仮想線
  6
BYBLOCK
 48
0.5
100
AcDbLine
 10
31.39045482862287
 20
173.352788998249
 30
0.0
 11
31.39045482862332
 21
177.8527889982495
 31
0.0
  0
LINE
  5
1C3D7
102
{ACAD_REACTORS
330
1C44A
102
}
330
18
100
AcDbEntity
  8
仮想線
 48
0.5
100
AcDbLine
 10
36.31106521334289
 20
173.3528047954948
 30
0.0
 11
36.31106521334264
 21
172.3528047954945
 31
0.0
  0
LINE
  5
1C3D8
102
{ACAD_REACTORS
330
1C44A
102
}
330
18
100
AcDbEntity
  8
仮想線
 48
0.5
100
AcDbLine
 10
36.71106521334275
 20
172.3528047954943
 30
0.0
 11
36.71106521334275
 21
171.0528047954944
 31
0.0
  0
LINE
  5
1C3D9
102
{ACAD_REACTORS
330
1C44A
102
}
330
18
100
AcDbEntity
  8
仮想線
 48
0.5
100
AcDbLine
 10
36.31106521334264
 20
172.3528047954945
 30
0.0
 11
41.31106521334244
 21
172.3528047954938
 31
0.0
  0
LINE
  5
1C3DA
102
{ACAD_REACTORS
330
1C44A
102
}
330
18
100
AcDbEntity
  8
仮想線
 48
0.5
100
AcDbLine
 10
37.2816755980624
 20
166.0528047954944
 30
0.0
 11
36.98167559806222
 21
166.3528047954945
 31
0.0
  0
LINE
  5
1C3DB
102
{ACAD_REACTORS
330
1C44A
102
}
330
18
100
AcDbEntity
  8
仮想線
 48
0.5
100
AcDbLine
 10
36.98167559806222
 20
171.0528047954944
 30
0.0
 11
36.98167559806222
 21
166.3528047954945
 31
0.0
  0
LINE
  5
1C3DC
102
{ACAD_REACTORS
330
1C44A
102
}
330
18
100
AcDbEntity
  8
仮想線
 48
0.5
100
AcDbLine
 10
46.31106521334266
 20
173.3528047954948
 30
0.0
 11
46.31106521334266
 21
172.3528047954945
 31
0.0
  0
LINE
  5
1C3DD
102
{ACAD_REACTORS
330
1C44A
102
}
330
18
100
AcDbEntity
  8
仮想線
 48
0.5
100
AcDbLine
 10
45.91106521334257
 20
172.3528047954943
 30
0.0
 11
45.91106521334257
 21
171.0528047954944
 31
0.0
  0
LINE
  5
1C3DE
102
{ACAD_REACTORS
330
1C44A
102
}
330
18
100
AcDbEntity
  8
仮想線
 48
0.5
100
AcDbLine
 10
56.31106521334244
 20
173.3528047954948
 30
0.0
 11
56.31106521334244
 21
172.3528047954945
 31
0.0
  0
LINE
  5
1C3DF
102
{ACAD_REACTORS
330
1C44A
102
}
330
18
100
AcDbEntity
  8
仮想線
 48
0.5
100
AcDbLine
 10
56.71106521334253
 20
172.3528047954943
 30
0.0
 11
56.71106521334253
 21
171.0528047954944
 31
0.0
  0
LINE
  5
1C3E0
102
{ACAD_REACTORS
330
1C44A
102
}
330
18
100
AcDbEntity
  8
仮想線
 48
0.5
100
AcDbLine
 10
45.48167559806223
 20
166.3528047954943
 30
0.0
 11
45.18167559806204
 21
166.0528047954944
 31
0.0
  0
LINE
  5
1C3E1
102
{ACAD_REACTORS
330
1C44A
102
}
330
18
100
AcDbEntity
  8
仮想線
 48
0.5
100
AcDbLine
 10
45.48167559806223
 20
171.0528047954944
 30
0.0
 11
45.48167559806223
 21
166.3528047954943
 31
0.0
  0
LINE
  5
1C3E2
102
{ACAD_REACTORS
330
1C44A
102
}
330
18
100
AcDbEntity
  8
仮想線
 48
0.5
100
AcDbLine
 10
66.31106521334221
 20
173.3528047954948
 30
0.0
 11
66.31106521334243
 21
172.3528047954945
 31
0.0
  0
LINE
  5
1C3E3
102
{ACAD_REACTORS
330
1C44A
102
}
330
18
100
AcDbEntity
  8
仮想線
 48
0.5
100
AcDbLine
 10
65.91106521334234
 20
172.3528047954943
 30
0.0
 11
65.91106521334234
 21
171.0528047954944
 31
0.0
  0
LINE
  5
1C3E4
102
{ACAD_REACTORS
330
1C44A
102
}
330
18
100
AcDbEntity
  8
仮想線
 48
0.5
100
AcDbLine
 10
66.31106521334243
 20
172.3528047954945
 30
0.0
 11
61.31106521334244
 21
172.3528047954937
 31
0.0
  0
LINE
  5
1C3E5
102
{ACAD_REACTORS
330
1C44A
102
}
330
18
100
AcDbEntity
  8
仮想線
 48
0.5
100
AcDbLine
 10
65.34045482862267
 20
166.0528047954944
 30
0.0
 11
65.64045482862287
 21
166.3528047954945
 31
0.0
  0
LINE
  5
1C3E6
102
{ACAD_REACTORS
330
1C44A
102
}
330
18
100
AcDbEntity
  8
仮想線
 48
0.5
100
AcDbLine
 10
57.14045482862285
 20
166.3528047954943
 30
0.0
 11
57.44045482862304
 21
166.0528047954944
 31
0.0
  0
LINE
  5
1C3E7
102
{ACAD_REACTORS
330
1C44A
102
}
330
18
100
AcDbEntity
  8
仮想線
 48
0.5
100
AcDbLine
 10
65.34045482862267
 20
166.0528047954944
 30
0.0
 11
57.44045482862304
 21
166.0528047954944
 31
0.0
  0
LINE
  5
1C3E8
102
{ACAD_REACTORS
330
1C44A
102
}
330
18
100
AcDbEntity
  8
仮想線
 48
0.5
100
AcDbLine
 10
65.64045482862287
 20
171.0528047954944
 30
0.0
 11
65.64045482862287
 21
166.3528047954945
 31
0.0
  0
LINE
  5
1C3E9
102
{ACAD_REACTORS
330
1C44A
102
}
330
18
100
AcDbEntity
  8
仮想線
 48
0.5
100
AcDbLine
 10
57.14045482862285
 20
171.0528047954944
 30
0.0
 11
57.14045482862285
 21
166.3528047954943
 31
0.0
  0
LINE
  5
1C3EA
102
{ACAD_REACTORS
330
1C44A
102
}
330
18
100
AcDbEntity
  8
仮想線
 48
0.5
100
AcDbLine
 10
71.39045482862332
 20
177.8528100612435
 30
0.0
 11
71.39045482862354
 21
173.3528100612428
 31
0.0
  0
LINE
  5
1C3EB
102
{ACAD_REACTORS
330
1C44A
102
}
330
18
100
AcDbEntity
  8
中心線
 48
0.5
100
AcDbLine
 10
61.31106521334221
 20
188.3858041137913
 30
0.0
 11
61.31106521334244
 21
163.2949410716193
 31
0.0
  0
LINE
  5
1C3EC
102
{ACAD_REACTORS
330
1C44A
102
}
330
18
100
AcDbEntity
  8
中心線
 48
0.5
100
AcDbLine
 10
41.31106521334266
 20
188.3858041137913
 30
0.0
 11
41.31106521334266
 21
163.2949410716193
 31
0.0
  0
LINE
  5
1C439
330
18
100
AcDbEntity
  8
２点鎖線
 48
0.5
100
AcDbLine
 10
41.28724786422947
 20
123.2214571187715
 30
0.0
 11
61.28724786422947
 21
123.2214571187715
 31
0.0
  0
LINE
  5
1C43A
330
18
100
AcDbEntity
  8
中心線
100
AcDbLine
 10
75.40570120058408
 20
103.2214571187713
 30
0.0
 11
27.3232847770895
 21
103.2214571187713
 31
0.0
  0
LINE
  5
1C43B
330
18
100
AcDbEntity
  8
CENTER
 48
0.5
100
AcDbLine
 10
67.26695723095054
 20
80.05146076024493
 30
0.0
 11
34.47318555770925
 21
80.05146076024493
 31
0.0
  0
LINE
  5
1C43C
330
18
100
AcDbEntity
  8
２点鎖線
 48
0.5
100
AcDbLine
 10
68.28724786422958
 20
73.05146076024449
 30
0.0
 11
34.28724786422935
 21
73.05146076024449
 31
0.0
  0
CIRCLE
  5
1C43D
330
18
100
AcDbEntity
  8
２点鎖線
 48
0.5
100
AcDbCircle
 10
51.28724786430928
 20
103.2214571187711
 30
0.0
 40
10.0
  0
LINE
  5
1C43E
330
18
100
AcDbEntity
  8
２点鎖線
 48
0.5
100
AcDbLine
 10
31.28724786422935
 20
76.0514607602445
 30
0.0
 11
31.28724786422947
 21
113.2214571187715
 31
0.0
  0
CIRCLE
  5
1C43F
330
18
100
AcDbEntity
  8
２点鎖線
 48
0.5
100
AcDbCircle
 10
41.31117052831257
 20
80.05146076024493
 30
0.0
 40
4.25
  0
LINE
  5
1C440
330
18
100
AcDbEntity
  8
中心線
 48
0.5
100
AcDbLine
 10
41.31117052831257
 20
86.13194596134475
 30
0.0
 11
41.31117052831257
 21
74.10383276228412
 31
0.0
  0
LINE
  5
1C441
330
18
100
AcDbEntity
  8
２点鎖線
 48
0.5
100
AcDbLine
 10
34.28724786422935
 20
73.05146076024449
 30
0.0
 11
31.28724786422935
 21
76.0514607602445
 31
0.0
  0
LINE
  5
1C442
330
18
100
AcDbEntity
  8
２点鎖線
 48
0.5
100
AcDbLine
 10
41.28724786422947
 20
123.2214571187715
 30
0.0
 11
31.28724786422947
 21
113.2214571187715
 31
0.0
  0
LINE
  5
1C443
330
18
100
AcDbEntity
  8
２点鎖線
 48
0.5
100
AcDbLine
 10
71.28724786422947
 20
113.2214571187715
 30
0.0
 11
71.28724786422958
 21
76.0514607602445
 31
0.0
  0
LINE
  5
1C444
330
18
100
AcDbEntity
  8
２点鎖線
 48
0.5
100
AcDbLine
 10
68.28724786422958
 20
73.05146076024449
 30
0.0
 11
71.28724786422958
 21
76.0514607602445
 31
0.0
  0
LINE
  5
1C445
330
18
100
AcDbEntity
  8
中心線
 48
0.5
100
AcDbLine
 10
61.31117052831257
 20
86.13194596134475
 30
0.0
 11
61.31117052831257
 21
74.10383276228412
 31
0.0
  0
CIRCLE
  5
1C446
330
18
100
AcDbEntity
  8
２点鎖線
 48
0.5
100
AcDbCircle
 10
61.31117052831257
 20
80.05146076024493
 30
0.0
 40
4.25
  0
LINE
  5
1C447
330
18
100
AcDbEntity
  8
２点鎖線
 48
0.5
100
AcDbLine
 10
71.28724786422947
 20
113.2214571187715
 30
0.0
 11
61.28724786422947
 21
123.2214571187715
 31
0.0
  0
LINE
  5
1C44B
102
{ACAD_REACTORS
330
1C469
102
}
330
18
100
AcDbEntity
  8
仮想線
 48
0.5
100
AcDbLine
 10
31.23188622800348
 20
436.3527889147518
 30
0.0
 11
71.23188622800416
 21
436.3528099777458
 31
0.0
  0
LINE
  5
1C44C
102
{ACAD_REACTORS
330
1C469
102
}
330
18
100
AcDbEntity
  8
仮想線
  6
BYBLOCK
 48
0.5
100
AcDbLine
 10
71.23188622800416
 20
436.3528099777458
 30
0.0
 11
71.2318862280037
 21
431.8528099777452
 31
0.0
  0
LINE
  5
1C44D
102
{ACAD_REACTORS
330
1C469
102
}
330
18
100
AcDbEntity
  8
仮想線
 48
0.5
100
AcDbLine
 10
61.3112758432846
 20
437.3527941805011
 30
0.0
 11
56.31127584328437
 21
437.3527941805001
 31
0.0
  0
LINE
  5
1C44E
102
{ACAD_REACTORS
330
1C469
102
}
330
18
100
AcDbEntity
  8
仮想線
 48
0.5
100
AcDbLine
 10
65.91127584328427
 20
438.6527941805003
 30
0.0
 11
56.71127584328446
 21
438.6527941805003
 31
0.0
  0
LINE
  5
1C44F
102
{ACAD_REACTORS
330
1C469
102
}
330
18
100
AcDbEntity
  8
中心線
 48
0.5
100
AcDbLine
 10
61.31127584328435
 20
421.3197948622036
 30
0.0
 11
61.31127584328438
 21
446.4106579043756
 31
0.0
  0
LINE
  5
1C450
102
{ACAD_REACTORS
330
1C469
102
}
330
18
100
AcDbEntity
  8
仮想線
 48
0.5
100
AcDbLine
 10
57.14066545856478
 20
438.6527941805003
 30
0.0
 11
57.14066545856482
 21
443.3527941805007
 31
0.0
  0
LINE
  5
1C451
102
{ACAD_REACTORS
330
1C469
102
}
330
18
100
AcDbEntity
  8
仮想線
 48
0.5
100
AcDbLine
 10
65.6406654585648
 20
438.6527941805003
 30
0.0
 11
65.64066545856481
 21
443.3527941805
 31
0.0
  0
LINE
  5
1C452
102
{ACAD_REACTORS
330
1C469
102
}
330
18
100
AcDbEntity
  8
仮想線
 48
0.5
100
AcDbLine
 10
57.14066545856482
 20
443.3527941805007
 30
0.0
 11
57.44066545856499
 21
443.6527941805003
 31
0.0
  0
LINE
  5
1C453
102
{ACAD_REACTORS
330
1C469
102
}
330
18
100
AcDbEntity
  8
仮想線
 48
0.5
100
AcDbLine
 10
65.34066545856463
 20
443.6527941805003
 30
0.0
 11
65.64066545856481
 21
443.3527941805
 31
0.0
  0
LINE
  5
1C454
102
{ACAD_REACTORS
330
1C469
102
}
330
18
100
AcDbEntity
  8
仮想線
 48
0.5
100
AcDbLine
 10
65.34066545856463
 20
443.6527941805003
 30
0.0
 11
57.44066545856499
 21
443.6527941805003
 31
0.0
  0
LINE
  5
1C455
102
{ACAD_REACTORS
330
1C469
102
}
330
18
100
AcDbEntity
  8
仮想線
 48
0.5
100
AcDbLine
 10
66.31127584328436
 20
437.3527941805001
 30
0.0
 11
61.3112758432846
 21
437.3527941805011
 31
0.0
  0
LINE
  5
1C456
102
{ACAD_REACTORS
330
1C469
102
}
330
18
100
AcDbEntity
  8
仮想線
 48
0.5
100
AcDbLine
 10
65.91127584328427
 20
437.3527941805006
 30
0.0
 11
65.91127584328427
 21
438.6527941805003
 31
0.0
  0
LINE
  5
1C457
102
{ACAD_REACTORS
330
1C469
102
}
330
18
100
AcDbEntity
  8
仮想線
 48
0.5
100
AcDbLine
 10
66.31127584328414
 20
436.3527941805001
 30
0.0
 11
66.31127584328436
 21
437.3527941805001
 31
0.0
  0
LINE
  5
1C458
102
{ACAD_REACTORS
330
1C469
102
}
330
18
100
AcDbEntity
  8
仮想線
 48
0.5
100
AcDbLine
 10
56.71127584328446
 20
437.3527941805006
 30
0.0
 11
56.71127584328446
 21
438.6527941805003
 31
0.0
  0
LINE
  5
1C459
102
{ACAD_REACTORS
330
1C469
102
}
330
18
100
AcDbEntity
  8
仮想線
 48
0.5
100
AcDbLine
 10
56.31127584328437
 20
436.3527941805001
 30
0.0
 11
56.31127584328437
 21
437.3527941805001
 31
0.0
  0
LINE
  5
1C45A
102
{ACAD_REACTORS
330
1C469
102
}
330
18
100
AcDbEntity
  8
中心線
 48
0.5
100
AcDbLine
 10
41.3112758432848
 20
421.3197948622036
 30
0.0
 11
41.3112758432846
 21
446.4106579043756
 31
0.0
  0
LINE
  5
1C45B
102
{ACAD_REACTORS
330
1C469
102
}
330
18
100
AcDbEntity
  8
仮想線
 48
0.5
100
AcDbLine
 10
37.28188622800435
 20
443.6527941805003
 30
0.0
 11
45.18188622800399
 21
443.6527941805003
 31
0.0
  0
LINE
  5
1C45C
102
{ACAD_REACTORS
330
1C469
102
}
330
18
100
AcDbEntity
  8
仮想線
 48
0.5
100
AcDbLine
 10
36.3112758432846
 20
437.3527941805001
 30
0.0
 11
41.31127584328459
 21
437.3527941805011
 31
0.0
  0
LINE
  5
1C45D
102
{ACAD_REACTORS
330
1C469
102
}
330
18
100
AcDbEntity
  8
仮想線
 48
0.5
100
AcDbLine
 10
36.71127584328468
 20
438.6527941805003
 30
0.0
 11
45.91127584328449
 21
438.6527941805003
 31
0.0
  0
LINE
  5
1C45E
102
{ACAD_REACTORS
330
1C469
102
}
330
18
100
AcDbEntity
  8
仮想線
 48
0.5
100
AcDbLine
 10
45.48188622800416
 20
438.6527941805003
 30
0.0
 11
45.48188622800417
 21
443.3527941805007
 31
0.0
  0
LINE
  5
1C45F
102
{ACAD_REACTORS
330
1C469
102
}
330
18
100
AcDbEntity
  8
仮想線
 48
0.5
100
AcDbLine
 10
45.48188622800417
 20
443.3527941805007
 30
0.0
 11
45.18188622800399
 21
443.6527941805003
 31
0.0
  0
LINE
  5
1C460
102
{ACAD_REACTORS
330
1C469
102
}
330
18
100
AcDbEntity
  8
仮想線
 48
0.5
100
AcDbLine
 10
45.91127584328449
 20
437.3527941805006
 30
0.0
 11
45.91127584328449
 21
438.6527941805003
 31
0.0
  0
LINE
  5
1C461
102
{ACAD_REACTORS
330
1C469
102
}
330
18
100
AcDbEntity
  8
仮想線
 48
0.5
100
AcDbLine
 10
46.31127584328459
 20
436.3527941805001
 30
0.0
 11
46.31127584328459
 21
437.3527941805001
 31
0.0
  0
LINE
  5
1C462
102
{ACAD_REACTORS
330
1C469
102
}
330
18
100
AcDbEntity
  8
仮想線
 48
0.5
100
AcDbLine
 10
41.31127584328459
 20
437.3527941805011
 30
0.0
 11
46.31127584328459
 21
437.3527941805001
 31
0.0
  0
LINE
  5
1C463
102
{ACAD_REACTORS
330
1C469
102
}
330
18
100
AcDbEntity
  8
仮想線
 48
0.5
100
AcDbLine
 10
37.28188622800435
 20
443.6527941805003
 30
0.0
 11
36.98188622800417
 21
443.3527941805
 31
0.0
  0
LINE
  5
1C464
102
{ACAD_REACTORS
330
1C469
102
}
330
18
100
AcDbEntity
  8
仮想線
 48
0.5
100
AcDbLine
 10
36.98188622800417
 20
438.6527941805003
 30
0.0
 11
36.98188622800417
 21
443.3527941805
 31
0.0
  0
LINE
  5
1C465
102
{ACAD_REACTORS
330
1C469
102
}
330
18
100
AcDbEntity
  8
仮想線
 48
0.5
100
AcDbLine
 10
36.71127584328468
 20
437.3527941805006
 30
0.0
 11
36.71127584328468
 21
438.6527941805003
 31
0.0
  0
LINE
  5
1C466
102
{ACAD_REACTORS
330
1C469
102
}
330
18
100
AcDbEntity
  8
仮想線
 48
0.5
100
AcDbLine
 10
36.31127584328481
 20
436.3527941805001
 30
0.0
 11
36.3112758432846
 21
437.3527941805001
 31
0.0
  0
LINE
  5
1C467
102
{ACAD_REACTORS
330
1C469
102
}
330
18
100
AcDbEntity
  8
仮想線
  6
BYBLOCK
 48
0.5
100
AcDbLine
 10
31.23188622800372
 20
431.8527889147512
 30
0.0
 11
71.2318862280037
 21
431.8528099777452
 31
0.0
  0
LINE
  5
1C468
102
{ACAD_REACTORS
330
1C469
102
}
330
18
100
AcDbEntity
  8
仮想線
 48
0.5
100
AcDbLine
 10
31.23188622800372
 20
431.8527889147514
 30
0.0
 11
31.23188622800348
 21
436.3527889147518
 31
0.0
  0
LINE
  5
1C46A
102
{ACAD_REACTORS
330
1C488
102
}
330
18
100
AcDbEntity
  8
仮想線
100
AcDbLine
 10
374.9321253620907
 20
438.6527937045246
 30
0.0
 11
365.7321253620909
 21
438.6527937045246
 31
0.0
  0
LINE
  5
1C46B
102
{ACAD_REACTORS
330
1C488
102
}
330
18
100
AcDbEntity
  8
仮想線
100
AcDbLine
 10
340.2527357468098
 20
436.3527884387763
 30
0.0
 11
380.2527357468106
 21
436.35280950177
 31
0.0
  0
LINE
  5
1C46C
102
{ACAD_REACTORS
330
1C488
102
}
330
18
100
AcDbEntity
  8
仮想線
  6
BYBLOCK
100
AcDbLine
 10
380.2527357468106
 20
436.35280950177
 30
0.0
 11
380.2527357468101
 21
431.8528095017697
 31
0.0
  0
LINE
  5
1C46D
102
{ACAD_REACTORS
330
1C488
102
}
330
18
100
AcDbEntity
  8
仮想線
100
AcDbLine
 10
370.3321253620909
 20
437.3527937045253
 30
0.0
 11
365.3321253620908
 21
437.3527937045245
 31
0.0
  0
LINE
  5
1C46E
102
{ACAD_REACTORS
330
1C488
102
}
330
18
100
AcDbEntity
  8
中心線
100
AcDbLine
 10
370.3321253620908
 20
421.3197943862279
 30
0.0
 11
370.3321253620908
 21
446.4106574283999
 31
0.0
  0
LINE
  5
1C46F
102
{ACAD_REACTORS
330
1C488
102
}
330
18
100
AcDbEntity
  8
仮想線
100
AcDbLine
 10
366.1615149773712
 20
438.6527937045246
 30
0.0
 11
366.1615149773712
 21
443.3527937045248
 31
0.0
  0
LINE
  5
1C470
102
{ACAD_REACTORS
330
1C488
102
}
330
18
100
AcDbEntity
  8
仮想線
100
AcDbLine
 10
374.6615149773712
 20
438.6527937045246
 30
0.0
 11
374.6615149773712
 21
443.3527937045242
 31
0.0
  0
LINE
  5
1C471
102
{ACAD_REACTORS
330
1C488
102
}
330
18
100
AcDbEntity
  8
仮想線
100
AcDbLine
 10
366.1615149773712
 20
443.3527937045248
 30
0.0
 11
366.4615149773712
 21
443.6527937045246
 31
0.0
  0
LINE
  5
1C472
102
{ACAD_REACTORS
330
1C488
102
}
330
18
100
AcDbEntity
  8
仮想線
100
AcDbLine
 10
374.361514977371
 20
443.6527937045246
 30
0.0
 11
374.6615149773712
 21
443.3527937045242
 31
0.0
  0
LINE
  5
1C473
102
{ACAD_REACTORS
330
1C488
102
}
330
18
100
AcDbEntity
  8
仮想線
100
AcDbLine
 10
374.361514977371
 20
443.6527937045246
 30
0.0
 11
366.4615149773712
 21
443.6527937045246
 31
0.0
  0
LINE
  5
1C474
102
{ACAD_REACTORS
330
1C488
102
}
330
18
100
AcDbEntity
  8
仮想線
100
AcDbLine
 10
375.3321253620908
 20
437.3527937045245
 30
0.0
 11
370.3321253620909
 21
437.3527937045253
 31
0.0
  0
LINE
  5
1C475
102
{ACAD_REACTORS
330
1C488
102
}
330
18
100
AcDbEntity
  8
仮想線
100
AcDbLine
 10
374.9321253620907
 20
437.3527937045248
 30
0.0
 11
374.9321253620907
 21
438.6527937045246
 31
0.0
  0
LINE
  5
1C476
102
{ACAD_REACTORS
330
1C488
102
}
330
18
100
AcDbEntity
  8
仮想線
100
AcDbLine
 10
375.3321253620906
 20
436.3527937045244
 30
0.0
 11
375.3321253620908
 21
437.3527937045245
 31
0.0
  0
LINE
  5
1C477
102
{ACAD_REACTORS
330
1C488
102
}
330
18
100
AcDbEntity
  8
仮想線
100
AcDbLine
 10
365.7321253620909
 20
437.3527937045248
 30
0.0
 11
365.7321253620909
 21
438.6527937045246
 31
0.0
  0
LINE
  5
1C478
102
{ACAD_REACTORS
330
1C488
102
}
330
18
100
AcDbEntity
  8
仮想線
100
AcDbLine
 10
365.3321253620908
 20
436.3527937045244
 30
0.0
 11
365.3321253620908
 21
437.3527937045245
 31
0.0
  0
LINE
  5
1C479
102
{ACAD_REACTORS
330
1C488
102
}
330
18
100
AcDbEntity
  8
中心線
100
AcDbLine
 10
350.3321253620912
 20
421.3197943862279
 30
0.0
 11
350.332125362091
 21
446.4106574283999
 31
0.0
  0
LINE
  5
1C47A
102
{ACAD_REACTORS
330
1C488
102
}
330
18
100
AcDbEntity
  8
仮想線
100
AcDbLine
 10
346.3027357468108
 20
443.6527937045246
 30
0.0
 11
354.2027357468104
 21
443.6527937045246
 31
0.0
  0
LINE
  5
1C47B
102
{ACAD_REACTORS
330
1C488
102
}
330
18
100
AcDbEntity
  8
仮想線
100
AcDbLine
 10
345.3321253620909
 20
437.3527937045245
 30
0.0
 11
350.332125362091
 21
437.3527937045253
 31
0.0
  0
LINE
  5
1C47C
102
{ACAD_REACTORS
330
1C488
102
}
330
18
100
AcDbEntity
  8
仮想線
100
AcDbLine
 10
345.7321253620911
 20
438.6527937045246
 30
0.0
 11
354.9321253620909
 21
438.6527937045246
 31
0.0
  0
LINE
  5
1C47D
102
{ACAD_REACTORS
330
1C488
102
}
330
18
100
AcDbEntity
  8
仮想線
100
AcDbLine
 10
354.5027357468106
 20
438.6527937045246
 30
0.0
 11
354.5027357468106
 21
443.3527937045248
 31
0.0
  0
LINE
  5
1C47E
102
{ACAD_REACTORS
330
1C488
102
}
330
18
100
AcDbEntity
  8
仮想線
100
AcDbLine
 10
354.5027357468106
 20
443.3527937045248
 30
0.0
 11
354.2027357468104
 21
443.6527937045246
 31
0.0
  0
LINE
  5
1C47F
102
{ACAD_REACTORS
330
1C488
102
}
330
18
100
AcDbEntity
  8
仮想線
100
AcDbLine
 10
354.9321253620909
 20
437.3527937045248
 30
0.0
 11
354.9321253620909
 21
438.6527937045246
 31
0.0
  0
LINE
  5
1C480
102
{ACAD_REACTORS
330
1C488
102
}
330
18
100
AcDbEntity
  8
仮想線
100
AcDbLine
 10
355.332125362091
 20
436.3527937045244
 30
0.0
 11
355.332125362091
 21
437.3527937045245
 31
0.0
  0
LINE
  5
1C481
102
{ACAD_REACTORS
330
1C488
102
}
330
18
100
AcDbEntity
  8
仮想線
100
AcDbLine
 10
350.332125362091
 20
437.3527937045253
 30
0.0
 11
355.332125362091
 21
437.3527937045245
 31
0.0
  0
LINE
  5
1C482
102
{ACAD_REACTORS
330
1C488
102
}
330
18
100
AcDbEntity
  8
仮想線
100
AcDbLine
 10
346.3027357468108
 20
443.6527937045246
 30
0.0
 11
346.0027357468106
 21
443.3527937045242
 31
0.0
  0
LINE
  5
1C483
102
{ACAD_REACTORS
330
1C488
102
}
330
18
100
AcDbEntity
  8
仮想線
100
AcDbLine
 10
346.0027357468106
 20
438.6527937045246
 30
0.0
 11
346.0027357468106
 21
443.3527937045242
 31
0.0
  0
LINE
  5
1C484
102
{ACAD_REACTORS
330
1C488
102
}
330
18
100
AcDbEntity
  8
仮想線
100
AcDbLine
 10
345.7321253620911
 20
437.3527937045248
 30
0.0
 11
345.7321253620911
 21
438.6527937045246
 31
0.0
  0
LINE
  5
1C485
102
{ACAD_REACTORS
330
1C488
102
}
330
18
100
AcDbEntity
  8
仮想線
100
AcDbLine
 10
345.3321253620913
 20
436.3527937045244
 30
0.0
 11
345.3321253620909
 21
437.3527937045245
 31
0.0
  0
LINE
  5
1C486
102
{ACAD_REACTORS
330
1C488
102
}
330
18
100
AcDbEntity
  8
仮想線
  6
BYBLOCK
100
AcDbLine
 10
340.2527357468101
 20
431.8527884387754
 30
0.0
 11
380.2527357468101
 21
431.8528095017697
 31
0.0
  0
LINE
  5
1C487
102
{ACAD_REACTORS
330
1C488
102
}
330
18
100
AcDbEntity
  8
仮想線
100
AcDbLine
 10
340.2527357468101
 20
431.8527884387757
 30
0.0
 11
340.2527357468098
 21
436.3527884387763
 31
0.0
  0
LINE
  5
1C489
102
{ACAD_REACTORS
330
1C4A7
102
}
330
18
100
AcDbEntity
  8
仮想線
100
AcDbLine
 10
380.4113478997056
 20
173.352810537218
 30
0.0
 11
340.4113478997048
 21
173.3527894742245
 31
0.0
  0
LINE
  5
1C48A
102
{ACAD_REACTORS
330
1C4A7
102
}
330
18
100
AcDbEntity
  8
仮想線
  6
BYBLOCK
100
AcDbLine
 10
340.4113478997048
 20
173.3527894742245
 30
0.0
 11
340.4113478997054
 21
177.8527894742247
 31
0.0
  0
LINE
  5
1C48B
102
{ACAD_REACTORS
330
1C4A7
102
}
330
18
100
AcDbEntity
  8
仮想線
100
AcDbLine
 10
350.3319582844245
 20
172.352805271469
 30
0.0
 11
355.3319582844246
 21
172.3528052714701
 31
0.0
  0
LINE
  5
1C48C
102
{ACAD_REACTORS
330
1C4A7
102
}
330
18
100
AcDbEntity
  8
仮想線
100
AcDbLine
 10
345.7319582844248
 20
171.05280527147
 30
0.0
 11
354.9319582844245
 21
171.05280527147
 31
0.0
  0
LINE
  5
1C48D
102
{ACAD_REACTORS
330
1C4A7
102
}
330
18
100
AcDbEntity
  8
中心線
100
AcDbLine
 10
350.3319582844246
 20
188.3858045897668
 30
0.0
 11
350.3319582844246
 21
163.2949415475945
 31
0.0
  0
LINE
  5
1C48E
102
{ACAD_REACTORS
330
1C4A7
102
}
330
18
100
AcDbEntity
  8
仮想線
100
AcDbLine
 10
354.5025686691443
 20
171.05280527147
 30
0.0
 11
354.5025686691443
 21
166.3528052714698
 31
0.0
  0
LINE
  5
1C48F
102
{ACAD_REACTORS
330
1C4A7
102
}
330
18
100
AcDbEntity
  8
仮想線
100
AcDbLine
 10
346.0025686691443
 20
171.05280527147
 30
0.0
 11
346.0025686691443
 21
166.35280527147
 31
0.0
  0
LINE
  5
1C490
102
{ACAD_REACTORS
330
1C4A7
102
}
330
18
100
AcDbEntity
  8
仮想線
100
AcDbLine
 10
354.5025686691443
 20
166.3528052714698
 30
0.0
 11
354.2025686691441
 21
166.0528052714699
 31
0.0
  0
LINE
  5
1C491
102
{ACAD_REACTORS
330
1C4A7
102
}
330
18
100
AcDbEntity
  8
仮想線
100
AcDbLine
 10
346.3025686691445
 20
166.0528052714699
 30
0.0
 11
346.0025686691443
 21
166.35280527147
 31
0.0
  0
LINE
  5
1C492
102
{ACAD_REACTORS
330
1C4A7
102
}
330
18
100
AcDbEntity
  8
仮想線
100
AcDbLine
 10
346.3025686691445
 20
166.0528052714699
 30
0.0
 11
354.2025686691441
 21
166.0528052714699
 31
0.0
  0
LINE
  5
1C493
102
{ACAD_REACTORS
330
1C4A7
102
}
330
18
100
AcDbEntity
  8
仮想線
100
AcDbLine
 10
345.3319582844246
 20
172.3528052714701
 30
0.0
 11
350.3319582844245
 21
172.3528052714693
 31
0.0
  0
LINE
  5
1C494
102
{ACAD_REACTORS
330
1C4A7
102
}
330
18
100
AcDbEntity
  8
仮想線
100
AcDbLine
 10
345.7319582844248
 20
172.3528052714698
 30
0.0
 11
345.7319582844248
 21
171.05280527147
 31
0.0
  0
LINE
  5
1C495
102
{ACAD_REACTORS
330
1C4A7
102
}
330
18
100
AcDbEntity
  8
仮想線
100
AcDbLine
 10
345.3319582844248
 20
173.3528052714701
 30
0.0
 11
345.3319582844246
 21
172.3528052714701
 31
0.0
  0
LINE
  5
1C496
102
{ACAD_REACTORS
330
1C4A7
102
}
330
18
100
AcDbEntity
  8
仮想線
100
AcDbLine
 10
354.9319582844245
 20
172.3528052714698
 30
0.0
 11
354.9319582844245
 21
171.05280527147
 31
0.0
  0
LINE
  5
1C497
102
{ACAD_REACTORS
330
1C4A7
102
}
330
18
100
AcDbEntity
  8
仮想線
100
AcDbLine
 10
355.3319582844246
 20
173.3528052714701
 30
0.0
 11
355.3319582844246
 21
172.3528052714701
 31
0.0
  0
LINE
  5
1C498
102
{ACAD_REACTORS
330
1C4A7
102
}
330
18
100
AcDbEntity
  8
中心線
100
AcDbLine
 10
370.3319582844242
 20
188.3858045897667
 30
0.0
 11
370.3319582844244
 21
163.2949415475945
 31
0.0
  0
LINE
  5
1C499
102
{ACAD_REACTORS
330
1C4A7
102
}
330
18
100
AcDbEntity
  8
仮想線
100
AcDbLine
 10
374.3613478997045
 20
166.0528052714699
 30
0.0
 11
366.4613478997051
 21
166.0528052714699
 31
0.0
  0
LINE
  5
1C49A
102
{ACAD_REACTORS
330
1C4A7
102
}
330
18
100
AcDbEntity
  8
仮想線
100
AcDbLine
 10
375.3319582844245
 20
172.3528052714701
 30
0.0
 11
370.3319582844244
 21
172.352805271469
 31
0.0
  0
LINE
  5
1C49B
102
{ACAD_REACTORS
330
1C4A7
102
}
330
18
100
AcDbEntity
  8
仮想線
100
AcDbLine
 10
374.9319582844242
 20
171.05280527147
 30
0.0
 11
365.7319582844245
 21
171.05280527147
 31
0.0
  0
LINE
  5
1C49C
102
{ACAD_REACTORS
330
1C4A7
102
}
330
18
100
AcDbEntity
  8
仮想線
100
AcDbLine
 10
366.1613478997048
 20
171.05280527147
 30
0.0
 11
366.1613478997048
 21
166.3528052714698
 31
0.0
  0
LINE
  5
1C49D
102
{ACAD_REACTORS
330
1C4A7
102
}
330
18
100
AcDbEntity
  8
仮想線
100
AcDbLine
 10
366.1613478997048
 20
166.3528052714698
 30
0.0
 11
366.4613478997051
 21
166.0528052714699
 31
0.0
  0
LINE
  5
1C49E
102
{ACAD_REACTORS
330
1C4A7
102
}
330
18
100
AcDbEntity
  8
仮想線
100
AcDbLine
 10
365.7319582844245
 20
172.3528052714698
 30
0.0
 11
365.7319582844245
 21
171.05280527147
 31
0.0
  0
LINE
  5
1C49F
102
{ACAD_REACTORS
330
1C4A7
102
}
330
18
100
AcDbEntity
  8
仮想線
100
AcDbLine
 10
365.3319582844245
 20
173.3528052714701
 30
0.0
 11
365.3319582844245
 21
172.3528052714701
 31
0.0
  0
LINE
  5
1C4A0
102
{ACAD_REACTORS
330
1C4A7
102
}
330
18
100
AcDbEntity
  8
仮想線
100
AcDbLine
 10
370.3319582844244
 20
172.352805271469
 30
0.0
 11
365.3319582844245
 21
172.3528052714701
 31
0.0
  0
LINE
  5
1C4A1
102
{ACAD_REACTORS
330
1C4A7
102
}
330
18
100
AcDbEntity
  8
仮想線
100
AcDbLine
 10
374.3613478997045
 20
166.0528052714699
 30
0.0
 11
374.6613478997048
 21
166.35280527147
 31
0.0
  0
LINE
  5
1C4A2
102
{ACAD_REACTORS
330
1C4A7
102
}
330
18
100
AcDbEntity
  8
仮想線
100
AcDbLine
 10
374.6613478997048
 20
171.05280527147
 30
0.0
 11
374.6613478997048
 21
166.35280527147
 31
0.0
  0
LINE
  5
1C4A3
102
{ACAD_REACTORS
330
1C4A7
102
}
330
18
100
AcDbEntity
  8
仮想線
100
AcDbLine
 10
374.9319582844242
 20
172.3528052714697
 30
0.0
 11
374.9319582844242
 21
171.05280527147
 31
0.0
  0
LINE
  5
1C4A4
102
{ACAD_REACTORS
330
1C4A7
102
}
330
18
100
AcDbEntity
  8
仮想線
100
AcDbLine
 10
375.3319582844242
 20
173.3528052714701
 30
0.0
 11
375.3319582844245
 21
172.3528052714701
 31
0.0
  0
LINE
  5
1C4A5
102
{ACAD_REACTORS
330
1C4A7
102
}
330
18
100
AcDbEntity
  8
仮想線
  6
BYBLOCK
100
AcDbLine
 10
380.4113478997052
 20
177.8528105372188
 30
0.0
 11
340.4113478997054
 21
177.8527894742247
 31
0.0
  0
LINE
  5
1C4A6
102
{ACAD_REACTORS
330
1C4A7
102
}
330
18
100
AcDbEntity
  8
仮想線
100
AcDbLine
 10
380.4113478997052
 20
177.8528105372188
 30
0.0
 11
380.4113478997056
 21
173.352810537218
 31
0.0
  0
ARC
  5
1C560
330
18
100
AcDbEntity
  8
0
100
AcDbCircle
 10
260.3320418232576
 20
404.8527994879973
 30
0.0
 40
25.0
100
AcDbArc
 50
89.99999999999998
 51
180.0000000000001
  0
ARC
  5
1C561
330
18
100
AcDbEntity
  8
0
100
AcDbCircle
 10
460.3320418232579
 20
404.8527994879972
 30
0.0
 40
25.0
100
AcDbArc
 50
0.0
 51
89.99999999999984
  0
ARC
  5
1C562
330
18
100
AcDbEntity
  8
0
100
AcDbCircle
 10
460.3320418232579
 20
204.8527994879973
 30
0.0
 40
25.0
100
AcDbArc
 50
270.0
 51
0.0
  0
ARC
  5
1C563
330
18
100
AcDbEntity
  8
0
100
AcDbCircle
 10
260.3320418232576
 20
204.8527994879969
 30
0.0
 40
25.0
100
AcDbArc
 50
179.9999999999999
 51
270.0
  0
ARC
  5
1C564
330
18
100
AcDbEntity
  8
0
100
AcDbCircle
 10
-48.68882947168689
 20
404.8527994879978
 30
0.0
 40
25.0
100
AcDbArc
 50
89.99999999999991
 51
180.0000000000002
  0
ARC
  5
1C565
330
18
100
AcDbEntity
  8
0
100
AcDbCircle
 10
151.3111705283136
 20
404.8527994879974
 30
0.0
 40
25.0
100
AcDbArc
 50
0.0
 51
89.99999999999991
  0
ARC
  5
1C566
330
18
100
AcDbEntity
  8
0
100
AcDbCircle
 10
151.3111705283133
 20
204.8527994879977
 30
0.0
 40
25.0
100
AcDbArc
 50
270.0
 51
0.0
  0
ARC
  5
1C567
330
18
100
AcDbEntity
  8
0
100
AcDbCircle
 10
-48.68882947168663
 20
204.8527994879973
 30
0.0
 40
25.0
100
AcDbArc
 50
180.0
 51
270.0
  0
CIRCLE
  5
1C596
330
18
100
AcDbEntity
  8
0
100
AcDbCircle
 10
51.31117052831285
 20
304.8527994879973
 30
0.0
 40
127.0
  0
ARC
  5
1C597
330
18
100
AcDbEntity
  8
破線
100
AcDbCircle
 10
360.3320418232576
 20
304.8527994879973
 30
0.0
 40
127.0
100
AcDbArc
 50
10.18174838833591
 51
79.81825161166394
  0
LINE
  5
1C678
330
18
100
AcDbEntity
  8
0
100
AcDbLine
 10
-88.68805017097974
 20
375.3782246688136
 30
0.0
 11
-82.68805026202654
 21
375.3792699254049
 31
0.0
  0
LINE
  5
1C679
330
18
100
AcDbEntity
  8
0
100
AcDbLine
 10
-88.68778554033658
 20
373.859187288412
 30
0.0
 11
-82.68778563138335
 21
373.8602325450032
 31
0.0
  0
LINE
  5
1C67A
330
18
100
AcDbEntity
  8
0
100
AcDbLine
 10
-82.68700015125569
 20
369.3514059718744
 30
0.0
 11
-88.68700006020866
 21
369.3503607152828
 31
0.0
  0
LINE
  5
1C67B
330
18
100
AcDbEntity
  8
0
100
AcDbLine
 10
-82.68987306919781
 20
385.8425790800818
 30
0.0
 11
-88.68987297815101
 21
385.8415338234905
 31
0.0
  0
LINE
  5
1C67C
330
18
100
AcDbEntity
  8
0
100
AcDbLine
 10
-82.68960843855461
 20
384.3235416996798
 30
0.0
 11
-88.68960834750781
 21
384.3224964430886
 31
0.0
  0
LINE
  5
1C67D
330
18
100
AcDbEntity
  8
0
100
AcDbLine
 10
-82.69065854932568
 20
390.3514056532106
 30
0.0
 11
-88.6906584582789
 21
390.3503603966193
 31
0.0
  0
LINE
  5
1C67F
330
18
100
AcDbEntity
  8
0
100
AcDbLine
 10
-158.878745342481
 20
381.8638618599671
 30
0.0
 11
-107.0117164353677
 21
381.8638618599676
 31
0.0
  0
LINE
  5
1C682
330
18
100
AcDbEntity
  8
0
100
AcDbLine
 10
-88.69065845827845
 20
390.3503603966193
 30
0.0
 11
-93.18974005741688
 21
385.078147962739
 31
0.0
  0
LINE
  5
1C683
330
18
100
AcDbEntity
  8
0
100
AcDbLine
 10
-89.69045436919804
 20
389.1787576335344
 30
0.0
 11
-89.68720411894038
 21
370.5216150595038
 31
0.0
  0
ARC
  5
1C684
330
18
100
AcDbEntity
  8
0
100
AcDbCircle
 10
-80.71680960989281
 20
390.0506646983393
 30
0.0
 40
9.015903847971632
100
AcDbArc
 50
185.5496147837488
 51
207.8304203210862
  0
LINE
  5
1C685
330
18
100
AcDbEntity
  8
0
100
AcDbLine
 10
-105.2311389520286
 20
377.8638618599676
 30
0.0
 11
-93.1884832607143
 21
377.8638618599676
 31
0.0
  0
LINE
  5
1C686
330
18
100
AcDbEntity
  8
0
100
AcDbLine
 10
-105.231138952029
 20
381.8638618599676
 30
0.0
 11
-93.18918009845246
 21
381.8638618599673
 31
0.0
  0
ARC
  5
1C687
330
18
100
AcDbEntity
  8
0
100
AcDbCircle
 10
-106.3552369964895
 20
380.8638618595673
 30
0.0
 40
1.50452531090732
100
AcDbArc
 50
318.3436407292436
 51
41.6563592707564
  0
ARC
  5
1C688
330
18
100
AcDbEntity
  8
0
100
AcDbCircle
 10
-105.8876183909071
 20
378.863861860368
 30
0.0
 40
1.50452531090732
100
AcDbArc
 50
138.3436407292434
 51
221.6563592707564
  0
ARC
  5
1C689
330
18
100
AcDbEntity
  8
0
100
AcDbCircle
 10
-108.1358144784053
 20
378.863861860368
 30
0.0
 40
1.50452531090732
100
AcDbArc
 50
318.3436407292436
 51
41.6563592707564
  0
ARC
  5
1C68A
330
18
100
AcDbEntity
  8
0
100
AcDbCircle
 10
-104.1070409089909
 20
378.8638618603676
 30
0.0
 40
1.50452531090732
100
AcDbArc
 50
138.3436407292434
 51
221.6563592707564
  0
ARC
  5
1C68B
330
18
100
AcDbEntity
  8
0
100
AcDbCircle
 10
-104.1070409089914
 20
380.8638618595673
 30
0.0
 40
1.50452531090732
100
AcDbArc
 50
138.3436407292434
 51
221.6563592707564
  0
ARC
  5
1C68C
330
18
100
AcDbEntity
  8
0
100
AcDbCircle
 10
-108.1358144784053
 20
380.8638618595677
 30
0.0
 40
1.50452531090732
100
AcDbArc
 50
318.3436407292436
 51
41.6563592707564
  0
LINE
  5
1C68D
330
18
100
AcDbEntity
  8
0
100
AcDbLine
 10
-88.68700006020866
 20
369.3503607152828
 30
0.0
 11
-93.18791832450052
 21
374.6210052642762
 31
0.0
  0
LINE
  5
1C68E
330
18
100
AcDbEntity
  8
0
100
AcDbLine
 10
-93.18974005741688
 20
385.078147962739
 30
0.0
 11
-93.18791832450052
 21
374.6210052642762
 31
0.0
  0
ARC
  5
1C68F
330
18
100
AcDbEntity
  8
0
100
AcDbCircle
 10
-79.18882940340086
 20
379.8520155455542
 30
0.0
 40
10.50000000000042
100
AcDbArc
 50
154.8012161684955
 51
205.2187467620016
  0
LINE
  5
1C690
330
18
100
AcDbEntity
  8
0
100
AcDbLine
 10
-88.68805017097974
 20
375.3782246688138
 30
0.0
 11
-88.68778554033658
 21
373.859187288412
 31
0.0
  0
ARC
  5
1C691
330
18
100
AcDbEntity
  8
0
100
AcDbCircle
 10
-80.71325611545148
 20
369.6528346346855
 30
0.0
 40
9.015903847971632
100
AcDbArc
 50
152.1895426094148
 51
174.4703481467493
  0
LINE
  5
1C692
330
18
100
AcDbEntity
  8
0
100
AcDbLine
 10
-88.68987297815101
 20
385.8415338234905
 30
0.0
 11
-88.68960834750781
 21
384.3224964430886
 31
0.0
  0
LINE
  5
1C693
330
18
100
AcDbEntity
  8
0
100
AcDbLine
 10
-82.69065854932568
 20
390.3514056532106
 30
0.0
 11
-82.68700015125569
 21
369.3514059718744
 31
0.0
  0
LINE
  5
1C694
330
18
100
AcDbEntity
  8
0
100
AcDbLine
 10
-74.68700027265184
 20
369.3527996473294
 30
0.0
 11
-74.69065867072186
 21
390.352799328666
 31
0.0
  0
LINE
  5
1C695
330
18
100
AcDbEntity
  8
0
100
AcDbLine
 10
-77.69065862519801
 20
390.3522767003701
 30
0.0
 11
-77.68700022712803
 21
369.3522770190337
 31
0.0
  0
LINE
  5
1C696
330
18
100
AcDbEntity
  8
0
100
AcDbLine
 10
-79.68717440621094
 20
370.3519285849955
 30
0.0
 11
-79.69048438541697
 21
389.351928296681
 31
0.0
  0
LINE
  5
1C697
330
18
100
AcDbEntity
  8
0
100
AcDbLine
 10
-77.68805033789885
 20
375.3801409725648
 30
0.0
 11
-74.68805038342271
 21
375.3806636008603
 31
0.0
  0
LINE
  5
1C698
330
18
100
AcDbEntity
  8
0
100
AcDbLine
 10
-77.68778570725567
 20
373.8611035921628
 30
0.0
 11
-74.68778575277951
 21
373.8616262204585
 31
0.0
  0
LINE
  5
1C699
330
18
100
AcDbEntity
  8
0
100
AcDbLine
 10
-74.68700027265184
 20
369.3527996473294
 30
0.0
 11
-77.68700022712803
 21
369.3522770190337
 31
0.0
  0
LINE
  5
1C69A
330
18
100
AcDbEntity
  8
0
100
AcDbLine
 10
-74.68987319059397
 20
385.8439727555372
 30
0.0
 11
-77.68987314507012
 21
385.8434501272412
 31
0.0
  0
LINE
  5
1C69B
330
18
100
AcDbEntity
  8
0
100
AcDbLine
 10
-74.68960855995078
 20
384.3249353751351
 30
0.0
 11
-77.68960851442693
 21
384.3244127468395
 31
0.0
  0
LINE
  5
1C69C
330
18
100
AcDbEntity
  8
0
100
AcDbLine
 10
-77.68754027636692
 20
372.4522769719933
 30
0.0
 11
-79.68754024601797
 21
372.4519285531296
 31
0.0
  0
LINE
  5
1C69D
330
18
100
AcDbEntity
  8
0
100
AcDbLine
 10
-77.69011857595909
 20
387.2522767474116
 30
0.0
 11
-79.69011854561017
 21
387.2519283285475
 31
0.0
  0
LINE
  5
1C69E
330
18
100
AcDbEntity
  8
0
100
AcDbLine
 10
-79.68717440621094
 20
370.3519285849955
 30
0.0
 11
-82.68717436068754
 21
370.3514059566999
 31
0.0
  0
LINE
  5
1C69F
330
18
100
AcDbEntity
  8
0
100
AcDbLine
 10
-73.68726160197366
 20
370.8529738339997
 30
0.0
 11
-74.68726158679988
 21
370.8527996245678
 31
0.0
  0
LINE
  5
1C6A0
330
18
100
AcDbEntity
  8
0
100
AcDbLine
 10
-79.69048438541697
 20
389.351928296681
 30
0.0
 11
-82.69048433989359
 21
389.3514056683851
 31
0.0
  0
LINE
  5
1C6A1
330
18
100
AcDbEntity
  8
0
100
AcDbLine
 10
-73.69039737174785
 20
388.8529735608596
 30
0.0
 11
-74.69039735657384
 21
388.8527993514275
 31
0.0
  0
LINE
  5
1C6A2
330
18
100
AcDbEntity
  8
0
100
AcDbLine
 10
-74.69065867072186
 20
390.352799328666
 30
0.0
 11
-77.69065862519801
 21
390.3522767003701
 31
0.0
  0
ARC
  5
1C766
330
18
100
AcDbEntity
  8
細線
100
AcDbCircle
 10
51.59069509702431
 20
428.895999380389
 30
0.0
 40
0.5
100
AcDbArc
 50
207.3463876628145
 51
302.6536123371777
  0
CIRCLE
  5
1C767
330
18
100
AcDbEntity
  8
細線
100
AcDbCircle
 10
51.3111705283136
 20
427.8527994879968
 30
0.0
 40
0.8299999999999998
  0
ARC
  5
1C768
330
18
100
AcDbEntity
  8
細線
100
AcDbCircle
 10
50.26797063592153
 20
427.5732749192861
 30
0.0
 40
0.5
100
AcDbArc
 50
327.3463876628257
 51
62.65361233717938
  0
ARC
  5
1C769
330
18
100
AcDbEntity
  8
細線
100
AcDbCircle
 10
50.54749520463213
 20
428.6164748116782
 30
0.0
 40
0.5
100
AcDbArc
 50
267.3463876628232
 51
2.653612337178548
  0
ARC
  5
1C76A
330
18
100
AcDbEntity
  8
細線
100
AcDbCircle
 10
52.35437042070579
 20
428.1323240567075
 30
0.0
 40
0.5
100
AcDbArc
 50
147.3463876628259
 51
242.6536123371793
  0
ARC
  5
1C76B
330
18
100
AcDbEntity
  8
細線
100
AcDbCircle
 10
51.03164595960288
 20
426.8095995956047
 30
0.0
 40
0.5
100
AcDbArc
 50
27.3463876628146
 51
122.6536123371776
  0
ARC
  5
1C76C
330
18
100
AcDbEntity
  8
細線
100
AcDbCircle
 10
52.07484585199505
 20
427.0891241643152
 30
0.0
 40
0.5
100
AcDbArc
 50
87.34638766282328
 51
182.6536123371784
  0
CIRCLE
  5
1C76D
330
18
100
AcDbEntity
  8
細線
100
AcDbCircle
 10
51.3111705283136
 20
427.8527994879968
 30
0.0
 40
3.5
  0
LINE
  5
1C7E7
330
18
100
AcDbEntity
  8
0
100
AcDbLine
 10
176.3111705283133
 20
55.85146087766609
 30
0.0
 11
177.3111705283134
 21
55.85146087766609
 31
0.0
  0
LINE
  5
1C7E8
330
18
100
AcDbEntity
  8
0
100
AcDbLine
 10
177.3111705283134
 20
55.85146087766609
 30
0.0
 11
177.3111705283134
 21
68.8514608776672
 31
0.0
  0
LINE
  5
1C7ED
330
18
100
AcDbEntity
  8
0
100
AcDbLine
 10
28.86122620766926
 20
67.55146087766608
 30
0.0
 11
28.86122620766926
 21
55.85146087766617
 31
0.0
  0
LINE
  5
1C7EE
330
18
100
AcDbEntity
  8
0
100
AcDbLine
 10
73.76111484895591
 20
67.55146087766601
 30
0.0
 11
73.76111484895588
 21
55.85146087766615
 31
0.0
  0
LINE
  5
1C808
330
18
100
AcDbEntity
  8
中心線
 48
0.2
100
AcDbLine
 10
174.3111705283132
 20
77.0099923886827
 30
0.0
 11
174.3111705283132
 21
88.1204274558669
 31
0.0
  0
LINE
  5
1C809
330
18
100
AcDbEntity
  8
ｷｬｯﾌ_ﾎ_ﾙﾄ
100
AcDbLine
 10
177.8111705283134
 20
88.25146087766496
 30
0.0
 11
176.7611705283131
 21
88.55146087766515
 31
0.0
  0
LINE
  5
1C80A
330
18
100
AcDbEntity
  8
ｷｬｯﾌ_ﾎ_ﾙﾄ
100
AcDbLine
 10
177.8111705283134
 20
88.25146087766496
 30
0.0
 11
177.8111705283134
 21
87.75146087766541
 31
0.0
  0
LINE
  5
1C80B
330
18
100
AcDbEntity
  8
中心線
 48
0.5
100
AcDbLine
 10
174.3111705283132
 20
89.55146087766514
 30
0.0
 11
174.3111705283132
 21
80.75146087766542
 31
0.0
  0
LINE
  5
1C80C
330
18
100
AcDbEntity
  8
ｷｬｯﾌ_ﾎ_ﾙﾄ
100
AcDbLine
 10
170.8111705283134
 20
88.25146087766496
 30
0.0
 11
171.8611705283136
 21
88.55146087766515
 31
0.0
  0
LINE
  5
1C80D
330
18
100
AcDbEntity
  8
ｷｬｯﾌ_ﾎ_ﾙﾄ
100
AcDbLine
 10
170.8111705283134
 20
88.25146087766496
 30
0.0
 11
170.8111705283134
 21
87.75146087766541
 31
0.0
  0
LINE
  5
1C80E
330
18
100
AcDbEntity
  8
ｷｬｯﾌ_ﾎ_ﾙﾄ
100
AcDbLine
 10
177.8111705283134
 20
87.75146087766541
 30
0.0
 11
170.8111705283134
 21
87.75146087766541
 31
0.0
  0
LINE
  5
1C80F
330
18
100
AcDbEntity
  8
ｷｬｯﾌ_ﾎ_ﾙﾄ
100
AcDbLine
 10
177.8111705283134
 20
88.25146087766496
 30
0.0
 11
170.8111705283134
 21
88.25146087766496
 31
0.0
  0
LINE
  5
1C810
330
18
100
AcDbEntity
  8
ｷｬｯﾌ_ﾎ_ﾙﾄ
100
AcDbLine
 10
176.7611705283131
 20
88.55146087766515
 30
0.0
 11
171.8611705283136
 21
88.55146087766515
 31
0.0
  0
LINE
  5
1C904
330
18
100
AcDbEntity
  8
中心線
 48
0.2
100
AcDbLine
 10
-71.68882947168658
 20
77.00999238868291
 30
0.0
 11
-71.68882947168651
 21
88.1204274558671
 31
0.0
  0
LINE
  5
1C905
330
18
100
AcDbEntity
  8
ｷｬｯﾌ_ﾎ_ﾙﾄ
100
AcDbLine
 10
-75.18882947168652
 20
87.75146087766563
 30
0.0
 11
-68.18882947168652
 21
87.75146087766561
 31
0.0
  0
LINE
  5
1C906
330
18
100
AcDbEntity
  8
ｷｬｯﾌ_ﾎ_ﾙﾄ
100
AcDbLine
 10
-75.18882947168652
 20
88.25146087766517
 30
0.0
 11
-68.18882947168652
 21
88.25146087766515
 31
0.0
  0
LINE
  5
1C907
330
18
100
AcDbEntity
  8
ｷｬｯﾌ_ﾎ_ﾙﾄ
100
AcDbLine
 10
-74.13882947168634
 20
88.55146087766534
 30
0.0
 11
-69.2388294716867
 21
88.55146087766534
 31
0.0
  0
LINE
  5
1C908
330
18
100
AcDbEntity
  8
ｷｬｯﾌ_ﾎ_ﾙﾄ
100
AcDbLine
 10
-68.18882947168652
 20
88.25146087766515
 30
0.0
 11
-69.2388294716867
 21
88.55146087766534
 31
0.0
  0
LINE
  5
1C909
330
18
100
AcDbEntity
  8
ｷｬｯﾌ_ﾎ_ﾙﾄ
100
AcDbLine
 10
-68.18882947168652
 20
88.25146087766515
 30
0.0
 11
-68.18882947168652
 21
87.75146087766561
 31
0.0
  0
LINE
  5
1C90A
330
18
100
AcDbEntity
  8
中心線
 48
0.5
100
AcDbLine
 10
-71.68882947168651
 20
89.55146087766534
 30
0.0
 11
-71.68882947168658
 21
80.75146087766562
 31
0.0
  0
LINE
  5
1C90B
330
18
100
AcDbEntity
  8
ｷｬｯﾌ_ﾎ_ﾙﾄ
100
AcDbLine
 10
-75.18882947168652
 20
88.25146087766517
 30
0.0
 11
-74.13882947168634
 21
88.55146087766534
 31
0.0
  0
LINE
  5
1C90C
330
18
100
AcDbEntity
  8
ｷｬｯﾌ_ﾎ_ﾙﾄ
100
AcDbLine
 10
-75.18882947168652
 20
88.25146087766517
 30
0.0
 11
-75.18882947168652
 21
87.75146087766563
 31
0.0
  0
CIRCLE
  5
1C997
330
18
100
AcDbEntity
  8
0
100
AcDbCircle
 10
51.31117052831363
 20
304.8527994879973
 30
0.0
 40
55.0
  0
CIRCLE
  5
1CA09
330
18
100
AcDbEntity
  8
0
100
AcDbCircle
 10
360.3320418232576
 20
304.8527994879973
 30
0.0
 40
34.39999999999999
  0
ARC
  5
1CA0A
330
18
100
AcDbEntity
  8
0
100
AcDbCircle
 10
360.3320418232576
 20
304.8527994879977
 30
0.0
 40
126.9999999999999
100
AcDbArc
 50
349.8182516116642
 51
10.18174838833578
  0
ARC
  5
1CA0B
330
18
100
AcDbEntity
  8
破線
100
AcDbCircle
 10
360.3320418232576
 20
304.8527994879973
 30
0.0
 40
127.0
100
AcDbArc
 50
100.1817483883357
 51
169.8182516116633
  0
ARC
  5
1CA0C
330
18
100
AcDbEntity
  8
破線
100
AcDbCircle
 10
360.3320418232576
 20
304.8527994879973
 30
0.0
 40
127.0
100
AcDbArc
 50
190.1817483883364
 51
259.8182516116643
  0
ARC
  5
1CA0D
330
18
100
AcDbEntity
  8
破線
100
AcDbCircle
 10
360.3320418232576
 20
304.8527994879973
 30
0.0
 40
127.0
100
AcDbArc
 50
280.1817483883358
 51
349.8182516116638
  0
ARC
  5
1CA0E
330
18
100
AcDbEntity
  8
0
100
AcDbCircle
 10
360.3320418232576
 20
304.8527994879976
 30
0.0
 40
126.9999999999999
100
AcDbArc
 50
79.81825161166426
 51
100.1817483883357
  0
ARC
  5
1CA0F
330
18
100
AcDbEntity
  8
0
100
AcDbCircle
 10
360.3320418232578
 20
304.8527994879977
 30
0.0
 40
126.9999999999999
100
AcDbArc
 50
169.8182516116641
 51
190.1817483883356
  0
ARC
  5
1CA10
330
18
100
AcDbEntity
  8
0
100
AcDbCircle
 10
360.3320418232576
 20
304.8527994879977
 30
0.0
 40
126.9999999999999
100
AcDbArc
 50
259.818251611664
 51
280.1817483883356
  0
ARC
  5
1CA9E
330
18
100
AcDbEntity
  8
0
100
AcDbCircle
 10
229.8442907265883
 20
254.5300662238985
 30
0.0
 40
10.50000000000042
100
AcDbArc
 50
154.8012161684953
 51
205.2187467620091
  0
LINE
  5
1CA9F
330
18
100
AcDbEntity
  8
0
100
AcDbLine
 10
215.843380072572
 20
259.7561986410834
 30
0.0
 11
215.8452018054886
 21
249.2990559426206
 31
0.0
  0
ARC
  5
1CAA0
330
18
100
AcDbEntity
  8
0
100
AcDbCircle
 10
202.6365507310023
 20
253.4862147986439
 30
0.0
 40
1.579751577084588
100
AcDbArc
 50
318.3536221944966
 51
41.66634073600354
  0
ARC
  5
1CAA1
330
18
100
AcDbEntity
  8
0
100
AcDbCircle
 10
204.9971565879985
 20
253.4866260384555
 30
0.0
 40
1.579751577084588
100
AcDbArc
 50
138.3536221944964
 51
221.6663407360035
  0
LINE
  5
1CAA2
330
18
100
AcDbEntity
  8
0
100
AcDbLine
 10
229.3459457237783
 20
245.0299792633401
 30
0.0
 11
229.3426357445721
 21
264.0299789750254
 31
0.0
  0
LINE
  5
1CAA3
330
18
100
AcDbEntity
  8
0
100
AcDbLine
 10
234.3461198573371
 20
244.0308503256741
 30
0.0
 11
234.3424614592672
 21
265.0308500070102
 31
0.0
  0
LINE
  5
1CAA4
330
18
100
AcDbEntity
  8
0
100
AcDbLine
 10
231.3424615047911
 20
265.0303273787146
 30
0.0
 11
231.3461199028612
 21
244.0303276973784
 31
0.0
  0
LINE
  5
1CAA5
330
18
100
AcDbEntity
  8
0
100
AcDbLine
 10
226.3424615806635
 20
265.0294563315549
 30
0.0
 11
226.3461199787334
 21
244.0294566502188
 31
0.0
  0
LINE
  5
1CAA6
330
18
100
AcDbEntity
  8
0
100
AcDbLine
 10
219.342665760791
 20
263.8568083118788
 30
0.0
 11
219.3459160110488
 21
245.1996657378483
 31
0.0
  0
LINE
  5
1CAA7
330
18
100
AcDbEntity
  8
0
100
AcDbLine
 10
220.3450699590093
 20
250.056275347158
 30
0.0
 11
226.3450698679626
 21
250.0573206037496
 31
0.0
  0
LINE
  5
1CAA8
330
18
100
AcDbEntity
  8
0
100
AcDbLine
 10
220.3453345896523
 20
248.5372379667563
 30
0.0
 11
226.3453344986057
 21
248.5382832233478
 31
0.0
  0
LINE
  5
1CAA9
330
18
100
AcDbEntity
  8
0
100
AcDbLine
 10
226.3461199787334
 20
244.0294566502188
 30
0.0
 11
220.3461200697805
 21
244.0284113936274
 31
0.0
  0
LINE
  5
1CAAA
330
18
100
AcDbEntity
  8
0
100
AcDbLine
 10
203.8170365794039
 20
252.4364204344829
 30
0.0
 11
215.8577779776849
 21
252.4385180452334
 31
0.0
  0
LINE
  5
1CAAB
330
18
100
AcDbEntity
  8
0
100
AcDbLine
 10
220.3450699590093
 20
250.0562753471583
 30
0.0
 11
220.3453345896523
 21
248.5372379667563
 31
0.0
  0
LINE
  5
1CAAC
330
18
100
AcDbEntity
  8
0
100
AcDbLine
 10
220.3461200697805
 20
244.0284113936274
 30
0.0
 11
215.8452018054886
 21
249.2990559426206
 31
0.0
  0
ARC
  5
1CAAD
330
18
100
AcDbEntity
  8
0
100
AcDbCircle
 10
228.3198640145377
 20
244.33088531303
 30
0.0
 40
9.015903847971632
100
AcDbArc
 50
152.1895426094193
 51
174.4703481467429
  0
LINE
  5
1CAAE
330
18
100
AcDbEntity
  8
0
100
AcDbLine
 10
231.3450697920901
 20
250.0581916509092
 30
0.0
 11
234.3450697465665
 21
250.0587142792049
 31
0.0
  0
LINE
  5
1CAAF
330
18
100
AcDbEntity
  8
0
100
AcDbLine
 10
231.3453344227334
 20
248.5391542705074
 30
0.0
 11
234.3453343772095
 21
248.5396768988031
 31
0.0
  0
LINE
  5
1CAB0
330
18
100
AcDbEntity
  8
0
100
AcDbLine
 10
234.3461198573371
 20
244.0308503256741
 30
0.0
 11
231.3461199028612
 21
244.0303276973784
 31
0.0
  0
LINE
  5
1CAB1
330
18
100
AcDbEntity
  8
0
100
AcDbLine
 10
231.3455798536223
 20
247.1303276503379
 30
0.0
 11
229.3455798839711
 21
247.129979231474
 31
0.0
  0
LINE
  5
1CAB2
330
18
100
AcDbEntity
  8
0
100
AcDbLine
 10
229.3459457237783
 20
245.0299792633401
 30
0.0
 11
226.3459457693016
 21
245.0294566350443
 31
0.0
  0
LINE
  5
1CAB3
330
18
100
AcDbEntity
  8
0
100
AcDbLine
 10
235.3458585280155
 20
245.5310245123443
 30
0.0
 11
234.3458585431893
 21
245.5308503029124
 31
0.0
  0
LINE
  5
1CAB4
330
18
100
AcDbEntity
  8
0
100
AcDbLine
 10
226.3424615806635
 20
265.0294563315549
 30
0.0
 11
220.3424616717103
 21
265.0284110749637
 31
0.0
  0
LINE
  5
1CAB5
330
18
100
AcDbEntity
  8
0
100
AcDbLine
 10
226.3432470607913
 20
260.5206297584263
 30
0.0
 11
220.3432471518381
 21
260.5195845018349
 31
0.0
  0
LINE
  5
1CAB6
330
18
100
AcDbEntity
  8
0
100
AcDbLine
 10
226.3435116914345
 20
259.0015923780244
 30
0.0
 11
220.3435117824813
 21
259.0005471214329
 31
0.0
  0
LINE
  5
1CAB7
330
18
100
AcDbEntity
  8
0
100
AcDbLine
 10
203.8163048997905
 20
256.6364203707501
 30
0.0
 11
215.8570462980708
 21
256.6385179815005
 31
0.0
  0
ARC
  5
1CAB8
330
18
100
AcDbEntity
  8
0
100
AcDbCircle
 10
204.9967907481923
 20
255.5866260065891
 30
0.0
 40
1.579751577084588
100
AcDbArc
 50
138.3536221944964
 51
221.6663407360035
  0
LINE
  5
1CAB9
330
18
100
AcDbEntity
  8
0
100
AcDbLine
 10
220.3424616717108
 20
265.0284110749637
 30
0.0
 11
215.843380072572
 21
259.7561986410834
 31
0.0
  0
ARC
  5
1CABA
330
18
100
AcDbEntity
  8
0
100
AcDbCircle
 10
228.3163105200963
 20
264.7287153766835
 30
0.0
 40
9.015903847971632
100
AcDbArc
 50
185.5496147837551
 51
207.8304203210791
  0
LINE
  5
1CABB
330
18
100
AcDbEntity
  8
0
100
AcDbLine
 10
220.3432471518381
 20
260.5195845018349
 30
0.0
 11
220.3435117824813
 21
259.0005471214331
 31
0.0
  0
LINE
  5
1CABC
330
18
100
AcDbEntity
  8
0
100
AcDbLine
 10
234.3432469393952
 20
260.5220234338815
 30
0.0
 11
231.3432469849189
 21
260.5215008055858
 31
0.0
  0
LINE
  5
1CABD
330
18
100
AcDbEntity
  8
0
100
AcDbLine
 10
234.3435115700381
 20
259.0029860534795
 30
0.0
 11
231.3435116155621
 21
259.0024634251839
 31
0.0
  0
LINE
  5
1CABE
330
18
100
AcDbEntity
  8
0
100
AcDbLine
 10
231.34300155403
 20
261.9303274257561
 30
0.0
 11
229.343001584379
 21
261.9299790068922
 31
0.0
  0
LINE
  5
1CABF
330
18
100
AcDbEntity
  8
0
100
AcDbLine
 10
229.3426357445721
 20
264.0299789750254
 30
0.0
 11
226.3426357900954
 21
264.0294563467296
 31
0.0
  0
LINE
  5
1CAC0
330
18
100
AcDbEntity
  8
0
100
AcDbLine
 10
235.3427227582411
 20
263.5310242392039
 30
0.0
 11
234.3427227734153
 21
263.530850029772
 31
0.0
  0
LINE
  5
1CAC1
330
18
100
AcDbEntity
  8
0
100
AcDbLine
 10
234.3424614592672
 20
265.0308500070102
 30
0.0
 11
231.3424615047911
 21
265.0303273787146
 31
0.0
  0
CIRCLE
  5
1CAD5
102
{ACAD_REACTORS
330
1D293
102
}
330
18
100
AcDbEntity
  8
細線
100
AcDbCircle
 10
-35.59507706277588
 20
391.817996147342
 30
0.0
 40
3.5
  0
ARC
  5
1CAD6
102
{ACAD_REACTORS
330
1D293
102
}
330
18
100
AcDbEntity
  8
細線
100
AcDbCircle
 10
-34.51507706277578
 20
391.8179961473418
 30
0.0
 40
0.5
100
AcDbArc
 50
132.346387662823
 51
227.6536123371784
  0
ARC
  5
1CAD7
102
{ACAD_REACTORS
330
1D293
102
}
330
18
100
AcDbEntity
  8
細線
100
AcDbCircle
 10
-35.05507706277593
 20
390.8826887112549
 30
0.0
 40
0.5
100
AcDbArc
 50
72.34638766281459
 51
167.6536123371778
  0
ARC
  5
1CAD8
102
{ACAD_REACTORS
330
1D293
102
}
330
18
100
AcDbEntity
  8
細線
100
AcDbCircle
 10
-35.05507706277583
 20
392.753303583429
 30
0.0
 40
0.5
100
AcDbArc
 50
192.3463876628258
 51
287.6536123371792
  0
ARC
  5
1CAD9
102
{ACAD_REACTORS
330
1D293
102
}
330
18
100
AcDbEntity
  8
細線
100
AcDbCircle
 10
-36.67507706277577
 20
391.8179961473418
 30
0.0
 40
0.5
100
AcDbArc
 50
312.3463876628231
 51
47.65361233717853
  0
ARC
  5
1CADA
102
{ACAD_REACTORS
330
1D293
102
}
330
18
100
AcDbEntity
  8
細線
100
AcDbCircle
 10
-36.13507706277578
 20
390.8826887112549
 30
0.0
 40
0.5
100
AcDbArc
 50
12.34638766282602
 51
107.6536123371794
  0
CIRCLE
  5
1CADB
102
{ACAD_REACTORS
330
1D293
102
}
330
18
100
AcDbEntity
  8
細線
100
AcDbCircle
 10
-35.59507706277588
 20
391.817996147342
 30
0.0
 40
0.8299999999999998
  0
ARC
  5
1CADC
102
{ACAD_REACTORS
330
1D293
102
}
330
18
100
AcDbEntity
  8
細線
100
AcDbCircle
 10
-36.13507706277596
 20
392.753303583429
 30
0.0
 40
0.5
100
AcDbArc
 50
252.3463876628146
 51
347.6536123371776
  0
CIRCLE
  5
1CADD
330
18
100
AcDbEntity
  8
細線
100
AcDbCircle
 10
-71.68882947168565
 20
304.8527994879973
 30
0.0
 40
3.5
  0
ARC
  5
1CADE
330
18
100
AcDbEntity
  8
細線
100
AcDbCircle
 10
-70.92515414800407
 20
305.6164748116788
 30
0.0
 40
0.5
100
AcDbArc
 50
177.3463876628231
 51
272.6536123371785
  0
ARC
  5
1CADF
330
18
100
AcDbEntity
  8
細線
100
AcDbCircle
 10
-70.64562957929357
 20
304.5732749192866
 30
0.0
 40
0.5
100
AcDbArc
 50
117.3463876628145
 51
212.6536123371775
  0
ARC
  5
1CAE0
330
18
100
AcDbEntity
  8
細線
100
AcDbCircle
 10
-71.96835404039636
 20
305.8959993803895
 30
0.0
 40
0.5
100
AcDbArc
 50
237.3463876628258
 51
332.6536123371793
  0
ARC
  5
1CAE1
330
18
100
AcDbEntity
  8
細線
100
AcDbCircle
 10
-72.452504795367
 20
304.0891241643159
 30
0.0
 40
0.5
100
AcDbArc
 50
357.3463876628232
 51
92.65361233717856
  0
ARC
  5
1CAE2
330
18
100
AcDbEntity
  8
細線
100
AcDbCircle
 10
-71.40930490297494
 20
303.8095995956053
 30
0.0
 40
0.5
100
AcDbArc
 50
57.346387662826
 51
152.6536123371793
  0
CIRCLE
  5
1CAE3
330
18
100
AcDbEntity
  8
細線
100
AcDbCircle
 10
-71.68882947168565
 20
304.8527994879973
 30
0.0
 40
0.8299999999999998
  0
ARC
  5
1CAE4
330
18
100
AcDbEntity
  8
細線
100
AcDbCircle
 10
-72.73202936407795
 20
305.1323240567081
 30
0.0
 40
0.5
100
AcDbArc
 50
297.3463876628146
 51
32.65361233717769
  0
CIRCLE
  5
1CAED
330
18
100
AcDbEntity
  8
細線
100
AcDbCircle
 10
-35.5950770627758
 20
217.8697279754523
 30
0.0
 40
3.5
  0
ARC
  5
1CAEE
330
18
100
AcDbEntity
  8
細線
100
AcDbCircle
 10
-35.59507706277571
 20
218.9497279754524
 30
0.0
 40
0.5
100
AcDbArc
 50
222.3463876628231
 51
317.6536123371785
  0
ARC
  5
1CAEF
330
18
100
AcDbEntity
  8
細線
100
AcDbCircle
 10
-34.6597696266887
 20
218.4097279754522
 30
0.0
 40
0.5
100
AcDbArc
 50
162.3463876628145
 51
257.6536123371778
  0
ARC
  5
1CAF0
330
18
100
AcDbEntity
  8
細線
100
AcDbCircle
 10
-36.53038449886296
 20
218.4097279754523
 30
0.0
 40
0.5
100
AcDbArc
 50
282.3463876628258
 51
17.65361233717937
  0
ARC
  5
1CAF1
330
18
100
AcDbEntity
  8
細線
100
AcDbCircle
 10
-35.59507706277571
 20
216.7897279754524
 30
0.0
 40
0.5
100
AcDbArc
 50
42.34638766282325
 51
137.6536123371784
  0
ARC
  5
1CAF2
330
18
100
AcDbEntity
  8
細線
100
AcDbCircle
 10
-34.6597696266887
 20
217.3297279754524
 30
0.0
 40
0.5
100
AcDbArc
 50
102.3463876628259
 51
197.6536123371793
  0
CIRCLE
  5
1CAF3
330
18
100
AcDbEntity
  8
細線
100
AcDbCircle
 10
-35.5950770627758
 20
217.8697279754523
 30
0.0
 40
0.8299999999999998
  0
ARC
  5
1CAF4
330
18
100
AcDbEntity
  8
細線
100
AcDbCircle
 10
-36.53038449886302
 20
217.3297279754522
 30
0.0
 40
0.5
100
AcDbArc
 50
342.3463876628145
 51
77.65361233717772
  0
CIRCLE
  5
1CAF5
330
18
100
AcDbEntity
  8
細線
100
AcDbCircle
 10
51.31117052831363
 20
181.8527994879982
 30
0.0
 40
3.5
  0
ARC
  5
1CAF6
330
18
100
AcDbEntity
  8
細線
100
AcDbCircle
 10
50.54749520463218
 20
182.6164748116798
 30
0.0
 40
0.5
100
AcDbArc
 50
267.3463876628232
 51
2.653612337178516
  0
ARC
  5
1CAF7
330
18
100
AcDbEntity
  8
細線
100
AcDbCircle
 10
51.59069509702435
 20
182.8959993803902
 30
0.0
 40
0.5
100
AcDbArc
 50
207.3463876628145
 51
302.6536123371777
  0
ARC
  5
1CAF8
330
18
100
AcDbEntity
  8
細線
100
AcDbCircle
 10
50.26797063592145
 20
181.5732749192875
 30
0.0
 40
0.5
100
AcDbArc
 50
327.3463876628257
 51
62.65361233717936
  0
ARC
  5
1CAF9
330
18
100
AcDbEntity
  8
細線
100
AcDbCircle
 10
52.07484585199511
 20
181.0891241643168
 30
0.0
 40
0.5
100
AcDbArc
 50
87.34638766282326
 51
182.6536123371784
  0
ARC
  5
1CAFA
330
18
100
AcDbEntity
  8
細線
100
AcDbCircle
 10
52.35437042070572
 20
182.1323240567089
 30
0.0
 40
0.5
100
AcDbArc
 50
147.3463876628259
 51
242.6536123371793
  0
CIRCLE
  5
1CAFB
330
18
100
AcDbEntity
  8
細線
100
AcDbCircle
 10
51.31117052831363
 20
181.8527994879982
 30
0.0
 40
0.8299999999999998
  0
ARC
  5
1CAFC
330
18
100
AcDbEntity
  8
細線
100
AcDbCircle
 10
51.03164595960293
 20
180.8095995956058
 30
0.0
 40
0.5
100
AcDbArc
 50
27.34638766281458
 51
122.6536123371775
  0
CIRCLE
  5
1CB05
330
18
100
AcDbEntity
  8
細線
100
AcDbCircle
 10
138.3531911091139
 20
217.8697279754523
 30
0.0
 40
3.5
  0
ARC
  5
1CB06
330
18
100
AcDbEntity
  8
細線
100
AcDbCircle
 10
137.2731911091137
 20
217.8697279754524
 30
0.0
 40
0.5
100
AcDbArc
 50
312.3463876628231
 51
47.65361233717849
  0
ARC
  5
1CB07
330
18
100
AcDbEntity
  8
細線
100
AcDbCircle
 10
137.8131911091139
 20
218.8050354115394
 30
0.0
 40
0.5
100
AcDbArc
 50
252.3463876628145
 51
347.6536123371778
  0
ARC
  5
1CB08
330
18
100
AcDbEntity
  8
細線
100
AcDbCircle
 10
137.8131911091139
 20
216.9344205393652
 30
0.0
 40
0.5
100
AcDbArc
 50
12.34638766282591
 51
107.6536123371792
  0
ARC
  5
1CB09
330
18
100
AcDbEntity
  8
細線
100
AcDbCircle
 10
139.4331911091137
 20
217.8697279754524
 30
0.0
 40
0.5
100
AcDbArc
 50
132.346387662823
 51
227.6536123371784
  0
ARC
  5
1CB0A
330
18
100
AcDbEntity
  8
細線
100
AcDbCircle
 10
138.8931911091137
 20
218.8050354115394
 30
0.0
 40
0.5
100
AcDbArc
 50
192.3463876628258
 51
287.6536123371792
  0
CIRCLE
  5
1CB0B
330
18
100
AcDbEntity
  8
細線
100
AcDbCircle
 10
138.3531911091139
 20
217.8697279754523
 30
0.0
 40
0.8299999999999998
  0
ARC
  5
1CB0C
330
18
100
AcDbEntity
  8
細線
100
AcDbCircle
 10
138.8931911091139
 20
216.9344205393648
 30
0.0
 40
0.5
100
AcDbArc
 50
72.34638766281459
 51
167.6536123371776
  0
CIRCLE
  5
1CB0D
330
18
100
AcDbEntity
  8
細線
100
AcDbCircle
 10
174.3111705283129
 20
304.8527994879973
 30
0.0
 40
3.5
  0
ARC
  5
1CB0E
330
18
100
AcDbEntity
  8
細線
100
AcDbCircle
 10
173.5474952046313
 20
304.0891241643159
 30
0.0
 40
0.5
100
AcDbArc
 50
357.3463876628232
 51
92.6536123371785
  0
ARC
  5
1CB0F
330
18
100
AcDbEntity
  8
細線
100
AcDbCircle
 10
173.2679706359208
 20
305.1323240567081
 30
0.0
 40
0.5
100
AcDbArc
 50
297.3463876628146
 51
32.65361233717781
  0
ARC
  5
1CB10
330
18
100
AcDbEntity
  8
細線
100
AcDbCircle
 10
174.5906950970235
 20
303.8095995956052
 30
0.0
 40
0.5
100
AcDbArc
 50
57.34638766282591
 51
152.6536123371793
  0
ARC
  5
1CB11
330
18
100
AcDbEntity
  8
細線
100
AcDbCircle
 10
175.0748458519943
 20
305.6164748116788
 30
0.0
 40
0.5
100
AcDbArc
 50
177.3463876628231
 51
272.6536123371785
  0
ARC
  5
1CB12
330
18
100
AcDbEntity
  8
細線
100
AcDbCircle
 10
174.0316459596022
 20
305.8959993803895
 30
0.0
 40
0.5
100
AcDbArc
 50
237.346387662826
 51
332.6536123371793
  0
CIRCLE
  5
1CB13
330
18
100
AcDbEntity
  8
細線
100
AcDbCircle
 10
174.3111705283129
 20
304.8527994879973
 30
0.0
 40
0.8299999999999998
  0
ARC
  5
1CB14
330
18
100
AcDbEntity
  8
細線
100
AcDbCircle
 10
175.354370420705
 20
304.5732749192866
 30
0.0
 40
0.5
100
AcDbArc
 50
117.3463876628145
 51
212.6536123371775
  0
CIRCLE
  5
1CB1D
330
18
100
AcDbEntity
  8
細線
100
AcDbCircle
 10
138.3531911091137
 20
391.817996147342
 30
0.0
 40
3.5
  0
ARC
  5
1CB1E
330
18
100
AcDbEntity
  8
細線
100
AcDbCircle
 10
138.3531911091137
 20
390.737996147342
 30
0.0
 40
0.5
100
AcDbArc
 50
42.34638766282329
 51
137.6536123371784
  0
ARC
  5
1CB1F
330
18
100
AcDbEntity
  8
細線
100
AcDbCircle
 10
137.4178836730266
 20
391.2779961473421
 30
0.0
 40
0.5
100
AcDbArc
 50
342.3463876628145
 51
77.65361233717783
  0
ARC
  5
1CB20
330
18
100
AcDbEntity
  8
細線
100
AcDbCircle
 10
139.2884985452008
 20
391.277996147342
 30
0.0
 40
0.5
100
AcDbArc
 50
102.3463876628259
 51
197.6536123371794
  0
ARC
  5
1CB21
330
18
100
AcDbEntity
  8
細線
100
AcDbCircle
 10
138.3531911091137
 20
392.8979961473418
 30
0.0
 40
0.5
100
AcDbArc
 50
222.3463876628233
 51
317.6536123371785
  0
ARC
  5
1CB22
330
18
100
AcDbEntity
  8
細線
100
AcDbCircle
 10
137.4178836730266
 20
392.3579961473418
 30
0.0
 40
0.5
100
AcDbArc
 50
282.346387662826
 51
17.65361233717941
  0
CIRCLE
  5
1CB23
330
18
100
AcDbEntity
  8
細線
100
AcDbCircle
 10
138.3531911091137
 20
391.817996147342
 30
0.0
 40
0.8299999999999998
  0
ARC
  5
1CB24
330
18
100
AcDbEntity
  8
細線
100
AcDbCircle
 10
139.288498545201
 20
392.3579961473421
 30
0.0
 40
0.5
100
AcDbArc
 50
162.3463876628146
 51
257.6536123371777
  0
CIRCLE
  5
1CB2C
330
18
100
AcDbEntity
  8
細線
100
AcDbCircle
 10
-22.52968099347826
 20
324.5849716110713
 30
0.0
 40
2.0
  0
CIRCLE
  5
1CB2D
330
18
100
AcDbEntity
  8
細線
100
AcDbCircle
 10
-22.52968099347826
 20
324.5849716110713
 30
0.0
 40
2.5
  0
CIRCLE
  5
1CB51
330
18
100
AcDbEntity
  8
細線
100
AcDbCircle
 10
73.31117052831245
 20
342.9579172545125
 30
0.0
 40
2.74999999744107
  0
LWPOLYLINE
  5
1CB52
330
18
100
AcDbEntity
  8
細線
100
AcDbPolyline
 90
        6
 70
     1
 43
0.0
 10
72.58948542389633
 20
341.7079156787051
 10
71.86779485668523
 20
342.9579141005663
 10
72.58947996110065
 20
344.2079156763728
 10
74.0328556327288
 20
344.2079188303196
 10
74.75454619994001
 20
342.9579204084585
 10
74.03286109552414
 20
341.7079188326516
  0
CIRCLE
  5
1CB55
330
18
100
AcDbEntity
  8
0
100
AcDbCircle
 10
73.31117052831245
 20
342.9579172545125
 30
0.0
 40
3.25
  0
CIRCLE
  5
1CB56
330
18
100
AcDbEntity
  8
細線
100
AcDbCircle
 10
29.31117052831243
 20
342.9579172545125
 30
0.0
 40
2.74999999744107
  0
LWPOLYLINE
  5
1CB57
330
18
100
AcDbEntity
  8
細線
100
AcDbPolyline
 90
        6
 70
     1
 43
0.0
 10
30.03286109552401
 20
341.7079188326516
 10
28.58948542389623
 20
341.7079156787058
 10
27.86779485668501
 20
342.9579141005656
 10
28.58947996110106
 20
344.2079156763733
 10
30.03285563272878
 20
344.2079188303194
 10
30.75454619994019
 20
342.957920408459
  0
CIRCLE
  5
1CB58
330
18
100
AcDbEntity
  8
0
100
AcDbCircle
 10
29.31117052831243
 20
342.9579172545125
 30
0.0
 40
3.25
  0
CIRCLE
  5
1CB59
330
18
100
AcDbEntity
  8
細線
100
AcDbCircle
 10
7.311170528312542
 20
304.8527994879971
 30
0.0
 40
2.74999999744107
  0
LWPOLYLINE
  5
1CB5A
330
18
100
AcDbEntity
  8
細線
100
AcDbPolyline
 90
        6
 70
     1
 43
0.0
 10
8.754546199940136
 20
304.8528026419436
 10
8.032861095523458
 20
303.6028010661366
 10
6.589485423896802
 20
303.60279791219
 10
5.867794856684724
 20
304.852796334051
 10
6.589479961101233
 20
306.1027979098581
 10
8.032855632728567
 20
306.1028010638045
  0
CIRCLE
  5
1CB5B
330
18
100
AcDbEntity
  8
0
100
AcDbCircle
 10
7.311170528312542
 20
304.8527994879971
 30
0.0
 40
3.25
  0
CIRCLE
  5
1CB5C
330
18
100
AcDbEntity
  8
細線
100
AcDbCircle
 10
29.31117052831245
 20
266.7476817214818
 30
0.0
 40
2.74999999744107
  0
LWPOLYLINE
  5
1CB5D
330
18
100
AcDbEntity
  8
細線
100
AcDbPolyline
 90
        6
 70
     1
 43
0.0
 10
30.03285563272855
 20
267.9976832972891
 10
30.75454619993966
 20
266.7476848754279
 10
30.03286109552424
 20
265.4976832996215
 10
28.5894854238961
 20
265.4976801456745
 10
27.86779485668488
 20
266.7476785675357
 10
28.58947996110076
 20
267.9976801433425
  0
CIRCLE
  5
1CB5E
330
18
100
AcDbEntity
  8
0
100
AcDbCircle
 10
29.31117052831245
 20
266.7476817214818
 30
0.0
 40
3.25
  0
CIRCLE
  5
1CB5F
330
18
100
AcDbEntity
  8
細線
100
AcDbCircle
 10
73.31117052831245
 20
266.7476817214818
 30
0.0
 40
2.74999999744107
  0
LWPOLYLINE
  5
1CB60
330
18
100
AcDbEntity
  8
細線
100
AcDbPolyline
 90
        6
 70
     1
 43
0.0
 10
72.58947996110085
 20
267.9976801433425
 10
74.03285563272859
 20
267.9976832972885
 10
74.75454619993986
 20
266.7476848754287
 10
74.03286109552381
 20
265.4976832996209
 10
72.58948542389609
 20
265.4976801456748
 10
71.86779485668464
 20
266.7476785675353
  0
CIRCLE
  5
1CB61
330
18
100
AcDbEntity
  8
0
100
AcDbCircle
 10
73.31117052831245
 20
266.7476817214818
 30
0.0
 40
3.25
  0
CIRCLE
  5
1CB62
330
18
100
AcDbEntity
  8
細線
100
AcDbCircle
 10
95.31117052831252
 20
304.8527994879971
 30
0.0
 40
2.74999999744107
  0
LWPOLYLINE
  5
1CB63
330
18
100
AcDbEntity
  8
細線
100
AcDbPolyline
 90
        6
 70
     1
 43
0.0
 10
93.86779485668483
 20
304.8527963340506
 10
94.58947996110152
 20
306.1027979098576
 10
96.0328556327282
 20
306.1028010638043
 10
96.75454619994027
 20
304.8528026419432
 10
96.03286109552374
 20
303.6028010661361
 10
94.5894854238964
 20
303.6027979121898
  0
CIRCLE
  5
1CB64
330
18
100
AcDbEntity
  8
0
100
AcDbCircle
 10
95.31117052831252
 20
304.8527994879971
 30
0.0
 40
3.25
  0
LINE
  5
1CBFE
330
18
100
AcDbEntity
  8
0
100
AcDbLine
 10
28.86122620766926
 20
55.85146087766617
 30
0.0
 11
73.76111484895588
 21
55.85146087766617
 31
0.0
  0
LINE
  5
1CD77
330
18
100
AcDbEntity
  8
0
100
AcDbLine
 10
-105.1379247235205
 20
232.3527994846978
 30
0.0
 11
-203.5467326261185
 21
232.3527994846974
 31
0.0
  0
LINE
  5
1CD78
330
18
100
AcDbEntity
  8
0
100
AcDbLine
 10
-105.1379247235205
 20
227.3527994912976
 30
0.0
 11
-203.5467326261185
 21
227.3527994912976
 31
0.0
  0
LINE
  5
1CDB1
330
18
100
AcDbEntity
  8
0
100
AcDbLine
 10
-82.68909064926445
 20
240.3403432812408
 30
0.0
 11
-88.68909055821765
 21
240.3392980246493
 31
0.0
  0
LINE
  5
1CDB2
330
18
100
AcDbEntity
  8
0
100
AcDbLine
 10
-82.68804053849335
 20
234.31247932771
 30
0.0
 11
-88.68804044744658
 21
234.3114340711188
 31
0.0
  0
LINE
  5
1CDB3
330
18
100
AcDbEntity
  8
0
100
AcDbLine
 10
-82.68830516913658
 20
235.8315167081119
 30
0.0
 11
-88.68830507808977
 21
235.8304714515205
 31
0.0
  0
LINE
  5
1CDB4
330
18
100
AcDbEntity
  8
0
100
AcDbLine
 10
-82.68543225119444
 20
219.3403435999046
 30
0.0
 11
-88.68543216014719
 21
219.3392983433131
 31
0.0
  0
LINE
  5
1CDB5
330
18
100
AcDbEntity
  8
0
100
AcDbLine
 10
-88.68621764027528
 20
223.8481249164421
 30
0.0
 11
-82.6862177313221
 21
223.8491701730334
 31
0.0
  0
LINE
  5
1CDB6
330
18
100
AcDbEntity
  8
0
100
AcDbLine
 10
-88.68648227091851
 20
225.3671622968439
 30
0.0
 11
-82.68648236196529
 21
225.3682075534353
 31
0.0
  0
LINE
  5
1CDB7
330
18
100
AcDbEntity
  8
0
100
AcDbLine
 10
-88.68648227091851
 20
225.3671622968439
 30
0.0
 11
-88.68621764027528
 21
223.8481249164421
 31
0.0
  0
LINE
  5
1CDB8
330
18
100
AcDbEntity
  8
0
100
AcDbLine
 10
-88.68543216014719
 20
219.3392983433131
 30
0.0
 11
-93.18635042443927
 21
224.6099428923064
 31
0.0
  0
LINE
  5
1CDB9
330
18
100
AcDbEntity
  8
0
100
AcDbLine
 10
-89.68888646913681
 20
239.1676952615646
 30
0.0
 11
-89.68563621887913
 21
220.5105526875339
 31
0.0
  0
ARC
  5
1CDBA
330
18
100
AcDbEntity
  8
0
100
AcDbCircle
 10
-80.71168821539002
 20
219.6417722627159
 30
0.0
 40
9.015903847971632
100
AcDbArc
 50
152.1895426094149
 51
174.4703481467429
  0
LINE
  5
1CDBB
330
18
100
AcDbEntity
  8
0
100
AcDbLine
 10
-93.18882947168658
 20
232.3527994846979
 30
0.0
 11
-103.2453051240439
 21
232.3527994846978
 31
0.0
  0
LINE
  5
1CDBC
330
18
100
AcDbEntity
  8
0
100
AcDbLine
 10
-93.18882947168658
 20
227.3527994912979
 30
0.0
 11
-103.2453051240447
 21
227.3527994912976
 31
0.0
  0
ARC
  5
1CDBD
330
18
100
AcDbEntity
  8
0
100
AcDbCircle
 10
-106.5430472769143
 20
228.6027994896478
 30
0.0
 40
1.880656636903949
100
AcDbArc
 50
318.3436407292481
 51
41.65635927075181
  0
ARC
  5
1CDBE
330
18
100
AcDbEntity
  8
0
100
AcDbCircle
 10
-101.8401825706509
 20
228.6027994896478
 30
0.0
 40
1.880656636903949
100
AcDbArc
 50
138.343640729248
 51
221.6563592707518
  0
ARC
  5
1CDBF
330
18
100
AcDbEntity
  8
0
100
AcDbCircle
 10
-104.6504276774377
 20
231.1027994863477
 30
0.0
 40
1.880656636903949
100
AcDbArc
 50
318.3436407292481
 51
41.65635927075181
  0
ARC
  5
1CDC0
330
18
100
AcDbEntity
  8
0
100
AcDbCircle
 10
-106.5430472769143
 20
231.1027994863477
 30
0.0
 40
1.880656636903949
100
AcDbArc
 50
318.3436407292481
 51
41.65635927075181
  0
ARC
  5
1CDC1
330
18
100
AcDbEntity
  8
0
100
AcDbCircle
 10
-101.8401825706501
 20
231.1027994863477
 30
0.0
 40
1.880656636903949
100
AcDbArc
 50
138.343640729248
 51
221.6563592707518
  0
ARC
  5
1CDC2
330
18
100
AcDbEntity
  8
0
100
AcDbCircle
 10
-103.7328021701268
 20
228.6027994896478
 30
0.0
 40
1.880656636903949
100
AcDbArc
 50
138.343640729248
 51
221.6563592707518
  0
LINE
  5
1CDC3
330
18
100
AcDbEntity
  8
0
100
AcDbLine
 10
-88.68830507808977
 20
235.8304714515205
 30
0.0
 11
-88.68804044744658
 21
234.3114340711188
 31
0.0
  0
ARC
  5
1CDC4
330
18
100
AcDbEntity
  8
0
100
AcDbCircle
 10
-79.18726150333937
 20
229.8409531735844
 30
0.0
 40
10.50000000000042
100
AcDbArc
 50
154.8012161684953
 51
205.2187467620018
  0
LINE
  5
1CDC5
330
18
100
AcDbEntity
  8
0
100
AcDbLine
 10
-93.18817215735563
 20
235.0670855907693
 30
0.0
 11
-93.18635042443927
 21
224.6099428923064
 31
0.0
  0
ARC
  5
1CDC6
330
18
100
AcDbEntity
  8
0
100
AcDbCircle
 10
-80.71524170983137
 20
240.0396023263695
 30
0.0
 40
9.015903847971632
100
AcDbArc
 50
185.5496147837554
 51
207.8304203210862
  0
LINE
  5
1CDC7
330
18
100
AcDbEntity
  8
0
100
AcDbLine
 10
-88.6890905582172
 20
240.3392980246493
 30
0.0
 11
-93.18817215735563
 21
235.067085590769
 31
0.0
  0
LINE
  5
1CDC8
330
18
100
AcDbEntity
  8
0
100
AcDbLine
 10
-77.68909072513676
 20
240.3412143284004
 30
0.0
 11
-77.68543232706676
 21
219.3412146470641
 31
0.0
  0
LINE
  5
1CDC9
330
18
100
AcDbEntity
  8
0
100
AcDbLine
 10
-74.68543237259061
 20
219.3417372753597
 30
0.0
 11
-74.68909077066061
 21
240.3417369566962
 31
0.0
  0
LINE
  5
1CDCA
330
18
100
AcDbEntity
  8
0
100
AcDbLine
 10
-82.68909064926445
 20
240.3403432812408
 30
0.0
 11
-82.68543225119444
 21
219.3403435999046
 31
0.0
  0
LINE
  5
1CDCB
330
18
100
AcDbEntity
  8
0
100
AcDbLine
 10
-79.68560650614968
 20
220.3408662130259
 30
0.0
 11
-79.68891648535573
 21
239.340865924711
 31
0.0
  0
LINE
  5
1CDCC
330
18
100
AcDbEntity
  8
0
100
AcDbLine
 10
-73.68569370191242
 20
220.8419114620301
 30
0.0
 11
-74.6856936867384
 21
220.8417372525981
 31
0.0
  0
LINE
  5
1CDCD
330
18
100
AcDbEntity
  8
0
100
AcDbLine
 10
-79.68560650614968
 20
220.3408662130259
 30
0.0
 11
-82.68560646062629
 21
220.3403435847301
 31
0.0
  0
LINE
  5
1CDCE
330
18
100
AcDbEntity
  8
0
100
AcDbLine
 10
-77.68597237630544
 20
222.4412146000235
 30
0.0
 11
-79.68597234595652
 21
222.4408661811598
 31
0.0
  0
LINE
  5
1CDCF
330
18
100
AcDbEntity
  8
0
100
AcDbLine
 10
-74.68543237259061
 20
219.3417372753597
 30
0.0
 11
-77.68543232706676
 21
219.3412146470641
 31
0.0
  0
LINE
  5
1CDD0
330
18
100
AcDbEntity
  8
0
100
AcDbLine
 10
-77.68621780719442
 20
223.850041220193
 30
0.0
 11
-74.68621785271827
 21
223.8505638484888
 31
0.0
  0
LINE
  5
1CDD1
330
18
100
AcDbEntity
  8
0
100
AcDbLine
 10
-73.68882947168659
 20
238.8419111888897
 30
0.0
 11
-74.68882945651259
 21
238.8417369794578
 31
0.0
  0
LINE
  5
1CDD2
330
18
100
AcDbEntity
  8
0
100
AcDbLine
 10
-79.68891648535573
 20
239.340865924711
 30
0.0
 11
-82.68891643983236
 21
239.3403432964153
 31
0.0
  0
LINE
  5
1CDD3
330
18
100
AcDbEntity
  8
0
100
AcDbLine
 10
-74.68909077066061
 20
240.3417369566962
 30
0.0
 11
-77.68909072513676
 21
240.3412143284004
 31
0.0
  0
LINE
  5
1CDD4
330
18
100
AcDbEntity
  8
0
100
AcDbLine
 10
-77.68855067589763
 20
237.2412143754418
 30
0.0
 11
-79.6885506455487
 21
237.2408659565779
 31
0.0
  0
LINE
  5
1CDD5
330
18
100
AcDbEntity
  8
0
100
AcDbLine
 10
-74.68804065988955
 20
234.3138730031653
 30
0.0
 11
-77.68804061436568
 21
234.3133503748695
 31
0.0
  0
LINE
  5
1CDD6
330
18
100
AcDbEntity
  8
0
100
AcDbLine
 10
-74.68830529053272
 20
235.8329103835674
 30
0.0
 11
-77.68830524500888
 21
235.8323877552716
 31
0.0
  0
LINE
  5
1CDD7
330
18
100
AcDbEntity
  8
0
100
AcDbLine
 10
-77.68648243783761
 20
225.369078600595
 30
0.0
 11
-74.68648248336146
 21
225.3696012288906
 31
0.0
  0
LINE
  5
1CDD8
330
18
100
AcDbEntity
  8
0
100
AcDbLine
 10
-73.68882947168659
 20
238.8419111888897
 30
0.0
 11
-73.68569370191242
 21
220.8419114620301
 31
0.0
  0
CIRCLE
  5
1CDE5
330
18
100
AcDbEntity
  8
0
100
AcDbCircle
 10
-49.0979924001761
 20
405.2619624164877
 30
0.0
 40
7.0
  0
CIRCLE
  5
1CDE6
330
18
100
AcDbEntity
  8
0
100
AcDbCircle
 10
151.720333456803
 20
405.2619624164877
 30
0.0
 40
7.0
  0
CIRCLE
  5
1CDE7
330
18
100
AcDbEntity
  8
0
100
AcDbCircle
 10
-49.09799240017644
 20
204.4436365595076
 30
0.0
 40
7.0
  0
CIRCLE
  5
1CDE8
330
18
100
AcDbEntity
  8
0
100
AcDbCircle
 10
151.7203334568027
 20
204.4436365595069
 30
0.0
 40
7.0
  0
CIRCLE
  5
1CDE9
330
18
100
AcDbEntity
  8
0
100
AcDbCircle
 10
259.9228788947693
 20
405.2619624164877
 30
0.0
 40
7.0
  0
CIRCLE
  5
1CDEA
330
18
100
AcDbEntity
  8
0
100
AcDbCircle
 10
460.7412047517486
 20
405.2619624164877
 30
0.0
 40
7.0
  0
CIRCLE
  5
1CDEB
330
18
100
AcDbEntity
  8
0
100
AcDbCircle
 10
460.7412047517482
 20
204.4436365595069
 30
0.0
 40
7.0
  0
CIRCLE
  5
1CDEC
330
18
100
AcDbEntity
  8
0
100
AcDbCircle
 10
259.9228788947689
 20
204.4436365595076
 30
0.0
 40
7.0
  0
CIRCLE
  5
1CE05
330
18
100
AcDbEntity
  8
0
100
AcDbCircle
 10
51.31117052831245
 20
304.8527994879971
 30
0.0
 40
92.5
  0
CIRCLE
  5
1CE07
330
18
100
AcDbEntity
  8
0
100
AcDbCircle
 10
88.71680132764401
 20
369.8590975252209
 30
0.0
 40
2.5
  0
CIRCLE
  5
1CE08
330
18
100
AcDbEntity
  8
細線
100
AcDbCircle
 10
88.71680132764401
 20
369.8590975252209
 30
0.0
 40
3.0
  0
LINE
  5
1CE09
330
18
100
AcDbEntity
  8
中心線
100
AcDbLine
 10
16.33183128988543
 20
365.1563328366586
 30
0.0
 11
10.56365577722812
 21
375.2896352759661
 31
0.0
  0
CIRCLE
  5
1CE0A
330
18
100
AcDbEntity
  8
細線
100
AcDbCircle
 10
13.71688042176085
 20
369.7501750234107
 30
0.0
 40
3.0
  0
CIRCLE
  5
1CE0B
330
18
100
AcDbEntity
  8
0
100
AcDbCircle
 10
13.71688042176085
 20
369.7501750234107
 30
0.0
 40
2.5
  0
LINE
  5
1CE0C
330
18
100
AcDbEntity
  8
中心線
100
AcDbLine
 10
-18.40289090880298
 20
304.7115697742551
 30
0.0
 11
-30.06267600180274
 21
304.7828344664603
 31
0.0
  0
CIRCLE
  5
1CE0D
330
18
100
AcDbEntity
  8
細線
100
AcDbCircle
 10
-23.68875037756926
 20
304.7438769861873
 30
0.0
 40
3.0
  0
CIRCLE
  5
1CE0E
330
18
100
AcDbEntity
  8
0
100
AcDbCircle
 10
-23.68875037756926
 20
304.7438769861873
 30
0.0
 40
2.5
  0
LINE
  5
1CE0F
330
18
100
AcDbEntity
  8
中心線
100
AcDbLine
 10
16.57644832962535
 20
244.408036425594
 30
0.0
 11
10.6848387492829
 21
234.3459986784915
 31
0.0
  0
CIRCLE
  5
1CE10
330
18
100
AcDbEntity
  8
細線
100
AcDbCircle
 10
13.90553972898362
 20
239.8465014507738
 30
0.0
 40
3.0
  0
CIRCLE
  5
1CE11
330
18
100
AcDbEntity
  8
0
100
AcDbCircle
 10
13.90553972898362
 20
239.8465014507738
 30
0.0
 40
2.5
  0
LINE
  5
1CE12
330
18
100
AcDbEntity
  8
中心線
100
AcDbLine
 10
86.29050976674212
 20
244.5492661393362
 30
0.0
 11
92.05868527939946
 21
234.4159637000287
 31
0.0
  0
CIRCLE
  5
1CE13
330
18
100
AcDbEntity
  8
細線
100
AcDbCircle
 10
88.90546063486672
 20
239.9554239525842
 30
0.0
 40
3.0
  0
CIRCLE
  5
1CE14
330
18
100
AcDbEntity
  8
0
100
AcDbCircle
 10
88.90546063486672
 20
239.9554239525842
 30
0.0
 40
2.5
  0
LINE
  5
1CE15
330
18
100
AcDbEntity
  8
中心線
100
AcDbLine
 10
121.0252319654305
 20
304.9940292017395
 30
0.0
 11
132.6850170584301
 21
304.9227645095343
 31
0.0
  0
CIRCLE
  5
1CE16
330
18
100
AcDbEntity
  8
細線
100
AcDbCircle
 10
126.3110914341968
 20
304.9617219898075
 30
0.0
 40
3.0
  0
CIRCLE
  5
1CE17
330
18
100
AcDbEntity
  8
0
100
AcDbCircle
 10
126.3110914341968
 20
304.9617219898075
 30
0.0
 40
2.5
  0
LINE
  5
1CE22
330
18
100
AcDbEntity
  8
0
100
AcDbLine
 10
-93.18882947168731
 20
55.0633071953796
 30
0.0
 11
-103.2453051240454
 21
55.06330719537937
 31
0.0
  0
LINE
  5
1CE23
330
18
100
AcDbEntity
  8
0
100
AcDbLine
 10
-93.18882947168731
 20
60.06330718877961
 30
0.0
 11
-103.2453051240447
 21
60.06330718877951
 31
0.0
  0
LINE
  5
1CE3A
330
18
100
AcDbEntity
  8
0
100
AcDbLine
 10
-105.1379247235212
 20
55.06330719537937
 30
0.0
 11
-203.5547471186424
 21
55.06330719537937
 31
0.0
  0
LINE
  5
1CE3B
330
18
100
AcDbEntity
  8
0
100
AcDbLine
 10
-105.1379247235212
 20
60.06330718877951
 30
0.0
 11
-203.5564892130381
 21
60.06330718877923
 31
0.0
  0
ARC
  5
1CE41
330
18
100
AcDbEntity
  8
0
100
AcDbCircle
 10
-103.7328021701275
 20
56.31330719372954
 30
0.0
 40
1.880656636903949
100
AcDbArc
 50
138.343640729248
 51
221.6563592707518
  0
ARC
  5
1CE42
330
18
100
AcDbEntity
  8
0
100
AcDbCircle
 10
-101.8401825706515
 20
56.31330719372954
 30
0.0
 40
1.880656636903949
100
AcDbArc
 50
138.343640729248
 51
221.6563592707518
  0
ARC
  5
1CE43
330
18
100
AcDbEntity
  8
0
100
AcDbCircle
 10
-106.5430472769148
 20
56.31330719372954
 30
0.0
 40
1.880656636903949
100
AcDbArc
 50
318.3436407292481
 51
41.65635927075181
  0
ARC
  5
1CE44
330
18
100
AcDbEntity
  8
0
100
AcDbCircle
 10
-101.8401825706508
 20
58.81330719042946
 30
0.0
 40
1.880656636903949
100
AcDbArc
 50
138.343640729248
 51
221.6563592707518
  0
ARC
  5
1CE45
330
18
100
AcDbEntity
  8
0
100
AcDbCircle
 10
-106.5430472769148
 20
58.81330719042946
 30
0.0
 40
1.880656636903949
100
AcDbArc
 50
318.3436407292481
 51
41.65635927075181
  0
ARC
  5
1CE46
330
18
100
AcDbEntity
  8
0
100
AcDbCircle
 10
-104.6504276774385
 20
58.81330719042946
 30
0.0
 40
1.880656636903949
100
AcDbArc
 50
318.3436407292481
 51
41.65635927075181
  0
LINE
  5
1CE5A
330
18
100
AcDbEntity
  8
0
100
AcDbLine
 10
-73.68882947168732
 20
66.55241889297144
 30
0.0
 11
-73.68569370191313
 21
48.55241916611181
 31
0.0
  0
LINE
  5
1CEF6
330
18
100
AcDbEntity
  8
0
100
AcDbLine
 10
-74.6872615868009
 20
67.05241902954161
 30
0.0
 11
-74.6872615868009
 21
48.05241902954167
 31
0.0
  0
LINE
  5
1CEF7
330
18
100
AcDbEntity
  8
0
100
AcDbLine
 10
-77.68726158680045
 20
48.05241902954167
 30
0.0
 11
-77.68726158680022
 21
67.05241902954161
 31
0.0
  0
LINE
  5
1CEF8
330
18
100
AcDbEntity
  8
0
100
AcDbLine
 10
-79.68726158680022
 20
67.05241902954161
 30
0.0
 11
-79.68726158680022
 21
48.05241902954167
 31
0.0
  0
ARC
  5
1CEF9
330
18
100
AcDbEntity
  8
0
100
AcDbCircle
 10
-81.86100173054894
 20
62.30241902954139
 30
0.0
 40
7.848428098993441
100
AcDbArc
 50
150.4309251395761
 51
209.5690748604237
  0
LINE
  5
1CEFA
330
18
100
AcDbEntity
  8
0
100
AcDbLine
 10
-89.68726158680022
 20
65.8809904581127
 30
0.0
 11
-89.68726158680022
 21
57.55241902954161
 31
0.0
  0
LINE
  5
1CEFB
330
18
100
AcDbEntity
  8
0
100
AcDbLine
 10
-88.68726158680022
 20
67.05241902954161
 30
0.0
 11
-93.18726158680021
 21
61.78099045811267
 31
0.0
  0
LINE
  5
1CEFC
330
18
100
AcDbEntity
  8
0
100
AcDbLine
 10
-82.68726158680022
 20
67.05241902954161
 30
0.0
 11
-82.68726158680022
 21
48.05241902954167
 31
0.0
  0
LINE
  5
1CEFD
330
18
100
AcDbEntity
  8
0
100
AcDbLine
 10
-79.68726158680022
 20
48.05241902954167
 30
0.0
 11
-82.68726158680022
 21
48.05241902954167
 31
0.0
  0
LINE
  5
1CEFE
330
18
100
AcDbEntity
  8
0
100
AcDbLine
 10
-93.18726158680021
 20
61.78099045811267
 30
0.0
 11
-93.18726158680021
 21
53.32384760097044
 31
0.0
  0
ARC
  5
1CEFF
330
18
100
AcDbEntity
  8
0
100
AcDbCircle
 10
-81.86100173054894
 20
52.80241902954184
 30
0.0
 40
7.848428098993441
100
AcDbArc
 50
150.4309251395761
 51
209.5690748604237
  0
LINE
  5
1CF00
330
18
100
AcDbEntity
  8
0
100
AcDbLine
 10
-89.68726158680022
 20
49.22384760097019
 30
0.0
 11
-89.68726158680022
 21
57.55241902954161
 31
0.0
  0
LINE
  5
1CF01
330
18
100
AcDbEntity
  8
0
100
AcDbLine
 10
-82.68726158680022
 20
48.05241902954167
 30
0.0
 11
-88.68726158680022
 21
48.05241902954167
 31
0.0
  0
LINE
  5
1CF02
330
18
100
AcDbEntity
  8
0
100
AcDbLine
 10
-88.68726158680022
 20
48.92943568333405
 30
0.0
 11
-82.68726158680022
 21
48.92943568333405
 31
0.0
  0
LINE
  5
1CF03
330
18
100
AcDbEntity
  8
0
100
AcDbLine
 10
-88.68726158680022
 20
48.05241902954167
 30
0.0
 11
-93.18726158680021
 21
53.32384760097055
 31
0.0
  0
LINE
  5
1CF04
330
18
100
AcDbEntity
  8
0
100
AcDbLine
 10
-88.68726158680022
 20
48.92943568333405
 30
0.0
 11
-88.68726158680022
 21
48.05241902954167
 31
0.0
  0
LINE
  5
1CF05
330
18
100
AcDbEntity
  8
0
100
AcDbLine
 10
-88.68726158680022
 20
58.4294356833336
 30
0.0
 11
-82.68726158680022
 21
58.4294356833336
 31
0.0
  0
LINE
  5
1CF06
330
18
100
AcDbEntity
  8
0
100
AcDbLine
 10
-88.68726158680022
 20
56.67540237574928
 30
0.0
 11
-82.68726158680022
 21
56.67540237574928
 31
0.0
  0
LINE
  5
1CF07
330
18
100
AcDbEntity
  8
0
100
AcDbLine
 10
-88.68726158680022
 20
56.67540237574928
 30
0.0
 11
-88.68726158680022
 21
58.4294356833336
 31
0.0
  0
LINE
  5
1CF08
330
18
100
AcDbEntity
  8
0
100
AcDbLine
 10
-77.68726158680045
 20
48.92943568333405
 30
0.0
 11
-74.6872615868009
 21
48.92943568333405
 31
0.0
  0
LINE
  5
1CF09
330
18
100
AcDbEntity
  8
0
100
AcDbLine
 10
-74.6872615868009
 20
48.05241902954167
 30
0.0
 11
-77.68726158680045
 21
48.05241902954167
 31
0.0
  0
LINE
  5
1CF0A
330
18
100
AcDbEntity
  8
0
100
AcDbLine
 10
-77.68726158680022
 20
50.15241902954106
 30
0.0
 11
-79.68726158680022
 21
50.15241902954106
 31
0.0
  0
LINE
  5
1CF0B
330
18
100
AcDbEntity
  8
0
100
AcDbLine
 10
-77.68726158680045
 20
56.67540237574939
 30
0.0
 11
-74.6872615868009
 21
56.67540237574939
 31
0.0
  0
LINE
  5
1CF0C
330
18
100
AcDbEntity
  8
0
100
AcDbLine
 10
-77.68726158680045
 20
58.4294356833336
 30
0.0
 11
-74.6872615868009
 21
58.4294356833335
 31
0.0
  0
LINE
  5
1CF0D
330
18
100
AcDbEntity
  8
0
100
AcDbLine
 10
-79.68726158680022
 20
67.05241902954161
 30
0.0
 11
-82.68726158680022
 21
67.05241902954161
 31
0.0
  0
LINE
  5
1CF0E
330
18
100
AcDbEntity
  8
0
100
AcDbLine
 10
-82.68726158680022
 20
67.05241902954161
 30
0.0
 11
-88.68726158680022
 21
67.05241902954161
 31
0.0
  0
LINE
  5
1CF0F
330
18
100
AcDbEntity
  8
0
100
AcDbLine
 10
-88.68726158680022
 20
66.17540237574917
 30
0.0
 11
-82.68726158680022
 21
66.17540237574917
 31
0.0
  0
LINE
  5
1CF10
330
18
100
AcDbEntity
  8
0
100
AcDbLine
 10
-88.68726158680022
 20
66.17540237574917
 30
0.0
 11
-88.68726158680022
 21
67.05241902954161
 31
0.0
  0
LINE
  5
1CF11
330
18
100
AcDbEntity
  8
0
100
AcDbLine
 10
-77.68726158680022
 20
66.17540237574917
 30
0.0
 11
-74.6872615868009
 21
66.17540237574917
 31
0.0
  0
LINE
  5
1CF12
330
18
100
AcDbEntity
  8
0
100
AcDbLine
 10
-74.6872615868009
 20
67.05241902954161
 30
0.0
 11
-77.68726158680022
 21
67.05241902954161
 31
0.0
  0
LINE
  5
1CF13
330
18
100
AcDbEntity
  8
0
100
AcDbLine
 10
-77.68726158680022
 20
64.95241902954126
 30
0.0
 11
-79.68726158680022
 21
64.95241902954126
 31
0.0
  0
LINE
  5
1CF16
330
18
100
AcDbEntity
  8
0
100
AcDbLine
 10
-73.68726158680039
 20
66.55241902954165
 30
0.0
 11
-74.68726158680084
 21
66.55241902954165
 31
0.0
  0
LINE
  5
1CF17
330
18
100
AcDbEntity
  8
0
100
AcDbLine
 10
-73.68726158680044
 20
48.5524190295416
 30
0.0
 11
-74.6872615868009
 21
48.5524190295416
 31
0.0
  0
CIRCLE
  5
1D041
330
18
100
AcDbEntity
  8
細線
100
AcDbCircle
 10
-22.63411542544405
 20
284.9857954219828
 30
0.0
 40
2.0
  0
CIRCLE
  5
1D042
330
18
100
AcDbEntity
  8
細線
100
AcDbCircle
 10
-22.63411542544405
 20
284.9857954219828
 30
0.0
 40
2.5
  0
CIRCLE
  5
1D043
330
18
100
AcDbEntity
  8
細線
100
AcDbCircle
 10
-2.924970202012062
 20
250.6396856573136
 30
0.0
 40
2.0
  0
CIRCLE
  5
1D044
330
18
100
AcDbEntity
  8
細線
100
AcDbCircle
 10
-2.924970202012062
 20
250.6396856573136
 30
0.0
 40
2.5
  0
CIRCLE
  5
1D045
330
18
100
AcDbEntity
  8
細線
100
AcDbCircle
 10
31.3167051306914
 20
230.7496546916574
 30
0.0
 40
2.0
  0
CIRCLE
  5
1D046
330
18
100
AcDbEntity
  8
細線
100
AcDbCircle
 10
31.3167051306914
 20
230.7496546916574
 30
0.0
 40
2.5
  0
CIRCLE
  5
1D047
330
18
100
AcDbEntity
  8
細線
100
AcDbCircle
 10
70.9158813197797
 20
230.6452202596915
 30
0.0
 40
2.0
  0
CIRCLE
  5
1D048
330
18
100
AcDbEntity
  8
細線
100
AcDbCircle
 10
70.9158813197797
 20
230.6452202596915
 30
0.0
 40
2.5
  0
CIRCLE
  5
1D049
330
18
100
AcDbEntity
  8
細線
100
AcDbCircle
 10
105.2619910844489
 20
250.3543654831235
 30
0.0
 40
2.0
  0
CIRCLE
  5
1D04A
330
18
100
AcDbEntity
  8
細線
100
AcDbCircle
 10
105.2619910844489
 20
250.3543654831235
 30
0.0
 40
2.5
  0
CIRCLE
  5
1D04B
330
18
100
AcDbEntity
  8
細線
100
AcDbCircle
 10
125.1520220501052
 20
284.5960408158271
 30
0.0
 40
2.0
  0
CIRCLE
  5
1D04C
330
18
100
AcDbEntity
  8
細線
100
AcDbCircle
 10
125.1520220501052
 20
284.5960408158271
 30
0.0
 40
2.5
  0
CIRCLE
  5
1D04D
330
18
100
AcDbEntity
  8
細線
100
AcDbCircle
 10
125.2564564820709
 20
324.1952170049153
 30
0.0
 40
2.0
  0
CIRCLE
  5
1D04E
330
18
100
AcDbEntity
  8
細線
100
AcDbCircle
 10
125.2564564820709
 20
324.1952170049153
 30
0.0
 40
2.5
  0
CIRCLE
  5
1D04F
330
18
100
AcDbEntity
  8
細線
100
AcDbCircle
 10
105.547311258639
 20
358.5413267695845
 30
0.0
 40
2.0
  0
CIRCLE
  5
1D050
330
18
100
AcDbEntity
  8
細線
100
AcDbCircle
 10
105.547311258639
 20
358.5413267695845
 30
0.0
 40
2.5
  0
CIRCLE
  5
1D051
330
18
100
AcDbEntity
  8
細線
100
AcDbCircle
 10
71.30563592593559
 20
378.4313577352408
 30
0.0
 40
2.0
  0
CIRCLE
  5
1D052
330
18
100
AcDbEntity
  8
細線
100
AcDbCircle
 10
71.30563592593559
 20
378.4313577352408
 30
0.0
 40
2.5
  0
CIRCLE
  5
1D053
330
18
100
AcDbEntity
  8
細線
100
AcDbCircle
 10
31.70645973684722
 20
378.5357921672066
 30
0.0
 40
2.0
  0
CIRCLE
  5
1D054
330
18
100
AcDbEntity
  8
細線
100
AcDbCircle
 10
31.70645973684722
 20
378.5357921672066
 30
0.0
 40
2.5
  0
CIRCLE
  5
1D055
330
18
100
AcDbEntity
  8
細線
100
AcDbCircle
 10
-2.63965002782197
 20
358.8266469437746
 30
0.0
 40
2.0
  0
CIRCLE
  5
1D056
330
18
100
AcDbEntity
  8
細線
100
AcDbCircle
 10
-2.63965002782197
 20
358.8266469437746
 30
0.0
 40
2.5
  0
LINE
  5
1D0D7
330
18
100
AcDbEntity
  8
破線
100
AcDbLine
 10
121.3111705283134
 20
47.55146087766613
 30
0.0
 11
121.3111705283134
 21
49.05146087766613
 31
0.0
  0
LINE
  5
1D0D8
330
18
100
AcDbEntity
  8
破線
100
AcDbLine
 10
121.3111705283134
 20
49.05146087766613
 30
0.0
 11
51.31117052831314
 21
49.05146087766617
 31
0.0
  0
LINE
  5
1D0D9
330
18
100
AcDbEntity
  8
破線
100
AcDbLine
 10
-18.68882947168759
 20
47.55146087766844
 30
0.0
 11
-18.68882947168754
 21
49.05146087766842
 31
0.0
  0
LINE
  5
1D0DA
330
18
100
AcDbEntity
  8
破線
100
AcDbLine
 10
-18.68882947168754
 20
49.05146087766842
 30
0.0
 11
51.31117052831275
 21
49.05146087766617
 31
0.0
  0
LINE
  5
1D263
330
18
100
AcDbEntity
  8
0
100
AcDbLine
 10
-158.533244391426
 20
377.8638618599676
 30
0.0
 11
-107.0117164353681
 21
377.8638618599676
 31
0.0
  0
CIRCLE
  5
1D294
102
{ACAD_REACTORS
330
1D29C
102
}
330
18
100
AcDbEntity
  8
細線
100
AcDbCircle
 10
360.3263800166993
 20
369.8527992414123
 30
0.0
 40
3.5
  0
CIRCLE
  5
1D295
102
{ACAD_REACTORS
330
1D29C
102
}
330
18
100
AcDbEntity
  8
細線
100
AcDbCircle
 10
360.3263800166993
 20
369.8527992414123
 30
0.0
 40
0.8299999999999998
  0
ARC
  5
1D296
102
{ACAD_REACTORS
330
1D29C
102
}
330
18
100
AcDbEntity
  8
細線
100
AcDbCircle
 10
360.8663800166995
 20
370.7881066774993
 30
0.0
 40
0.5
100
AcDbArc
 50
192.3463876628258
 51
287.6536123371792
  0
ARC
  5
1D297
102
{ACAD_REACTORS
330
1D29C
102
}
330
18
100
AcDbEntity
  8
細線
100
AcDbCircle
 10
360.8663800166993
 20
368.917491805325
 30
0.0
 40
0.5
100
AcDbArc
 50
72.34638766281459
 51
167.6536123371778
  0
ARC
  5
1D298
102
{ACAD_REACTORS
330
1D29C
102
}
330
18
100
AcDbEntity
  8
細線
100
AcDbCircle
 10
359.7863800166992
 20
370.7881066774993
 30
0.0
 40
0.5
100
AcDbArc
 50
252.3463876628146
 51
347.6536123371776
  0
ARC
  5
1D299
102
{ACAD_REACTORS
330
1D29C
102
}
330
18
100
AcDbEntity
  8
細線
100
AcDbCircle
 10
359.7863800166995
 20
368.917491805325
 30
0.0
 40
0.5
100
AcDbArc
 50
12.34638766282602
 51
107.6536123371794
  0
ARC
  5
1D29A
102
{ACAD_REACTORS
330
1D29C
102
}
330
18
100
AcDbEntity
  8
細線
100
AcDbCircle
 10
359.2463800166995
 20
369.8527992414121
 30
0.0
 40
0.5
100
AcDbArc
 50
312.3463876628231
 51
47.65361233717853
  0
ARC
  5
1D29B
102
{ACAD_REACTORS
330
1D29C
102
}
330
18
100
AcDbEntity
  8
細線
100
AcDbCircle
 10
361.4063800166995
 20
369.8527992414121
 30
0.0
 40
0.5
100
AcDbArc
 50
132.346387662823
 51
227.6536123371784
  0
CIRCLE
  5
1D29D
102
{ACAD_REACTORS
330
1D2A5
102
}
330
18
100
AcDbEntity
  8
細線
100
AcDbCircle
 10
360.3320418232581
 20
239.8527994879976
 30
0.0
 40
3.5
  0
CIRCLE
  5
1D29E
102
{ACAD_REACTORS
330
1D2A5
102
}
330
18
100
AcDbEntity
  8
細線
100
AcDbCircle
 10
360.3320418232581
 20
239.8527994879976
 30
0.0
 40
0.8299999999999998
  0
ARC
  5
1D29F
102
{ACAD_REACTORS
330
1D2A5
102
}
330
18
100
AcDbEntity
  8
細線
100
AcDbCircle
 10
360.8720418232582
 20
240.7881069240846
 30
0.0
 40
0.5
100
AcDbArc
 50
192.3463876628258
 51
287.6536123371792
  0
ARC
  5
1D2A0
102
{ACAD_REACTORS
330
1D2A5
102
}
330
18
100
AcDbEntity
  8
細線
100
AcDbCircle
 10
360.8720418232579
 20
238.9174920519103
 30
0.0
 40
0.5
100
AcDbArc
 50
72.34638766281459
 51
167.6536123371778
  0
ARC
  5
1D2A1
102
{ACAD_REACTORS
330
1D2A5
102
}
330
18
100
AcDbEntity
  8
細線
100
AcDbCircle
 10
359.7920418232579
 20
240.7881069240848
 30
0.0
 40
0.5
100
AcDbArc
 50
252.3463876628146
 51
347.6536123371776
  0
ARC
  5
1D2A2
102
{ACAD_REACTORS
330
1D2A5
102
}
330
18
100
AcDbEntity
  8
細線
100
AcDbCircle
 10
359.7920418232582
 20
238.9174920519105
 30
0.0
 40
0.5
100
AcDbArc
 50
12.34638766282602
 51
107.6536123371794
  0
ARC
  5
1D2A3
102
{ACAD_REACTORS
330
1D2A5
102
}
330
18
100
AcDbEntity
  8
細線
100
AcDbCircle
 10
359.2520418232581
 20
239.8527994879974
 30
0.0
 40
0.5
100
AcDbArc
 50
312.3463876628231
 51
47.65361233717853
  0
ARC
  5
1D2A4
102
{ACAD_REACTORS
330
1D2A5
102
}
330
18
100
AcDbEntity
  8
細線
100
AcDbCircle
 10
361.4120418232582
 20
239.8527994879974
 30
0.0
 40
0.5
100
AcDbArc
 50
132.346387662823
 51
227.6536123371784
  0
CIRCLE
  5
1D2A6
102
{ACAD_REACTORS
330
1D2AE
102
}
330
18
100
AcDbEntity
  8
細線
100
AcDbCircle
 10
295.3320418232578
 20
304.8527994879973
 30
0.0
 40
3.5
  0
CIRCLE
  5
1D2A7
102
{ACAD_REACTORS
330
1D2AE
102
}
330
18
100
AcDbEntity
  8
細線
100
AcDbCircle
 10
295.3320418232578
 20
304.8527994879973
 30
0.0
 40
0.8299999999999998
  0
ARC
  5
1D2A8
102
{ACAD_REACTORS
330
1D2AE
102
}
330
18
100
AcDbEntity
  8
細線
100
AcDbCircle
 10
295.872041823258
 20
305.7881069240845
 30
0.0
 40
0.5
100
AcDbArc
 50
192.3463876628258
 51
287.6536123371792
  0
ARC
  5
1D2A9
102
{ACAD_REACTORS
330
1D2AE
102
}
330
18
100
AcDbEntity
  8
細線
100
AcDbCircle
 10
295.8720418232577
 20
303.9174920519101
 30
0.0
 40
0.5
100
AcDbArc
 50
72.34638766281459
 51
167.6536123371778
  0
ARC
  5
1D2AA
102
{ACAD_REACTORS
330
1D2AE
102
}
330
18
100
AcDbEntity
  8
細線
100
AcDbCircle
 10
294.7920418232578
 20
305.7881069240845
 30
0.0
 40
0.5
100
AcDbArc
 50
252.3463876628146
 51
347.6536123371776
  0
ARC
  5
1D2AB
102
{ACAD_REACTORS
330
1D2AE
102
}
330
18
100
AcDbEntity
  8
細線
100
AcDbCircle
 10
294.792041823258
 20
303.9174920519101
 30
0.0
 40
0.5
100
AcDbArc
 50
12.34638766282602
 51
107.6536123371794
  0
ARC
  5
1D2AC
102
{ACAD_REACTORS
330
1D2AE
102
}
330
18
100
AcDbEntity
  8
細線
100
AcDbCircle
 10
294.2520418232581
 20
304.8527994879971
 30
0.0
 40
0.5
100
AcDbArc
 50
312.3463876628231
 51
47.65361233717853
  0
ARC
  5
1D2AD
102
{ACAD_REACTORS
330
1D2AE
102
}
330
18
100
AcDbEntity
  8
細線
100
AcDbCircle
 10
296.412041823258
 20
304.8527994879971
 30
0.0
 40
0.5
100
AcDbArc
 50
132.346387662823
 51
227.6536123371784
  0
CIRCLE
  5
1D2AF
102
{ACAD_REACTORS
330
1D2B7
102
}
330
18
100
AcDbEntity
  8
細線
100
AcDbCircle
 10
425.3320418232578
 20
304.8527994879973
 30
0.0
 40
3.5
  0
CIRCLE
  5
1D2B0
102
{ACAD_REACTORS
330
1D2B7
102
}
330
18
100
AcDbEntity
  8
細線
100
AcDbCircle
 10
425.3320418232578
 20
304.8527994879973
 30
0.0
 40
0.8299999999999998
  0
ARC
  5
1D2B1
102
{ACAD_REACTORS
330
1D2B7
102
}
330
18
100
AcDbEntity
  8
細線
100
AcDbCircle
 10
425.8720418232581
 20
305.7881069240846
 30
0.0
 40
0.5
100
AcDbArc
 50
192.3463876628258
 51
287.6536123371792
  0
ARC
  5
1D2B2
102
{ACAD_REACTORS
330
1D2B7
102
}
330
18
100
AcDbEntity
  8
細線
100
AcDbCircle
 10
425.8720418232579
 20
303.9174920519103
 30
0.0
 40
0.5
100
AcDbArc
 50
72.34638766281459
 51
167.6536123371778
  0
ARC
  5
1D2B3
102
{ACAD_REACTORS
330
1D2B7
102
}
330
18
100
AcDbEntity
  8
細線
100
AcDbCircle
 10
424.7920418232579
 20
305.7881069240846
 30
0.0
 40
0.5
100
AcDbArc
 50
252.3463876628146
 51
347.6536123371776
  0
ARC
  5
1D2B4
102
{ACAD_REACTORS
330
1D2B7
102
}
330
18
100
AcDbEntity
  8
細線
100
AcDbCircle
 10
424.7920418232579
 20
303.9174920519103
 30
0.0
 40
0.5
100
AcDbArc
 50
12.34638766282602
 51
107.6536123371794
  0
ARC
  5
1D2B5
102
{ACAD_REACTORS
330
1D2B7
102
}
330
18
100
AcDbEntity
  8
細線
100
AcDbCircle
 10
424.2520418232581
 20
304.8527994879973
 30
0.0
 40
0.5
100
AcDbArc
 50
312.3463876628231
 51
47.65361233717853
  0
ARC
  5
1D2B6
102
{ACAD_REACTORS
330
1D2B7
102
}
330
18
100
AcDbEntity
  8
細線
100
AcDbCircle
 10
426.4120418232581
 20
304.8527994879973
 30
0.0
 40
0.5
100
AcDbArc
 50
132.346387662823
 51
227.6536123371784
  0
LINE
  5
1D3B2
330
18
100
AcDbEntity
  8
中心線
100
AcDbLine
 10
-69.23962551607065
 20
379.8527994879977
 30
0.0
 11
-101.1106268584029
 21
379.8527994879977
 31
0.0
  0
LINE
  5
1D3B4
330
18
100
AcDbEntity
  8
中心線
100
AcDbLine
 10
-69.41002666307622
 20
354.8527994879977
 30
0.0
 11
-102.0928131380623
 21
354.8527994879977
 31
0.0
  0
LINE
  5
1D3BA
102
{ACAD_REACTORS
330
1D3DD
102
}
330
18
100
AcDbEntity
  8
0
100
AcDbLine
 10
-249.1376849701969
 20
369.7277934349543
 30
0.0
 11
-249.1376849701969
 21
373.1777934349547
 31
0.0
  0
LINE
  5
1D3BB
102
{ACAD_REACTORS
330
1D3DD
102
}
330
18
100
AcDbEntity
  8
0
100
AcDbLine
 10
-225.4376398687218
 20
359.5527994879974
 30
0.0
 11
-225.4376398687209
 21
375.152799487998
 31
0.0
  0
LINE
  5
1D3BC
102
{ACAD_REACTORS
330
1D3DD
102
}
330
18
100
AcDbEntity
  8
0
100
AcDbLine
 10
-239.6376849701964
 20
360.5527934349552
 30
0.0
 11
-239.6376849701964
 21
374.1527934349546
 31
0.0
  0
LINE
  5
1D3BD
102
{ACAD_REACTORS
330
1D3DD
102
}
330
18
100
AcDbEntity
  8
0
100
AcDbLine
 10
-226.5376398687215
 20
360.5527934349552
 30
0.0
 11
-239.6376849701964
 21
360.5527934349552
 31
0.0
  0
LINE
  5
1D3BE
102
{ACAD_REACTORS
330
1D3DD
102
}
330
18
100
AcDbEntity
  8
0
100
AcDbLine
 10
-249.1376849701969
 20
361.5277934349546
 30
0.0
 11
-239.6376849701964
 21
361.5277934349546
 31
0.0
  0
LINE
  5
1D3BF
102
{ACAD_REACTORS
330
1D3DD
102
}
330
18
100
AcDbEntity
  8
0
100
AcDbLine
 10
-249.1376849701969
 20
364.9777934349549
 30
0.0
 11
-239.6376849701964
 21
364.9777934349549
 31
0.0
  0
LINE
  5
1D3C0
102
{ACAD_REACTORS
330
1D3DD
102
}
330
18
100
AcDbEntity
  8
0
100
AcDbLine
 10
-249.1376849701969
 20
365.6277934349545
 30
0.0
 11
-239.6376849701964
 21
365.6277934349549
 31
0.0
  0
LINE
  5
1D3C1
102
{ACAD_REACTORS
330
1D3DD
102
}
330
18
100
AcDbEntity
  8
0
100
AcDbLine
 10
-249.1376849701969
 20
369.0777934349548
 30
0.0
 11
-239.6376849701964
 21
369.0777934349548
 31
0.0
  0
LINE
  5
1D3C2
102
{ACAD_REACTORS
330
1D3DD
102
}
330
18
100
AcDbEntity
  8
0
100
AcDbLine
 10
-249.1376849701969
 20
369.7277934349543
 30
0.0
 11
-239.6376849701964
 21
369.7277934349543
 31
0.0
  0
LINE
  5
1D3C3
102
{ACAD_REACTORS
330
1D3DD
102
}
330
18
100
AcDbEntity
  8
0
100
AcDbLine
 10
-249.1376849701964
 20
361.5277934349546
 30
0.0
 11
-249.1376849701969
 21
364.9777934349553
 31
0.0
  0
LINE
  5
1D3C4
102
{ACAD_REACTORS
330
1D3DD
102
}
330
18
100
AcDbEntity
  8
0
100
AcDbLine
 10
-249.1376849701969
 20
365.6277934349545
 30
0.0
 11
-249.1376849701969
 21
369.0777934349548
 31
0.0
  0
LINE
  5
1D3C5
102
{ACAD_REACTORS
330
1D3DD
102
}
330
18
100
AcDbEntity
  8
0
100
AcDbLine
 10
-226.537639868721
 20
359.5527994879974
 30
0.0
 11
-226.5376398687215
 21
360.5527934349552
 31
0.0
  0
LINE
  5
1D3C6
102
{ACAD_REACTORS
330
1D3DD
102
}
330
18
100
AcDbEntity
  8
0
100
AcDbLine
 10
-225.4376398687209
 20
359.5527994879974
 30
0.0
 11
-226.5376398687203
 21
359.5527994879974
 31
0.0
  0
LINE
  5
1D3C7
102
{ACAD_REACTORS
330
1D3DD
102
}
330
18
100
AcDbEntity
  8
0
100
AcDbLine
 10
-244.3976849701966
 20
377.5527934349547
 30
0.0
 11
-233.1291135416249
 21
377.5527934349552
 31
0.0
  0
LINE
  5
1D3C8
102
{ACAD_REACTORS
330
1D3DD
102
}
330
18
100
AcDbEntity
  8
0
100
AcDbLine
 10
-242.5228278273393
 20
377.970507720669
 30
0.0
 11
-232.1576849701969
 21
377.970507720669
 31
0.0
  0
LINE
  5
1D3C9
102
{ACAD_REACTORS
330
1D3DD
102
}
330
18
100
AcDbEntity
  8
0
100
AcDbLine
 10
-226.5376398687203
 20
374.1527934349546
 30
0.0
 11
-239.6376849701964
 21
374.1527934349546
 31
0.0
  0
LINE
  5
1D3CA
102
{ACAD_REACTORS
330
1D3DD
102
}
330
18
100
AcDbEntity
  8
0
100
AcDbLine
 10
-237.6237426564919
 20
375.6175514153237
 30
0.0
 11
-232.1576849701959
 21
376.5813648635262
 31
0.0
  0
LINE
  5
1D3CB
102
{ACAD_REACTORS
330
1D3DD
102
}
330
18
100
AcDbEntity
  8
0
100
AcDbLine
 10
-249.1376849701969
 20
373.1777934349547
 30
0.0
 11
-239.6376849701964
 21
373.1777934349547
 31
0.0
  0
LINE
  5
1D3CC
102
{ACAD_REACTORS
330
1D3DD
102
}
330
18
100
AcDbEntity
  8
0
100
AcDbLine
 10
-242.9405421130535
 20
377.5527934349547
 30
0.0
 11
-242.5228278273393
 21
377.970507720669
 31
0.0
  0
LINE
  5
1D3CD
102
{ACAD_REACTORS
330
1D3DD
102
}
330
18
100
AcDbEntity
  8
0
100
AcDbLine
 10
-245.3691135416252
 20
375.318507720669
 30
0.0
 11
-245.3691135416252
 21
376.5813648635262
 31
0.0
  0
LINE
  5
1D3CE
102
{ACAD_REACTORS
330
1D3DD
102
}
330
18
100
AcDbEntity
  8
0
100
AcDbLine
 10
-245.3691135416252
 20
375.318507720669
 30
0.0
 11
-244.3976849701966
 21
374.3470791492403
 31
0.0
  0
LINE
  5
1D3CF
102
{ACAD_REACTORS
330
1D3DD
102
}
330
18
100
AcDbEntity
  8
0
100
AcDbLine
 10
-244.3976849701966
 20
374.3470791492403
 30
0.0
 11
-242.940542113054
 21
374.3470791492403
 31
0.0
  0
LINE
  5
1D3D0
102
{ACAD_REACTORS
330
1D3DD
102
}
330
18
100
AcDbEntity
  8
0
100
AcDbLine
 10
-242.9405421130535
 20
374.3470791492403
 30
0.0
 11
-243.0376849701969
 21
375.4156505778118
 31
0.0
  0
LINE
  5
1D3D1
102
{ACAD_REACTORS
330
1D3DD
102
}
330
18
100
AcDbEntity
  8
0
100
AcDbLine
 10
-244.3976849701966
 20
377.5527934349547
 30
0.0
 11
-245.3691135416252
 21
376.5813648635262
 31
0.0
  0
LINE
  5
1D3D2
102
{ACAD_REACTORS
330
1D3DD
102
}
330
18
100
AcDbEntity
  8
0
100
AcDbLine
 10
-242.9405421130535
 20
376.5813648635262
 30
0.0
 11
-242.9405421130535
 21
377.5527934349547
 31
0.0
  0
LINE
  5
1D3D3
102
{ACAD_REACTORS
330
1D3DD
102
}
330
18
100
AcDbEntity
  8
0
100
AcDbLine
 10
-243.0376849701969
 20
375.4156505778118
 30
0.0
 11
-239.6376849701964
 21
375.4156505778118
 31
0.0
  0
LINE
  5
1D3D4
102
{ACAD_REACTORS
330
1D3DD
102
}
330
18
100
AcDbEntity
  8
0
100
AcDbLine
 10
-242.9405421130535
 20
376.5813648635262
 30
0.0
 11
-239.6376849701964
 21
376.5813648635262
 31
0.0
  0
LINE
  5
1D3D5
102
{ACAD_REACTORS
330
1D3DD
102
}
330
18
100
AcDbEntity
  8
0
100
AcDbLine
 10
-239.6376849701964
 20
374.1527934349546
 30
0.0
 11
-239.6376849701964
 21
377.970507720669
 31
0.0
  0
ARC
  5
1D3D6
102
{ACAD_REACTORS
330
1D3DD
102
}
330
18
100
AcDbEntity
  8
0
100
AcDbCircle
 10
-237.5393992559109
 20
375.1392162210036
 30
0.0
 40
0.4857142857142857
100
AcDbArc
 50
100.0000000000035
 51
180.000000000013
  0
ARC
  5
1D3D7
102
{ACAD_REACTORS
330
1D3DD
102
}
330
18
100
AcDbEntity
  8
0
100
AcDbCircle
 10
-237.5393992559106
 20
374.6385077206687
 30
0.0
 40
0.4857142857142857
100
AcDbArc
 50
180.000000000013
 51
270.0
  0
LINE
  5
1D3D8
102
{ACAD_REACTORS
330
1D3DD
102
}
330
18
100
AcDbEntity
  8
0
100
AcDbLine
 10
-238.0251135416246
 20
374.6385077206687
 30
0.0
 11
-238.025113541625
 21
375.1392162210031
 31
0.0
  0
LINE
  5
1D3D9
102
{ACAD_REACTORS
330
1D3DD
102
}
330
18
100
AcDbEntity
  8
0
100
AcDbLine
 10
-233.1291135416249
 20
377.5527934349552
 30
0.0
 11
-233.1291135416249
 21
377.970507720669
 31
0.0
  0
LINE
  5
1D3DA
102
{ACAD_REACTORS
330
1D3DD
102
}
330
18
100
AcDbEntity
  8
0
100
AcDbLine
 10
-232.1576849701959
 20
376.5813648635262
 30
0.0
 11
-232.1576849701964
 21
377.970507720669
 31
0.0
  0
LINE
  5
1D3DB
102
{ACAD_REACTORS
330
1D3DD
102
}
330
18
100
AcDbEntity
  8
0
100
AcDbLine
 10
-226.5376398687203
 20
374.1527934349546
 30
0.0
 11
-226.5376398687203
 21
375.152799487998
 31
0.0
  0
LINE
  5
1D3DC
102
{ACAD_REACTORS
330
1D3DD
102
}
330
18
100
AcDbEntity
  8
0
100
AcDbLine
 10
-225.4376398687209
 20
375.152799487998
 30
0.0
 11
-226.5376398687203
 21
375.152799487998
 31
0.0
  0
LINE
  5
1D3DF
102
{ACAD_REACTORS
330
1D3FF
102
}
330
18
100
AcDbEntity
  8
0
100
AcDbLine
 10
-225.4376398687214
 20
223.8412144877317
 30
0.0
 11
-225.437639868721
 21
235.8412144877325
 31
0.0
  0
LINE
  5
1D3E0
102
{ACAD_REACTORS
330
1D3FF
102
}
330
18
100
AcDbEntity
  8
0
100
AcDbLine
 10
-239.6376849701967
 20
224.8412084346893
 30
0.0
 11
-239.6376849701967
 21
234.8412084346894
 31
0.0
  0
LINE
  5
1D3E1
102
{ACAD_REACTORS
330
1D3FF
102
}
330
18
100
AcDbEntity
  8
0
100
AcDbLine
 10
-249.1376849701971
 20
230.4162084346891
 30
0.0
 11
-249.1376849701971
 21
233.8662084346895
 31
0.0
  0
LINE
  5
1D3E2
102
{ACAD_REACTORS
330
1D3FF
102
}
330
18
100
AcDbEntity
  8
0
100
AcDbLine
 10
-249.1376849701971
 20
230.4162084346891
 30
0.0
 11
-239.6376849701967
 21
230.4162084346891
 31
0.0
  0
LINE
  5
1D3E3
102
{ACAD_REACTORS
330
1D3FF
102
}
330
18
100
AcDbEntity
  8
0
100
AcDbLine
 10
-249.1376849701971
 20
229.7662084346896
 30
0.0
 11
-239.6376849701967
 21
229.7662084346896
 31
0.0
  0
LINE
  5
1D3E4
102
{ACAD_REACTORS
330
1D3FF
102
}
330
18
100
AcDbEntity
  8
0
100
AcDbLine
 10
-249.1376849701971
 20
226.3162084346893
 30
0.0
 11
-239.6376849701967
 21
226.3162084346896
 31
0.0
  0
LINE
  5
1D3E5
102
{ACAD_REACTORS
330
1D3FF
102
}
330
18
100
AcDbEntity
  8
0
100
AcDbLine
 10
-249.1376849701971
 20
226.3162084346893
 30
0.0
 11
-249.1376849701971
 21
229.7662084346896
 31
0.0
  0
LINE
  5
1D3E6
102
{ACAD_REACTORS
330
1D3FF
102
}
330
18
100
AcDbEntity
  8
0
100
AcDbLine
 10
-226.5376398687205
 20
224.8412084346893
 30
0.0
 11
-239.6376849701967
 21
224.8412084346893
 31
0.0
  0
LINE
  5
1D3E7
102
{ACAD_REACTORS
330
1D3FF
102
}
330
18
100
AcDbEntity
  8
0
100
AcDbLine
 10
-226.5376398687215
 20
223.8412144877317
 30
0.0
 11
-226.5376398687219
 21
224.8412084346893
 31
0.0
  0
LINE
  5
1D3E8
102
{ACAD_REACTORS
330
1D3FF
102
}
330
18
100
AcDbEntity
  8
0
100
AcDbLine
 10
-225.4376398687213
 20
223.8412144877317
 30
0.0
 11
-226.5376398687208
 21
223.8412144877317
 31
0.0
  0
LINE
  5
1D3E9
102
{ACAD_REACTORS
330
1D3FF
102
}
330
18
100
AcDbEntity
  8
0
100
AcDbLine
 10
-242.9405421130538
 20
237.2697798632608
 30
0.0
 11
-239.6376849701967
 21
237.2697798632608
 31
0.0
  0
LINE
  5
1D3EA
102
{ACAD_REACTORS
330
1D3FF
102
}
330
18
100
AcDbEntity
  8
0
100
AcDbLine
 10
-243.0376849701971
 20
236.1040655775465
 30
0.0
 11
-239.6376849701967
 21
236.1040655775465
 31
0.0
  0
LINE
  5
1D3EB
102
{ACAD_REACTORS
330
1D3FF
102
}
330
18
100
AcDbEntity
  8
0
100
AcDbLine
 10
-249.1376849701971
 20
233.8662084346895
 30
0.0
 11
-239.6376849701967
 21
233.8662084346895
 31
0.0
  0
LINE
  5
1D3EC
102
{ACAD_REACTORS
330
1D3FF
102
}
330
18
100
AcDbEntity
  8
0
100
AcDbLine
 10
-242.5228278273396
 20
238.6589227204035
 30
0.0
 11
-232.1576849701969
 21
238.6589227204035
 31
0.0
  0
LINE
  5
1D3ED
102
{ACAD_REACTORS
330
1D3FF
102
}
330
18
100
AcDbEntity
  8
0
100
AcDbLine
 10
-244.3976849701968
 20
238.2412084346895
 30
0.0
 11
-233.129113541625
 21
238.2412084346899
 31
0.0
  0
LINE
  5
1D3EE
102
{ACAD_REACTORS
330
1D3FF
102
}
330
18
100
AcDbEntity
  8
0
100
AcDbLine
 10
-242.9405421130538
 20
237.2697798632608
 30
0.0
 11
-242.9405421130538
 21
238.2412084346895
 31
0.0
  0
LINE
  5
1D3EF
102
{ACAD_REACTORS
330
1D3FF
102
}
330
18
100
AcDbEntity
  8
0
100
AcDbLine
 10
-244.3976849701968
 20
238.2412084346895
 30
0.0
 11
-245.3691135416254
 21
237.2697798632608
 31
0.0
  0
LINE
  5
1D3F0
102
{ACAD_REACTORS
330
1D3FF
102
}
330
18
100
AcDbEntity
  8
0
100
AcDbLine
 10
-242.9405421130538
 20
235.0354941489751
 30
0.0
 11
-243.0376849701971
 21
236.1040655775465
 31
0.0
  0
LINE
  5
1D3F1
102
{ACAD_REACTORS
330
1D3FF
102
}
330
18
100
AcDbEntity
  8
0
100
AcDbLine
 10
-244.3976849701968
 20
235.0354941489751
 30
0.0
 11
-242.9405421130542
 21
235.0354941489751
 31
0.0
  0
LINE
  5
1D3F2
102
{ACAD_REACTORS
330
1D3FF
102
}
330
18
100
AcDbEntity
  8
0
100
AcDbLine
 10
-245.3691135416254
 20
236.0069227204035
 30
0.0
 11
-244.3976849701968
 21
235.0354941489751
 31
0.0
  0
LINE
  5
1D3F3
102
{ACAD_REACTORS
330
1D3FF
102
}
330
18
100
AcDbEntity
  8
0
100
AcDbLine
 10
-245.3691135416254
 20
236.0069227204035
 30
0.0
 11
-245.3691135416254
 21
237.2697798632608
 31
0.0
  0
LINE
  5
1D3F4
102
{ACAD_REACTORS
330
1D3FF
102
}
330
18
100
AcDbEntity
  8
0
100
AcDbLine
 10
-242.9405421130538
 20
238.2412084346895
 30
0.0
 11
-242.5228278273396
 21
238.6589227204035
 31
0.0
  0
LINE
  5
1D3F5
102
{ACAD_REACTORS
330
1D3FF
102
}
330
18
100
AcDbEntity
  8
0
100
AcDbLine
 10
-226.5376398687205
 20
234.8412084346894
 30
0.0
 11
-239.6376849701967
 21
234.8412084346894
 31
0.0
  0
LINE
  5
1D3F6
102
{ACAD_REACTORS
330
1D3FF
102
}
330
18
100
AcDbEntity
  8
0
100
AcDbLine
 10
-233.129113541625
 20
238.2412084346899
 30
0.0
 11
-233.129113541625
 21
238.6589227204035
 31
0.0
  0
LINE
  5
1D3F7
102
{ACAD_REACTORS
330
1D3FF
102
}
330
18
100
AcDbEntity
  8
0
100
AcDbLine
 10
-232.1576849701959
 20
237.2697798632608
 30
0.0
 11
-232.1576849701965
 21
238.6589227204035
 31
0.0
  0
LINE
  5
1D3F8
102
{ACAD_REACTORS
330
1D3FF
102
}
330
18
100
AcDbEntity
  8
0
100
AcDbLine
 10
-238.0251135416249
 20
235.3269227204034
 30
0.0
 11
-238.0251135416254
 21
235.8276312207379
 31
0.0
  0
ARC
  5
1D3F9
102
{ACAD_REACTORS
330
1D3FF
102
}
330
18
100
AcDbEntity
  8
0
100
AcDbCircle
 10
-237.5393992559108
 20
235.3269227204034
 30
0.0
 40
0.4857142857142857
100
AcDbArc
 50
180.000000000013
 51
270.0
  0
ARC
  5
1D3FA
102
{ACAD_REACTORS
330
1D3FF
102
}
330
18
100
AcDbEntity
  8
0
100
AcDbCircle
 10
-237.5393992559113
 20
235.8276312207383
 30
0.0
 40
0.4857142857142857
100
AcDbArc
 50
100.0000000000035
 51
180.000000000013
  0
LINE
  5
1D3FB
102
{ACAD_REACTORS
330
1D3FF
102
}
330
18
100
AcDbEntity
  8
0
100
AcDbLine
 10
-239.6376849701967
 20
234.8412084346894
 30
0.0
 11
-239.6376849701967
 21
238.6589227204035
 31
0.0
  0
LINE
  5
1D3FC
102
{ACAD_REACTORS
330
1D3FF
102
}
330
18
100
AcDbEntity
  8
0
100
AcDbLine
 10
-237.6237426564923
 20
236.3059664150584
 30
0.0
 11
-232.1576849701959
 21
237.2697798632608
 31
0.0
  0
LINE
  5
1D3FD
102
{ACAD_REACTORS
330
1D3FF
102
}
330
18
100
AcDbEntity
  8
0
100
AcDbLine
 10
-226.5376398687205
 20
234.8412084346894
 30
0.0
 11
-226.5376398687205
 21
235.8412144877325
 31
0.0
  0
LINE
  5
1D3FE
102
{ACAD_REACTORS
330
1D3FF
102
}
330
18
100
AcDbEntity
  8
0
100
AcDbLine
 10
-225.437639868721
 20
235.8412144877325
 30
0.0
 11
-226.5376398687205
 21
235.8412144877325
 31
0.0
  0
LINE
  5
1D401
102
{ACAD_REACTORS
330
1D40F
102
}
330
18
100
AcDbEntity
  8
0
100
AcDbLine
 10
-249.1376849701971
 20
57.4774129764989
 30
0.0
 11
-239.6376849701967
 21
57.4774129764989
 31
0.0
  0
LINE
  5
1D402
102
{ACAD_REACTORS
330
1D40F
102
}
330
18
100
AcDbEntity
  8
0
100
AcDbLine
 10
-249.1376849701971
 20
58.12741297649854
 30
0.0
 11
-239.6376849701967
 21
58.12741297649854
 31
0.0
  0
LINE
  5
1D403
102
{ACAD_REACTORS
330
1D40F
102
}
330
18
100
AcDbEntity
  8
0
100
AcDbLine
 10
-249.1376849701971
 20
61.57741297649881
 30
0.0
 11
-239.6376849701967
 21
61.57741297649881
 31
0.0
  0
LINE
  5
1D404
102
{ACAD_REACTORS
330
1D40F
102
}
330
18
100
AcDbEntity
  8
0
100
AcDbLine
 10
-249.1376849701971
 20
54.02741297649863
 30
0.0
 11
-239.6376849701967
 21
54.02741297649908
 31
0.0
  0
LINE
  5
1D405
102
{ACAD_REACTORS
330
1D40F
102
}
330
18
100
AcDbEntity
  8
0
100
AcDbLine
 10
-249.1376849701971
 20
54.02741297649863
 30
0.0
 11
-249.1376849701971
 21
57.4774129764989
 31
0.0
  0
LINE
  5
1D406
102
{ACAD_REACTORS
330
1D40F
102
}
330
18
100
AcDbEntity
  8
0
100
AcDbLine
 10
-249.1376849701971
 20
58.12741297649854
 30
0.0
 11
-249.1376849701971
 21
61.57741297649881
 31
0.0
  0
LINE
  5
1D407
102
{ACAD_REACTORS
330
1D40F
102
}
330
18
100
AcDbEntity
  8
0
100
AcDbLine
 10
-225.4376398687213
 20
51.55241902954113
 30
0.0
 11
-225.437639868721
 21
63.55241902954203
 31
0.0
  0
LINE
  5
1D408
102
{ACAD_REACTORS
330
1D40F
102
}
330
18
100
AcDbEntity
  8
0
100
AcDbLine
 10
-239.6376849701967
 20
52.55241297649873
 30
0.0
 11
-239.6376849701967
 21
62.55241297649873
 31
0.0
  0
LINE
  5
1D409
102
{ACAD_REACTORS
330
1D40F
102
}
330
18
100
AcDbEntity
  8
0
100
AcDbLine
 10
-226.5376398687204
 20
52.55241297649873
 30
0.0
 11
-239.6376849701967
 21
52.55241297649873
 31
0.0
  0
LINE
  5
1D40A
102
{ACAD_REACTORS
330
1D40F
102
}
330
18
100
AcDbEntity
  8
0
100
AcDbLine
 10
-226.5376398687215
 20
51.55241902954113
 30
0.0
 11
-226.5376398687219
 21
52.55241297649873
 31
0.0
  0
LINE
  5
1D40B
102
{ACAD_REACTORS
330
1D40F
102
}
330
18
100
AcDbEntity
  8
0
100
AcDbLine
 10
-225.4376398687213
 20
51.55241902954113
 30
0.0
 11
-226.5376398687208
 21
51.55241902954113
 31
0.0
  0
LINE
  5
1D40C
102
{ACAD_REACTORS
330
1D40F
102
}
330
18
100
AcDbEntity
  8
0
100
AcDbLine
 10
-226.5376398687204
 20
62.55241297649873
 30
0.0
 11
-239.6376849701967
 21
62.55241297649873
 31
0.0
  0
LINE
  5
1D40D
102
{ACAD_REACTORS
330
1D40F
102
}
330
18
100
AcDbEntity
  8
0
100
AcDbLine
 10
-226.5376398687204
 20
62.55241297649873
 30
0.0
 11
-226.5376398687204
 21
63.55241902954203
 31
0.0
  0
LINE
  5
1D40E
102
{ACAD_REACTORS
330
1D40F
102
}
330
18
100
AcDbEntity
  8
0
100
AcDbLine
 10
-225.437639868721
 20
63.55241902954203
 30
0.0
 11
-226.5376398687204
 21
63.55241902954203
 31
0.0
  0
LINE
  5
1D432
330
18
100
AcDbEntity
  8
0
100
AcDbLine
 10
-203.0376398687212
 20
368.644009533663
 30
0.0
 11
-225.4376398687213
 21
372.4284844195078
 31
0.0
  0
LINE
  5
1D433
330
18
100
AcDbEntity
  8
0
100
AcDbLine
 10
-225.4376398687213
 20
367.3527994880008
 30
0.0
 11
-203.0376398687212
 21
367.3527994880008
 31
0.0
  0
LINE
  5
1D434
330
18
100
AcDbEntity
  8
0
100
AcDbLine
 10
-203.0376398687212
 20
366.0615894423388
 30
0.0
 11
-225.4376398687213
 21
362.2771145564942
 31
0.0
  0
LINE
  5
1D435
330
18
100
AcDbEntity
  8
0
100
AcDbLine
 10
-177.5086429427985
 20
363.5149197379762
 30
0.0
 11
-164.3165179784767
 21
354.4972442473928
 31
0.0
  0
LINE
  5
1D436
330
18
100
AcDbEntity
  8
0
100
AcDbLine
 10
-177.507310984771
 20
367.7235321254975
 30
0.0
 11
-164.3201352810813
 21
358.6999528669583
 31
0.0
  0
LINE
  5
1D439
330
18
100
AcDbEntity
  8
0
100
AcDbLine
 10
-188.0376398687212
 20
369.4706855044576
 30
0.0
 11
-183.1544804217178
 21
369.4706855044575
 31
0.0
  0
LINE
  5
1D43A
330
18
100
AcDbEntity
  8
0
100
AcDbLine
 10
-188.0376398687212
 20
369.4706855044576
 30
0.0
 11
-183.1583466707421
 21
369.4706855044575
 31
0.0
  0
LINE
  5
1D43B
330
18
100
AcDbEntity
  8
0
100
AcDbLine
 10
-188.0376398687212
 20
365.2593644973709
 30
0.0
 11
-183.1518519296524
 21
365.2593644973709
 31
0.0
  0
LINE
  5
1D43C
330
18
100
AcDbEntity
  8
0
100
AcDbLine
 10
-203.0376398687212
 20
364.4127994880008
 30
0.0
 11
-188.0376398687212
 21
364.4127994880006
 31
0.0
  0
LINE
  5
1D43D
330
18
100
AcDbEntity
  8
0
100
AcDbLine
 10
-203.0376398687212
 20
370.2927994880008
 30
0.0
 11
-188.0376398687212
 21
370.2927994880008
 31
0.0
  0
LINE
  5
1D43E
330
18
100
AcDbEntity
  8
0
100
AcDbLine
 10
-203.0376398687212
 20
364.4127994880008
 30
0.0
 11
-203.0376398687212
 21
370.2927994880008
 31
0.0
  0
LINE
  5
1D43F
330
18
100
AcDbEntity
  8
0
100
AcDbLine
 10
-188.0376398687212
 20
364.4127994880008
 30
0.0
 11
-188.0376398687212
 21
370.2927994880008
 31
0.0
  0
ARC
  5
1D440
330
18
100
AcDbEntity
  8
0
100
AcDbCircle
 10
-183.1583466707419
 20
379.4706855044573
 30
0.0
 40
10.0
100
AcDbArc
 50
269.9999999999981
 51
304.423066929448
  0
ARC
  5
1D441
330
18
100
AcDbEntity
  8
0
100
AcDbCircle
 10
-183.1518519296528
 20
355.2593644973709
 30
0.0
 40
10.0
100
AcDbArc
 50
55.64485341677275
 51
89.99999999999836
  0
ARC
  5
1D442
330
18
100
AcDbEntity
  8
0
100
AcDbCircle
 10
-183.1544804217179
 20
359.4706855044575
 30
0.0
 40
10.0
100
AcDbArc
 50
55.61736231583875
 51
90.0
  0
LINE
  5
1D444
330
18
100
AcDbEntity
  8
0
100
AcDbLine
 10
-176.9821098719791
 20
367.3641531368167
 30
0.0
 11
-164.1772287437038
 21
376.1188870344442
 31
0.0
  0
LINE
  5
1D445
330
18
100
AcDbEntity
  8
0
100
AcDbLine
 10
-177.5053552380953
 20
371.2218257127998
 30
0.0
 11
-164.5317367751276
 21
380.1127216516245
 31
0.0
  0
ARC
  5
1D448
330
18
100
AcDbEntity
  8
0
100
AcDbCircle
 10
-158.878745342481
 20
371.8638618599669
 30
0.0
 40
10.0
100
AcDbArc
 50
90.00000000000062
 51
124.4230669294472
  0
ARC
  5
1D449
330
18
100
AcDbEntity
  8
0
100
AcDbCircle
 10
-158.533244391426
 20
367.8638618599676
 30
0.0
 40
10.0
100
AcDbArc
 50
90.0
 51
124.3605280011042
  0
ARC
  5
1D44A
330
18
100
AcDbEntity
  8
0
100
AcDbCircle
 10
-158.6729658441345
 20
366.9527994879982
 30
0.0
 40
10.0
100
AcDbArc
 50
235.6173623158388
 51
269.9999999999997
  0
ARC
  5
1D44B
330
18
100
AcDbEntity
  8
0
100
AcDbCircle
 10
-158.6733089916224
 20
362.7527994879981
 30
0.0
 40
10.0
100
AcDbArc
 50
235.6448534167729
 51
270.0
  0
LINE
  5
1D465
330
18
100
AcDbEntity
  8
0
100
AcDbLine
 10
-212.9999350687262
 20
56.58667632652975
 30
0.0
 11
-225.4434955908191
 21
55.02153430055673
 31
0.0
  0
LINE
  5
1D466
330
18
100
AcDbEntity
  8
0
100
AcDbLine
 10
-203.5467326261185
 20
55.37496389522268
 30
0.0
 11
-225.437639868721
 21
52.62154144420915
 31
0.0
  0
LINE
  5
1D467
330
18
100
AcDbEntity
  8
0
100
AcDbLine
 10
-211.4093647508488
 20
56.38661554446058
 30
0.0
 11
-225.4425196371362
 21
54.62153549116536
 31
0.0
  0
LINE
  5
1D468
330
18
100
AcDbEntity
  8
0
100
AcDbLine
 10
-203.5467326261185
 20
59.79899657852849
 30
0.0
 11
-225.437639868721
 21
62.55241902954202
 31
0.0
  0
LINE
  5
1D469
330
18
100
AcDbEntity
  8
0
100
AcDbLine
 10
-203.5525883482165
 20
57.39900372218102
 30
0.0
 11
-225.4434955908191
 21
60.15242617319444
 31
0.0
  0
LINE
  5
1D46A
330
18
100
AcDbEntity
  8
0
100
AcDbLine
 10
-203.5516123945334
 20
57.79900253157228
 30
0.0
 11
-225.4425196371362
 21
60.55242498258582
 31
0.0
  0
LINE
  5
1D46B
330
18
100
AcDbEntity
  8
0
100
AcDbLine
 10
-203.5574681166315
 20
55.3990096752247
 30
0.0
 11
-225.4483753592343
 21
58.15243212623836
 31
0.0
  0
LINE
  5
1D46C
330
18
100
AcDbEntity
  8
0
100
AcDbLine
 10
-220.9527866581115
 20
57.58698023687559
 30
0.0
 11
-225.4483753592343
 21
57.02152834751281
 31
0.0
  0
LINE
  5
1D46D
330
18
100
AcDbEntity
  8
0
100
AcDbLine
 10
-203.5564921629485
 20
55.07177375843713
 30
0.0
 11
-203.5564921629485
 21
60.07177375183728
 31
0.0
  0
LINE
  5
1D46E
330
18
100
AcDbEntity
  8
0
100
AcDbLine
 10
-203.5564921629485
 20
60.07177375183728
 30
0.0
 11
-203.554750068553
 21
55.07177375843726
 31
0.0
  0
LINE
  5
1D46F
330
18
100
AcDbEntity
  8
0
100
AcDbLine
 10
-211.4093647508488
 20
58.78734492929059
 30
0.0
 11
-212.9999350687262
 21
58.5872841472214
 31
0.0
  0
LINE
  5
1D470
330
18
100
AcDbEntity
  8
0
100
AcDbLine
 10
-203.5525883482165
 20
57.77495675157015
 30
0.0
 11
-205.0470834793403
 21
57.58698023687559
 31
0.0
  0
LINE
  5
1D471
330
18
100
AcDbEntity
  8
中心線
100
AcDbLine
 10
-66.58775103428297
 20
229.8419113254599
 30
0.0
 11
-99.48842965642052
 21
229.8419113254599
 31
0.0
  0
LINE
  5
1D47D
330
18
100
AcDbEntity
  8
0
100
AcDbLine
 10
-203.5574681166314
 20
227.6878051334154
 30
0.0
 11
-225.4483753592343
 21
230.441227584429
 31
0.0
  0
LINE
  5
1D47E
330
18
100
AcDbEntity
  8
0
100
AcDbLine
 10
-203.5516123945334
 20
230.0877979897629
 30
0.0
 11
-225.4425196371362
 21
232.8412204407765
 31
0.0
  0
LINE
  5
1D47F
330
18
100
AcDbEntity
  8
0
100
AcDbLine
 10
-203.5525883482165
 20
229.6877991803717
 30
0.0
 11
-225.4434955908191
 21
232.441221631385
 31
0.0
  0
LINE
  5
1D480
330
18
100
AcDbEntity
  8
0
100
AcDbLine
 10
-203.5467326261185
 20
232.0877920367191
 30
0.0
 11
-225.437639868721
 21
234.8412144877325
 31
0.0
  0
LINE
  5
1D481
330
18
100
AcDbEntity
  8
0
100
AcDbLine
 10
-203.5467326261185
 20
227.6637593534133
 30
0.0
 11
-225.437639868721
 21
224.9103369023998
 31
0.0
  0
LINE
  5
1D482
330
18
100
AcDbEntity
  8
0
100
AcDbLine
 10
-211.4093647508488
 20
228.675411002651
 30
0.0
 11
-225.4425196371362
 21
226.9103309493558
 31
0.0
  0
LINE
  5
1D483
330
18
100
AcDbEntity
  8
0
100
AcDbLine
 10
-212.9999350687262
 20
228.8754717847204
 30
0.0
 11
-225.4434955908191
 21
227.3103297587474
 31
0.0
  0
LINE
  5
1D484
330
18
100
AcDbEntity
  8
0
100
AcDbLine
 10
-220.9527866581115
 20
229.875775695066
 30
0.0
 11
-225.4483753592343
 21
229.3103238057033
 31
0.0
  0
LINE
  5
1D485
330
18
100
AcDbEntity
  8
0
100
AcDbLine
 10
-211.4093647508488
 20
231.0761403874812
 30
0.0
 11
-212.9999350687262
 21
230.8760796054119
 31
0.0
  0
LINE
  5
1D486
330
18
100
AcDbEntity
  8
0
100
AcDbLine
 10
-203.5525883482165
 20
230.0637522097608
 30
0.0
 11
-205.0470834793403
 21
229.875775695066
 31
0.0
  0
LINE
  5
1D487
330
18
100
AcDbEntity
  8
0
100
AcDbLine
 10
-203.5467326261185
 20
232.3527994846974
 30
0.0
 11
-203.5467326261185
 21
227.3527994912976
 31
0.0
  0
LINE
  5
1D52E
330
18
100
AcDbEntity
  8
中心線
100
AcDbLine
 10
242.4438017874489
 20
229.527627291852
 30
0.0
 11
209.5431231653114
 21
229.527627291852
 31
0.0
  0
LINE
  5
1D52F
330
18
100
AcDbEntity
  8
中心線
100
AcDbLine
 10
242.4438017874489
 20
254.527627291852
 30
0.0
 11
209.5431231653114
 21
254.527627291852
 31
0.0
  0
LINE
  5
1D530
330
18
100
AcDbEntity
  8
中心線
100
AcDbLine
 10
242.4240812797575
 20
380.1276245772232
 30
0.0
 11
209.5234026576199
 21
380.1276245772232
 31
0.0
  0
LINE
  5
1D531
330
18
100
AcDbEntity
  8
中心線
100
AcDbLine
 10
-66.58775133018571
 20
57.55581611346361
 30
0.0
 11
-99.48842995232325
 21
57.55581611346361
 31
0.0
  0
LINE
  5
1D598
330
18
100
AcDbEntity
  8
0
100
AcDbLine
 10
73.76111484895591
 20
67.55146087766617
 30
0.0
 11
176.3111705283136
 21
67.55146087766617
 31
0.0
  0
LINE
  5
1D599
330
18
100
AcDbEntity
  8
0
100
AcDbLine
 10
51.31117052831342
 20
68.85146087766727
 30
0.0
 11
178.3111705283126
 21
68.8514608776672
 31
0.0
  0
LINE
  5
1D5CC
330
18
100
AcDbEntity
  8
0
100
AcDbLine
 10
-74.6872615868009
 20
67.05241902954161
 30
0.0
 11
-74.68882947168765
 21
68.85146087767421
 31
0.0
  0
LINE
  5
1D7A8
330
18
100
AcDbEntity
  8
0
100
AcDbLine
 10
-69.77746256821962
 20
81.05146087766389
 30
0.0
 11
-69.77746256821962
 21
73.85146087766395
 31
0.0
  0
LINE
  5
1D7A9
330
18
100
AcDbEntity
  8
0
100
AcDbLine
 10
-75.37322957657443
 20
81.05146087766389
 30
0.0
 11
-75.37322957657443
 21
73.85146087766395
 31
0.0
  0
LINE
  5
1D7C8
330
18
100
AcDbEntity
  8
0
100
AcDbLine
 10
-69.77746256821962
 20
81.05146087766389
 30
0.0
 11
-75.37322957657443
 21
81.05146087766389
 31
0.0
  0
LINE
  5
1D7C9
330
18
100
AcDbEntity
  8
0
100
AcDbLine
 10
-69.77746256821962
 20
73.85146087766395
 30
0.0
 11
-75.37322957657443
 21
73.85146087766395
 31
0.0
  0
CIRCLE
  5
1DA35
330
18
100
AcDbEntity
  8
0
100
AcDbCircle
 10
51.31117052831245
 20
304.8527994879971
 30
0.0
 40
32.49999999999993
  0
CIRCLE
  5
1DA36
330
18
100
AcDbEntity
  8
0
100
AcDbCircle
 10
360.3320418232576
 20
304.8527994879973
 30
0.0
 40
70.0000000000002
  0
LINE
  5
1DA5B
330
18
100
AcDbEntity
  8
破線
100
AcDbLine
 10
106.3111705283136
 20
90.05146076024415
 30
0.0
 11
106.3111705283136
 21
92.05146076024414
 31
0.0
  0
LINE
  5
1DA5C
330
18
100
AcDbEntity
  8
破線
100
AcDbLine
 10
-3.688829471686361
 20
90.05146076024415
 30
0.0
 11
-3.688829471686361
 21
92.05146076024414
 31
0.0
  0
LINE
  5
1DA5D
330
18
100
AcDbEntity
  8
破線
100
AcDbLine
 10
-3.688829471686361
 20
90.05146076024415
 30
0.0
 11
106.3111705283136
 21
90.05146076024415
 31
0.0
  0
VIEWPORT
  5
23
330
15
100
AcDbEntity
 67
     1
  8
0
100
AcDbViewport
 10
199.9851935521636
 20
143.9959809884909
 30
0.0
 40
443.4137930139046
 41
290.2076984177382
 68
     1
 69
     1
1001
ACAD
1000
MVIEW
1002
{
1070
    16
1010
0.0
1020
0.0
1030
0.0
1010
0.0
1020
0.0
1030
1.0
1040
0.0
1040
290.2076984177382
1040
199.9851935521636
1040
143.9959809884909
1040
50.0
1040
0.0
1040
0.0
1070
     0
1070
   100
1070
     1
1070
     0
1070
     0
1070
     0
1070
     0
1070
     0
1040
0.0
1040
0.0
1040
0.0
1040
10.0
1040
10.0
1040
10.0
1040
10.0
1070
     0
1002
{
1002
}
1002
}
  0
VIEWPORT
  5
2E
330
15
100
AcDbEntity
 67
     1
  8
M_VIEW
100
AcDbViewport
 10
200.0
 20
144.0
 30
0.0
 40
400.0
 41
288.0
 68
     2
 69
     2
1001
ACAD
1000
MVIEW
1002
{
1070
    16
1010
0.0
1020
0.0
1030
0.0
1010
0.0
1020
0.0
1030
1.0
1040
0.0
1040
576.0000011982539
1040
120.6659441241633
1040
205.529400927781
1040
50.0
1040
0.0
1040
0.0
1070
     0
1070
   100
1070
     1
1070
     0
1070
     0
1070
     0
1070
     0
1070
     0
1040
0.0
1040
0.0
1040
0.0
1040
10.0
1040
10.0
1040
10.0
1040
10.0
1070
     0
1002
{
1002
}
1002
}
  0
INSERT
  5
115F
330
15
100
AcDbEntity
 67
     1
  8
FRAME025
100
AcDbBlockReference
  2
機械A4横_LBP
 10
82.74908858651452
 20
152.030959079227
 30
0.0
  0
TEXT
  5
AA6A
330
15
100
AcDbEntity
 67
     1
  8
文字
  6
BYBLOCK
 62
     0
100
AcDbText
 10
32.81885892396519
 20
73.01882819621747
 30
0.0
 40
3.2
  1

 50
90.0
 41
0.625
  7
MSｺ_ｼｯｸ
100
AcDbText
  0
TEXT
  5
AA6C
330
15
100
AcDbEntity
 67
     1
  8
文字
  6
BYBLOCK
 62
     0
100
AcDbText
 10
37.25020936743055
 20
73.01882819621747
 30
0.0
 40
3.2
  1

 50
90.0
 41
0.625
  7
MSｺ_ｼｯｸ
100
AcDbText
  0
TEXT
  5
FCA5
330
15
100
AcDbEntity
 67
     1
  8
FRAME020
  6
CONTINUOUS
100
AcDbText
 10
126.6213117262079
 20
29.63926951973459
 30
0.0
 40
2.5
  1

 41
0.625
  7
MSｺ_ｼｯｸ
100
AcDbText
  0
TEXT
  5
12229
330
15
100
AcDbEntity
 67
     1
  8
0
100
AcDbText
 10
324.703280378293
 20
10.63168299257869
 30
0.0
 40
6.0
  1
ＳＥ－４２０７１
 41
1.1
100
AcDbText
  0
MTEXT
  5
1DA1E
330
15
100
AcDbEntity
 67
     1
  8
0
 62
     2
100
AcDbMText
 10
219.7406323662308
 20
26.16190101757547
 30
0.0
 40
6.0
 41
170.2345232654356
 71
     1
 72
     5
  1
{\C7;τDISCﾓｰﾀ D250-040-FP NMR-FEDBA2C-401AP}
1001
ACAD
1000
MTEXTBEGIN
1070
    73
1070
     1
1070
    44
1040
1.0
1070
    74
1070
     0
1000
MTEXTEND
  0
ENDSEC
  0
SECTION
  2
OBJECTS
  0
DICTIONARY
  5
C
330
0
100
AcDbDictionary
  3
ACAD_GROUP
350
D
  3
ACAD_LAYOUT
350
DB2
  3
ACAD_MLINESTYLE
350
1B
  3
ACAD_PLOTSETTINGS
350
DB3
  3
ACAD_PLOTSTYLENAME
350
FB5B
  3
ACADDIM
350
1D9FE
  3
ACDBHEADERROUNDTRIPXREC
350
1DA83
  3
ACDBVARIABLEDICTIONARY
350
106A6
  3
DWGPROPS
350
15EC9
1001
ACAD
1000
TREAT_AS_HARD
1070
     0
  0
DICTIONARY
  5
EFC6
330
18
100
AcDbDictionary
280
     1
  3
ACAD_LAYOUTSELFREF
360
1DAA5
  0
DICTIONARY
  5
EFC4
330
15
100
AcDbDictionary
280
     1
  3
ACAD_LAYOUTSELFREF
360
1DAA4
  0
DICTIONARY
  5
D
102
{ACAD_REACTORS
330
C
102
}
330
C
100
AcDbDictionary
  3
*A1
350
AC8A
  3
*A10
350
1C9B8
  3
*A11
350
1C4B4
  3
*A12
350
1BF08
  3
*A13
350
ACAB
  3
*A14
350
1BF0C
  3
*A15
350
1C9C1
  3
*A16
350
1A4D9
  3
*A17
350
1C4AC
  3
*A18
350
106C7
  3
*A19
350
FC95
  3
*A2
350
FB6B
  3
*A20
350
1A48D
  3
*A21
350
106A5
  3
*A22
350
FC9B
  3
*A23
350
1C469
  3
*A24
350
1A48C
  3
*A25
350
ACA2
  3
*A26
350
FCB8
  3
*A27
350
1D29C
  3
*A28
350
1C526
  3
*A29
350
ACA1
  3
*A3
350
1C541
  3
*A30
350
1D2A5
  3
*A31
350
1C44A
  3
*A32
350
1D293
  3
*A33
350
1D2B7
  3
*A34
350
1C4B0
  3
*A35
350
1A9FC
  3
*A36
350
1B6E0
  3
*A37
350
1D2AE
  3
*A38
350
FB6C
  3
*A39
350
1C52F
  3
*A4
350
ACBD
  3
*A40
350
1C538
  3
*A41
350
1D3B7
  3
*A42
350
1C09E
  3
*A43
350
1C9CA
  3
*A44
350
1D3B9
  3
*A45
350
FC9A
  3
*A46
350
1D3DD
  3
*A47
350
1D3B8
  3
*A48
350
1C09F
  3
*A49
350
1D40F
  3
*A5
350
FBFF
  3
*A50
350
1BC2A
  3
*A51
350
1D3FF
  3
*A52
350
1BC08
  3
*A53
350
1B6E1
  3
*A54
350
1C488
  3
*A55
350
1BC07
  3
*A56
350
1BF10
  3
*A57
350
106B3
  3
*A58
350
1C4BF
  3
*A59
350
106C6
  3
*A6
350
1BC29
  3
*A60
350
AC9A
  3
*A61
350
1BC47
  3
*A62
350
1C9AF
  3
*A63
350
FC91
  3
*A64
350
ACB4
  3
*A65
350
1C9D3
  3
*A66
350
1BF14
  3
*A7
350
1C4A7
  3
*A8
350
1A2C3
  3
*A9
350
1C3ED
1001
ACAD
1000
TREAT_AS_HARD
1070
     0
  0
DICTIONARY
  5
DB2
102
{ACAD_REACTORS
330
C
102
}
330
C
100
AcDbDictionary
1001
ACAD
1000
TREAT_AS_HARD
1070
     0
  0
DICTIONARY
  5
1B
102
{ACAD_REACTORS
330
C
102
}
330
C
100
AcDbDictionary
  3
STANDARD
350
1C
1001
ACAD
1000
TREAT_AS_HARD
1070
     0
  0
DICTIONARY
  5
DB3
102
{ACAD_REACTORS
330
C
102
}
330
C
100
AcDbDictionary
1001
ACAD
1000
TREAT_AS_HARD
1070
     0
  0
ACDBDICTIONARYWDFLT
  5
FB5B
102
{ACAD_REACTORS
330
C
102
}
330
C
100
AcDbDictionary
281
     1
  3
Normal
350
FB5C
100
AcDbDictionaryWithDefault
340
FB5C
  0
XRECORD
  5
1D9FE
102
{ACAD_REACTORS
330
C
102
}
330
C
100
AcDbXrecord
 90
   990106
  3

 60
     0
 61
     0
 62
     4
 63
     4
 64
     1
 65
     0
 66
     0
 67
     3
 68
     0
 69
     1
 70
     0
 71
     0
 72
     0
 40
0.0
170
     0
340
1DA00
  0
DICTIONARY
  5
1DA83
102
{ACAD_REACTORS
330
C
102
}
330
C
100
AcDbDictionary
  3
CEPSNTYPE
350
1DA8D
  3
DIMSTYLEDATA
350
1DA91
  3
FINGERPRINTGUID
350
1DA8E
  3
HYPERLINKBASE
350
1DA86
  3
INSUNITS
350
1DA8C
  3
LAYOUTDICT
350
1DA88
  3
LWETCUNION
350
1DA8B
  3
PLOTSETDICT
350
1DA89
  3
PLOTSTYLNAMDICT
350
1DA8A
  3
PSVPSCALE
350
1DA90
  3
PUCSBASE
350
1DA94
  3
PUCSORGBACK
350
1DA9A
  3
PUCSORGBOTTOM
350
1DA96
  3
PUCSORGFRONT
350
1DA99
  3
PUCSORGLEFT
350
1DA97
  3
PUCSORGRIGHT
350
1DA98
  3
PUCSORGTOP
350
1DA95
  3
PUCSORTHOREF
350
1DA92
  3
PUCSORTHOVIEW
350
1DA93
  3
STYLESHEET
350
1DA87
  3
TSTACKALIGN
350
1DA84
  3
TSTACKSIZE
350
1DA85
  3
UCSBASE
350
1DA9D
  3
UCSORGBACK
350
1DAA3
  3
UCSORGBOTTOM
350
1DA9F
  3
UCSORGFRONT
350
1DAA2
  3
UCSORGLEFT
350
1DAA0
  3
UCSORGRIGHT
350
1DAA1
  3
UCSORGTOP
350
1DA9E
  3
UCSORTHOREF
350
1DA9B
  3
UCSORTHOVIEW
350
1DA9C
  3
VERSIONGUID
350
1DA8F
  0
DICTIONARY
  5
106A6
102
{ACAD_REACTORS
330
C
102
}
330
C
100
AcDbDictionary
  3
SORTENTS
350
106A7
  0
XRECORD
  5
15EC9
102
{ACAD_REACTORS
330
C
102
}
330
C
100
AcDbXrecord
  1
DWGPROPS COOKIE
  2

  3

  4

  6

  7

  8

  9

300
=
301
=
302
=
303
=
304
=
305
=
306
=
307
=
308
=
309
=
 40
12.65185717592592
 41
2451224.660162384
 42
2452395.660827315
  1

 90
        0
  0
XRECORD
  5
1DAA5
102
{ACAD_REACTORS
330
EFC6
102
}
330
EFC6
100
AcDbXrecord
340
18
  0
XRECORD
  5
1DAA4
102
{ACAD_REACTORS
330
EFC4
102
}
330
EFC4
100
AcDbXrecord
340
15
  0
GROUP
  5
AC8A
102
{ACAD_REACTORS
330
D
102
}
330
D
100
AcDbGroup
300

 70
     1
 71
     1
  0
GROUP
  5
1C9B8
102
{ACAD_REACTORS
330
D
102
}
330
D
100
AcDbGroup
300

 70
     1
 71
     1
  0
GROUP
  5
1C4B4
102
{ACAD_REACTORS
330
D
102
}
330
D
100
AcDbGroup
300

 70
     1
 71
     1
  0
GROUP
  5
1BF08
102
{ACAD_REACTORS
330
D
102
}
330
D
100
AcDbGroup
300

 70
     1
 71
     1
  0
GROUP
  5
ACAB
102
{ACAD_REACTORS
330
D
102
}
330
D
100
AcDbGroup
300

 70
     1
 71
     1
  0
GROUP
  5
1BF0C
102
{ACAD_REACTORS
330
D
102
}
330
D
100
AcDbGroup
300

 70
     1
 71
     1
  0
GROUP
  5
1C9C1
102
{ACAD_REACTORS
330
D
102
}
330
D
100
AcDbGroup
300

 70
     1
 71
     1
  0
GROUP
  5
1A4D9
102
{ACAD_REACTORS
330
D
102
}
330
D
100
AcDbGroup
300

 70
     1
 71
     1
  0
GROUP
  5
1C4AC
102
{ACAD_REACTORS
330
D
102
}
330
D
100
AcDbGroup
300

 70
     1
 71
     1
  0
GROUP
  5
106C7
102
{ACAD_REACTORS
330
D
102
}
330
D
100
AcDbGroup
300

 70
     1
 71
     1
  0
GROUP
  5
FC95
102
{ACAD_REACTORS
330
D
102
}
330
D
100
AcDbGroup
300

 70
     1
 71
     1
  0
GROUP
  5
FB6B
102
{ACAD_REACTORS
330
D
102
}
330
D
100
AcDbGroup
300

 70
     1
 71
     1
  0
GROUP
  5
1A48D
102
{ACAD_REACTORS
330
D
102
}
330
D
100
AcDbGroup
300

 70
     1
 71
     1
  0
GROUP
  5
106A5
102
{ACAD_REACTORS
330
D
102
}
330
D
100
AcDbGroup
300

 70
     1
 71
     1
  0
GROUP
  5
FC9B
102
{ACAD_REACTORS
330
D
102
}
330
D
100
AcDbGroup
300

 70
     1
 71
     1
  0
GROUP
  5
1C469
102
{ACAD_REACTORS
330
D
102
}
330
D
100
AcDbGroup
300

 70
     1
 71
     1
340
1C44B
340
1C44C
340
1C44D
340
1C44E
340
1C44F
340
1C450
340
1C451
340
1C452
340
1C453
340
1C454
340
1C455
340
1C456
340
1C457
340
1C458
340
1C459
340
1C45A
340
1C45B
340
1C45C
340
1C45D
340
1C45E
340
1C45F
340
1C460
340
1C461
340
1C462
340
1C463
340
1C464
340
1C465
340
1C466
340
1C467
340
1C468
  0
GROUP
  5
1A48C
102
{ACAD_REACTORS
330
D
102
}
330
D
100
AcDbGroup
300

 70
     1
 71
     1
  0
GROUP
  5
ACA2
102
{ACAD_REACTORS
330
D
102
}
330
D
100
AcDbGroup
300

 70
     1
 71
     1
  0
GROUP
  5
FCB8
102
{ACAD_REACTORS
330
D
102
}
330
D
100
AcDbGroup
300

 70
     1
 71
     1
  0
GROUP
  5
1D29C
102
{ACAD_REACTORS
330
D
102
}
330
D
100
AcDbGroup
300

 70
     1
 71
     1
340
1D294
340
1D295
340
1D296
340
1D297
340
1D298
340
1D299
340
1D29A
340
1D29B
  0
GROUP
  5
1C526
102
{ACAD_REACTORS
330
D
102
}
330
D
100
AcDbGroup
300

 70
     1
 71
     1
  0
GROUP
  5
ACA1
102
{ACAD_REACTORS
330
D
102
}
330
D
100
AcDbGroup
300

 70
     1
 71
     1
  0
GROUP
  5
1C541
102
{ACAD_REACTORS
330
D
102
}
330
D
100
AcDbGroup
300

 70
     1
 71
     1
  0
GROUP
  5
1D2A5
102
{ACAD_REACTORS
330
D
102
}
330
D
100
AcDbGroup
300

 70
     1
 71
     1
340
1D29D
340
1D29E
340
1D29F
340
1D2A0
340
1D2A1
340
1D2A2
340
1D2A3
340
1D2A4
  0
GROUP
  5
1C44A
102
{ACAD_REACTORS
330
D
102
}
330
D
100
AcDbGroup
300

 70
     1
 71
     1
340
1C3D0
340
1C3D6
340
1C3D4
340
1C3D3
340
1C3EC
340
1C3E1
340
1C3DB
340
1C3E0
340
1C3DA
340
1C3D5
340
1C3D9
340
1C3D8
340
1C3D7
340
1C3DD
340
1C3DC
340
1C3EB
340
1C3E7
340
1C3E4
340
1C3D1
340
1C3E9
340
1C3E6
340
1C3DF
340
1C3DE
340
1C3D2
340
1C3E5
340
1C3E8
340
1C3E3
340
1C3E2
340
1C3CF
340
1C3EA
  0
GROUP
  5
1D293
102
{ACAD_REACTORS
330
D
102
}
330
D
100
AcDbGroup
300

 70
     1
 71
     1
340
1CAD5
340
1CADB
340
1CAD8
340
1CAD7
340
1CADC
340
1CADA
340
1CAD9
340
1CAD6
  0
GROUP
  5
1D2B7
102
{ACAD_REACTORS
330
D
102
}
330
D
100
AcDbGroup
300

 70
     1
 71
     1
340
1D2AF
340
1D2B0
340
1D2B1
340
1D2B2
340
1D2B3
340
1D2B4
340
1D2B5
340
1D2B6
  0
GROUP
  5
1C4B0
102
{ACAD_REACTORS
330
D
102
}
330
D
100
AcDbGroup
300

 70
     1
 71
     1
  0
GROUP
  5
1A9FC
102
{ACAD_REACTORS
330
D
102
}
330
D
100
AcDbGroup
300

 70
     1
 71
     1
  0
GROUP
  5
1B6E0
102
{ACAD_REACTORS
330
D
102
}
330
D
100
AcDbGroup
300

 70
     1
 71
     1
  0
GROUP
  5
1D2AE
102
{ACAD_REACTORS
330
D
102
}
330
D
100
AcDbGroup
300

 70
     1
 71
     1
340
1D2A6
340
1D2A7
340
1D2A8
340
1D2A9
340
1D2AA
340
1D2AB
340
1D2AC
340
1D2AD
  0
GROUP
  5
FB6C
102
{ACAD_REACTORS
330
D
102
}
330
D
100
AcDbGroup
300

 70
     1
 71
     1
  0
GROUP
  5
1C52F
102
{ACAD_REACTORS
330
D
102
}
330
D
100
AcDbGroup
300

 70
     1
 71
     1
  0
GROUP
  5
ACBD
102
{ACAD_REACTORS
330
D
102
}
330
D
100
AcDbGroup
300

 70
     1
 71
     1
  0
GROUP
  5
1C538
102
{ACAD_REACTORS
330
D
102
}
330
D
100
AcDbGroup
300

 70
     1
 71
     1
  0
GROUP
  5
1D3B7
102
{ACAD_REACTORS
330
D
102
}
330
D
100
AcDbGroup
300

 70
     1
 71
     1
  0
GROUP
  5
1C09E
102
{ACAD_REACTORS
330
D
102
}
330
D
100
AcDbGroup
300

 70
     1
 71
     1
  0
GROUP
  5
1C9CA
102
{ACAD_REACTORS
330
D
102
}
330
D
100
AcDbGroup
300

 70
     1
 71
     1
  0
GROUP
  5
1D3B9
102
{ACAD_REACTORS
330
D
102
}
330
D
100
AcDbGroup
300

 70
     1
 71
     1
  0
GROUP
  5
FC9A
102
{ACAD_REACTORS
330
D
102
}
330
D
100
AcDbGroup
300

 70
     1
 71
     1
  0
GROUP
  5
1D3DD
102
{ACAD_REACTORS
330
D
102
}
330
D
100
AcDbGroup
300

 70
     1
 71
     1
340
1D3BA
340
1D3BB
340
1D3BC
340
1D3BD
340
1D3BE
340
1D3BF
340
1D3C0
340
1D3C1
340
1D3C2
340
1D3C3
340
1D3C4
340
1D3C5
340
1D3C6
340
1D3C7
340
1D3C8
340
1D3C9
340
1D3CA
340
1D3CB
340
1D3CC
340
1D3CD
340
1D3CE
340
1D3CF
340
1D3D0
340
1D3D1
340
1D3D2
340
1D3D3
340
1D3D4
340
1D3D5
340
1D3D6
340
1D3D7
340
1D3D8
340
1D3D9
340
1D3DA
340
1D3DB
340
1D3DC
  0
GROUP
  5
1D3B8
102
{ACAD_REACTORS
330
D
102
}
330
D
100
AcDbGroup
300

 70
     1
 71
     1
  0
GROUP
  5
1C09F
102
{ACAD_REACTORS
330
D
102
}
330
D
100
AcDbGroup
300

 70
     1
 71
     1
  0
GROUP
  5
1D40F
102
{ACAD_REACTORS
330
D
102
}
330
D
100
AcDbGroup
300

 70
     1
 71
     1
340
1D401
340
1D402
340
1D403
340
1D404
340
1D405
340
1D406
340
1D407
340
1D408
340
1D409
340
1D40A
340
1D40B
340
1D40C
340
1D40D
340
1D40E
  0
GROUP
  5
FBFF
102
{ACAD_REACTORS
330
D
102
}
330
D
100
AcDbGroup
300

 70
     1
 71
     1
  0
GROUP
  5
1BC2A
102
{ACAD_REACTORS
330
D
102
}
330
D
100
AcDbGroup
300

 70
     1
 71
     1
  0
GROUP
  5
1D3FF
102
{ACAD_REACTORS
330
D
102
}
330
D
100
AcDbGroup
300

 70
     1
 71
     1
340
1D3DF
340
1D3E0
340
1D3E1
340
1D3E2
340
1D3E3
340
1D3E4
340
1D3E5
340
1D3E6
340
1D3E7
340
1D3E8
340
1D3E9
340
1D3EA
340
1D3EB
340
1D3EC
340
1D3ED
340
1D3EE
340
1D3EF
340
1D3F0
340
1D3F1
340
1D3F2
340
1D3F3
340
1D3F4
340
1D3F5
340
1D3F6
340
1D3F7
340
1D3F8
340
1D3F9
340
1D3FA
340
1D3FB
340
1D3FC
340
1D3FD
340
1D3FE
  0
GROUP
  5
1BC08
102
{ACAD_REACTORS
330
D
102
}
330
D
100
AcDbGroup
300

 70
     1
 71
     1
  0
GROUP
  5
1B6E1
102
{ACAD_REACTORS
330
D
102
}
330
D
100
AcDbGroup
300

 70
     1
 71
     1
  0
GROUP
  5
1C488
102
{ACAD_REACTORS
330
D
102
}
330
D
100
AcDbGroup
300

 70
     1
 71
     1
340
1C46B
340
1C46C
340
1C46D
340
1C46A
340
1C46E
340
1C46F
340
1C470
340
1C471
340
1C472
340
1C473
340
1C474
340
1C475
340
1C476
340
1C477
340
1C478
340
1C479
340
1C47A
340
1C47B
340
1C47C
340
1C47D
340
1C47E
340
1C47F
340
1C480
340
1C481
340
1C482
340
1C483
340
1C484
340
1C485
340
1C486
340
1C487
  0
GROUP
  5
1BC07
102
{ACAD_REACTORS
330
D
102
}
330
D
100
AcDbGroup
300

 70
     1
 71
     1
  0
GROUP
  5
1BF10
102
{ACAD_REACTORS
330
D
102
}
330
D
100
AcDbGroup
300

 70
     1
 71
     1
  0
GROUP
  5
106B3
102
{ACAD_REACTORS
330
D
102
}
330
D
100
AcDbGroup
300

 70
     1
 71
     1
  0
GROUP
  5
1C4BF
102
{ACAD_REACTORS
330
D
102
}
330
D
100
AcDbGroup
300

 70
     1
 71
     1
  0
GROUP
  5
106C6
102
{ACAD_REACTORS
330
D
102
}
330
D
100
AcDbGroup
300

 70
     1
 71
     1
  0
GROUP
  5
1BC29
102
{ACAD_REACTORS
330
D
102
}
330
D
100
AcDbGroup
300

 70
     1
 71
     1
  0
GROUP
  5
AC9A
102
{ACAD_REACTORS
330
D
102
}
330
D
100
AcDbGroup
300

 70
     1
 71
     1
  0
GROUP
  5
1BC47
102
{ACAD_REACTORS
330
D
102
}
330
D
100
AcDbGroup
300

 70
     1
 71
     1
  0
GROUP
  5
1C9AF
102
{ACAD_REACTORS
330
D
102
}
330
D
100
AcDbGroup
300

 70
     1
 71
     1
  0
GROUP
  5
FC91
102
{ACAD_REACTORS
330
D
102
}
330
D
100
AcDbGroup
300

 70
     1
 71
     1
  0
GROUP
  5
ACB4
102
{ACAD_REACTORS
330
D
102
}
330
D
100
AcDbGroup
300

 70
     1
 71
     1
  0
GROUP
  5
1C9D3
102
{ACAD_REACTORS
330
D
102
}
330
D
100
AcDbGroup
300

 70
     1
 71
     1
  0
GROUP
  5
1BF14
102
{ACAD_REACTORS
330
D
102
}
330
D
100
AcDbGroup
300

 70
     1
 71
     1
  0
GROUP
  5
1C4A7
102
{ACAD_REACTORS
330
D
102
}
330
D
100
AcDbGroup
300

 70
     1
 71
     1
340
1C489
340
1C48A
340
1C48B
340
1C48C
340
1C48D
340
1C48E
340
1C48F
340
1C490
340
1C491
340
1C492
340
1C493
340
1C494
340
1C495
340
1C496
340
1C497
340
1C498
340
1C499
340
1C49A
340
1C49B
340
1C49C
340
1C49D
340
1C49E
340
1C49F
340
1C4A0
340
1C4A1
340
1C4A2
340
1C4A3
340
1C4A4
340
1C4A5
340
1C4A6
  0
GROUP
  5
1A2C3
102
{ACAD_REACTORS
330
D
102
}
330
D
100
AcDbGroup
300

 70
     1
 71
     1
  0
GROUP
  5
1C3ED
102
{ACAD_REACTORS
330
D
102
}
330
D
100
AcDbGroup
300

 70
     1
 71
     1
  0
MLINESTYLE
  5
1C
102
{ACAD_REACTORS
330
1B
102
}
330
1B
100
AcDbMlineStyle
  2
STANDARD
 70
     0
  3

 62
   256
 51
90.0
 52
90.0
 71
     2
 49
0.5
 62
   256
  6
BYLAYER
 49
-0.5
 62
   256
  6
BYLAYER
  0
ACDBPLACEHOLDER
  5
FB5C
102
{ACAD_REACTORS
330
FB5B
102
}
330
FB5B
100
AcDbPlaceHolder
280
     0
  0
XRECORD
  5
1DA8D
102
{ACAD_REACTORS
330
1DA83
102
}
330
1DA83
100
AcDbXrecord
 90
        0
  0
XRECORD
  5
1DA91
102
{ACAD_REACTORS
330
1DA83
102
}
330
1DA83
100
AcDbXrecord
1000
DSTYLE
1002
{
1070
    79
 70
     2
1070
   179
 70
     2
1070
   341
340
1215D
1070
   342
340
1215D
1070
   343
340
1215D
1070
   344
340
15351
1070
   371
 70
    13
1070
   372
 70
    13
1002
}
  0
XRECORD
  5
1DA8E
102
{ACAD_REACTORS
330
1DA83
102
}
330
1DA83
100
AcDbXrecord
  1
{D14EE3FF-941A-415A-9907-344E0A80D794}
  0
XRECORD
  5
1DA86
102
{ACAD_REACTORS
330
1DA83
102
}
330
1DA83
100
AcDbXrecord
  1

  0
XRECORD
  5
1DA8C
102
{ACAD_REACTORS
330
1DA83
102
}
330
1DA83
100
AcDbXrecord
 90
        0
  0
XRECORD
  5
1DA88
102
{ACAD_REACTORS
330
1DA83
102
}
330
1DA83
100
AcDbXrecord
340
DB2
  0
XRECORD
  5
1DA8B
102
{ACAD_REACTORS
330
1DA83
102
}
330
1DA83
100
AcDbXrecord
 90
    10269
  0
XRECORD
  5
1DA89
102
{ACAD_REACTORS
330
1DA83
102
}
330
1DA83
100
AcDbXrecord
340
DB3
  0
XRECORD
  5
1DA8A
102
{ACAD_REACTORS
330
1DA83
102
}
330
1DA83
100
AcDbXrecord
340
FB5B
  0
XRECORD
  5
1DA90
102
{ACAD_REACTORS
330
1DA83
102
}
330
1DA83
100
AcDbXrecord
 40
0.0
  0
XRECORD
  5
1DA94
102
{ACAD_REACTORS
330
1DA83
102
}
330
1DA83
100
AcDbXrecord
340
0
  0
XRECORD
  5
1DA9A
102
{ACAD_REACTORS
330
1DA83
102
}
330
1DA83
100
AcDbXrecord
 10
0.0
 20
0.0
 30
0.0
  0
XRECORD
  5
1DA96
102
{ACAD_REACTORS
330
1DA83
102
}
330
1DA83
100
AcDbXrecord
 10
0.0
 20
0.0
 30
0.0
  0
XRECORD
  5
1DA99
102
{ACAD_REACTORS
330
1DA83
102
}
330
1DA83
100
AcDbXrecord
 10
0.0
 20
0.0
 30
0.0
  0
XRECORD
  5
1DA97
102
{ACAD_REACTORS
330
1DA83
102
}
330
1DA83
100
AcDbXrecord
 10
0.0
 20
0.0
 30
0.0
  0
XRECORD
  5
1DA98
102
{ACAD_REACTORS
330
1DA83
102
}
330
1DA83
100
AcDbXrecord
 10
0.0
 20
0.0
 30
0.0
  0
XRECORD
  5
1DA95
102
{ACAD_REACTORS
330
1DA83
102
}
330
1DA83
100
AcDbXrecord
 10
0.0
 20
0.0
 30
0.0
  0
XRECORD
  5
1DA92
102
{ACAD_REACTORS
330
1DA83
102
}
330
1DA83
100
AcDbXrecord
340
0
  0
XRECORD
  5
1DA93
102
{ACAD_REACTORS
330
1DA83
102
}
330
1DA83
100
AcDbXrecord
 70
     0
  0
XRECORD
  5
1DA87
102
{ACAD_REACTORS
330
1DA83
102
}
330
1DA83
100
AcDbXrecord
  1

  0
XRECORD
  5
1DA84
102
{ACAD_REACTORS
330
1DA83
102
}
330
1DA83
100
AcDbXrecord
 90
        1
  0
XRECORD
  5
1DA85
102
{ACAD_REACTORS
330
1DA83
102
}
330
1DA83
100
AcDbXrecord
 90
       70
  0
XRECORD
  5
1DA9D
102
{ACAD_REACTORS
330
1DA83
102
}
330
1DA83
100
AcDbXrecord
340
0
  0
XRECORD
  5
1DAA3
102
{ACAD_REACTORS
330
1DA83
102
}
330
1DA83
100
AcDbXrecord
 10
0.0
 20
0.0
 30
0.0
  0
XRECORD
  5
1DA9F
102
{ACAD_REACTORS
330
1DA83
102
}
330
1DA83
100
AcDbXrecord
 10
0.0
 20
0.0
 30
0.0
  0
XRECORD
  5
1DAA2
102
{ACAD_REACTORS
330
1DA83
102
}
330
1DA83
100
AcDbXrecord
 10
0.0
 20
0.0
 30
0.0
  0
XRECORD
  5
1DAA0
102
{ACAD_REACTORS
330
1DA83
102
}
330
1DA83
100
AcDbXrecord
 10
0.0
 20
0.0
 30
0.0
  0
XRECORD
  5
1DAA1
102
{ACAD_REACTORS
330
1DA83
102
}
330
1DA83
100
AcDbXrecord
 10
0.0
 20
0.0
 30
0.0
  0
XRECORD
  5
1DA9E
102
{ACAD_REACTORS
330
1DA83
102
}
330
1DA83
100
AcDbXrecord
 10
0.0
 20
0.0
 30
0.0
  0
XRECORD
  5
1DA9B
102
{ACAD_REACTORS
330
1DA83
102
}
330
1DA83
100
AcDbXrecord
340
0
  0
XRECORD
  5
1DA9C
102
{ACAD_REACTORS
330
1DA83
102
}
330
1DA83
100
AcDbXrecord
 70
     0
  0
XRECORD
  5
1DA8F
102
{ACAD_REACTORS
330
1DA83
102
}
330
1DA83
100
AcDbXrecord
  1
{9B8B3D87-4040-469C-A131-E02183AC15C3}
  0
DICTIONARYVAR
  5
106A7
102
{ACAD_REACTORS
330
106A6
102
}
330
106A6
100
DictionaryVariables
280
     0
  1
96
  0
ENDSEC
  0
EOF
