  0
SECTION
  2
HEADER
  9
$ACADVER
  1
AC1014
  9
$ACADMAINTVER
 70
     9
  9
$DWGCODEPAGE
  3
ANSI_932
  9
$INSBASE
 10
0.0
 20
0.0
 30
0.0
  9
$EXTMIN
 10
-269.5108317847954
 20
-3.958378909662371
 30
0.0
  9
$EXTMAX
 10
501.4096308736277
 20
446.6614262630981
 30
0.0
  9
$LIMMIN
 10
0.0
 20
0.0
  9
$LIMMAX
 10
420.0
 20
297.0
  9
$ORTHOMODE
 70
     1
  9
$REGENMODE
 70
     1
  9
$FILLMODE
 70
     1
  9
$QTEXTMODE
 70
     0
  9
$MIRRTEXT
 70
     0
  9
$DRAGMODE
 70
     2
  9
$LTSCALE
 40
20.0
  9
$OSMODE
 70
    37
  9
$ATTMODE
 70
     1
  9
$TEXTSIZE
 40
2.5
  9
$TRACEWID
 40
1.0
  9
$TEXTSTYLE
  7
STANDARD
  9
$CLAYER
  8
寸法線
  9
$CELTYPE
  6
BYLAYER
  9
$CECOLOR
 62
   256
  9
$CELTSCALE
 40
1.0
  9
$DELOBJ
 70
     1
  9
$DISPSILH
 70
     0
  9
$DIMSCALE
 40
2.0
  9
$DIMASZ
 40
3.5
  9
$DIMEXO
 40
1.0
  9
$DIMDLI
 40
6.5
  9
$DIMRND
 40
0.005
  9
$DIMDLE
 40
0.0
  9
$DIMEXE
 40
1.0
  9
$DIMTP
 40
0.0
  9
$DIMTM
 40
0.0
  9
$DIMTXT
 40
3.5
  9
$DIMCEN
 40
2.5
  9
$DIMTSZ
 40
0.0
  9
$DIMTOL
 70
     0
  9
$DIMLIM
 70
     0
  9
$DIMTIH
 70
     0
  9
$DIMTOH
 70
     0
  9
$DIMSE1
 70
     0
  9
$DIMSE2
 70
     0
  9
$DIMTAD
 70
     1
  9
$DIMZIN
 70
     9
  9
$DIMBLK
  1
OPEN30
  9
$DIMASO
 70
     1
  9
$DIMSHO
 70
     1
  9
$DIMPOST
  1

  9
$DIMAPOST
  1

  9
$DIMALT
 70
     0
  9
$DIMALTD
 70
     4
  9
$DIMALTF
 40
0.0394
  9
$DIMLFAC
 40
1.0
  9
$DIMTOFL
 70
     1
  9
$DIMTVP
 40
0.0
  9
$DIMTIX
 70
     0
  9
$DIMSOXD
 70
     0
  9
$DIMSAH
 70
     0
  9
$DIMBLK1
  1
OPEN30
  9
$DIMBLK2
  1
OPEN
  9
$DIMSTYLE
  2
STD_M_
  9
$DIMCLRD
 70
     3
  9
$DIMCLRE
 70
     3
  9
$DIMCLRT
 70
     2
  9
$DIMTFAC
 40
1.0
  9
$DIMGAP
 40
0.75
  9
$DIMJUST
 70
     0
  9
$DIMSD1
 70
     0
  9
$DIMSD2
 70
     0
  9
$DIMTOLJ
 70
     1
  9
$DIMTZIN
 70
     9
  9
$DIMALTZ
 70
     0
  9
$DIMALTTZ
 70
     0
  9
$DIMFIT
 70
     3
  9
$DIMUPT
 70
     0
  9
$DIMUNIT
 70
     2
  9
$DIMDEC
 70
     2
  9
$DIMTDEC
 70
     2
  9
$DIMALTU
 70
     8
  9
$DIMALTTD
 70
     4
  9
$DIMTXSTY
  7
STANDARD
  9
$DIMAUNIT
 70
     0
  9
$LUNITS
 70
     2
  9
$LUPREC
 70
     4
  9
$SKETCHINC
 40
1.0
  9
$FILLETRAD
 40
0.0
  9
$AUNITS
 70
     0
  9
$AUPREC
 70
     0
  9
$MENU
  1
.
  9
$ELEVATION
 40
0.0
  9
$PELEVATION
 40
0.0
  9
$THICKNESS
 40
0.0
  9
$LIMCHECK
 70
     0
  9
$BLIPMODE
 70
     0
  9
$CHAMFERA
 40
1.0
  9
$CHAMFERB
 40
1.0
  9
$CHAMFERC
 40
20.0
  9
$CHAMFERD
 40
0.0
  9
$SKPOLY
 70
     0
  9
$TDCREATE
 40
2451224.660162384
  9
$TDUPDATE
 40
2455573.781359039
  9
$TDINDWG
 40
13.7291476620
  9
$TDUSRTIMER
 40
13.7291471181
  9
$USRTIMER
 70
     1
  9
$ANGBASE
 50
0.0
  9
$ANGDIR
 70
     0
  9
$PDMODE
 70
     0
  9
$PDSIZE
 40
0.0
  9
$PLINEWID
 40
0.0
  9
$COORDS
 70
     0
  9
$SPLFRAME
 70
     0
  9
$SPLINETYPE
 70
     6
  9
$SPLINESEGS
 70
     8
  9
$ATTDIA
 70
     0
  9
$ATTREQ
 70
     1
  9
$HANDLING
 70
-16383
  9
$HANDSEED
  5
1D659
  9
$SURFTAB1
 70
     6
  9
$SURFTAB2
 70
     6
  9
$SURFTYPE
 70
     6
  9
$SURFU
 70
     6
  9
$SURFV
 70
     6
  9
$UCSNAME
  2

  9
$UCSORG
 10
0.0
 20
0.0
 30
0.0
  9
$UCSXDIR
 10
1.0
 20
0.0
 30
0.0
  9
$UCSYDIR
 10
0.0
 20
1.0
 30
0.0
  9
$PUCSNAME
  2

  9
$PUCSORG
 10
0.0
 20
0.0
 30
0.0
  9
$PUCSXDIR
 10
1.0
 20
0.0
 30
0.0
  9
$PUCSYDIR
 10
0.0
 20
1.0
 30
0.0
  9
$USERI1
 70
     0
  9
$USERI2
 70
     0
  9
$USERI3
 70
     0
  9
$USERI4
 70
     0
  9
$USERI5
 70
     0
  9
$USERR1
 40
0.0
  9
$USERR2
 40
0.0
  9
$USERR3
 40
0.0
  9
$USERR4
 40
0.0
  9
$USERR5
 40
0.0
  9
$WORLDVIEW
 70
     1
  9
$SHADEDGE
 70
     3
  9
$SHADEDIF
 70
    70
  9
$TILEMODE
 70
     0
  9
$MAXACTVP
 70
    48
  9
$PINSBASE
 10
0.0
 20
0.0
 30
0.0
  9
$PLIMCHECK
 70
     0
  9
$PEXTMIN
 10
-0.0053631359249948
 20
-0.0127506320429802
 30
-0.0015258207003583
  9
$PEXTMAX
 10
400.0232906798108
 20
288.001944746329
 30
0.0000000349246037
  9
$PLIMMIN
 10
-7.924663615263383
 20
-4.34791267546047
  9
$PLIMMAX
 10
418.1830626497951
 20
296.9343072340242
  9
$UNITMODE
 70
     0
  9
$VISRETAIN
 70
     1
  9
$PLINEGEN
 70
     0
  9
$PSLTSCALE
 70
     0
  9
$TREEDEPTH
 70
  3020
  9
$PICKSTYLE
 70
     0
  9
$CMLSTYLE
  2
STANDARD
  9
$CMLJUST
 70
     0
  9
$CMLSCALE
 40
20.0
  9
$PROXYGRAPHICS
 70
     1
  9
$MEASUREMENT
 70
     0
  0
ENDSEC
  0
SECTION
  2
CLASSES
  0
CLASS
  1
HATCH
  2
AcDbHatch
  3
AutoCAD 2000
 90
        0
280
     0
281
     1
  0
CLASS
  1
LWPOLYLINE
  2
AcDbPolyline
  3
AutoCAD 2000
 90
        0
280
     0
281
     1
  0
CLASS
  1
ACDBDICTIONARYWDFLT
  2
AcDbDictionaryWithDefault
  3
AutoCAD 2000
 90
        0
280
     0
281
     0
  0
CLASS
  1
ACDBPLACEHOLDER
  2
AcDbPlaceHolder
  3
AutoCAD 2000
 90
        0
280
     0
281
     0
  0
CLASS
  1
LAYOUT
  2
AcDbLayout
  3
AutoCAD 2000
 90
        0
280
     0
281
     0
  0
CLASS
  1
LONG_TRANSACTION
  2
AcDbLongTransaction
  3
AutoCAD 2000
 90
        0
280
     0
281
     0
  0
CLASS
  1
LWPOLYLINE
  2
AcDbPolyline
  3
AutoCAD 2000
 90
        0
280
     0
281
     1
  0
CLASS
  1
HATCH
  2
AcDbHatch
  3
AutoCAD 2000
 90
        0
280
     0
281
     1
  0
CLASS
  1
XRECORD
  2
AcDbXrecord
  3
AutoCAD 2000
 90
        0
280
     0
281
     0
  0
CLASS
  1
DICTIONARYVAR
  2
AcDbDictionaryVar
  3
AutoCAD 2000
 90
        0
280
     0
281
     0
  0
CLASS
  1
LONG_TRANSACTION
  2
AcDbLongTransaction
  3
AutoCAD 2000
 90
        0
280
     0
281
     0
  0
CLASS
  1
LWPOLYLINE
  2
AcDbPolyline
  3
AutoCAD 2000
 90
        0
280
     0
281
     1
  0
CLASS
  1
HATCH
  2
AcDbHatch
  3
AutoCAD 2000
 90
        0
280
     0
281
     1
  0
CLASS
  1
XRECORD
  2
AcDbXrecord
  3
AutoCAD 2000
 90
        0
280
     0
281
     0
  0
ENDSEC
  0
SECTION
  2
TABLES
  0
TABLE
  2
VPORT
  5
8
330
0
100
AcDbSymbolTable
 70
     2
  0
VPORT
  5
1D612
330
8
100
AcDbSymbolTableRecord
100
AcDbViewportTableRecord
  2
*ACTIVE
 70
     0
 10
0.0
 20
0.0
 11
1.0
 21
1.0
 12
112.595804557694
 22
221.3501872090461
 13
0.0
 23
0.0
 14
10.0
 24
10.0
 15
10.0
 25
10.0
 16
0.0
 26
0.0
 36
1.0
 17
0.0
 27
0.0
 37
0.0
 40
502.7272111729679
 41
1.527918781725888
 42
50.0
 43
0.0
 44
0.0
 50
0.0
 51
0.0
 71
     0
 72
   100
 73
     1
 74
     0
 75
     0
 76
     0
 77
     0
 78
     0
  0
ENDTAB
  0
TABLE
  2
LTYPE
  5
5
330
0
100
AcDbSymbolTable
 70
     7
  0
LTYPE
  5
12
330
5
100
AcDbSymbolTableRecord
100
AcDbLinetypeTableRecord
  2
BYBLOCK
 70
     0
  3

 72
    65
 73
     0
 40
0.0
  0
LTYPE
  5
13
330
5
100
AcDbSymbolTableRecord
100
AcDbLinetypeTableRecord
  2
BYLAYER
 70
     0
  3

 72
    65
 73
     0
 40
0.0
  0
LTYPE
  5
14
330
5
100
AcDbSymbolTableRecord
100
AcDbLinetypeTableRecord
  2
CONTINUOUS
 70
     0
  3
Solid line
 72
    65
 73
     0
 40
0.0
  0
LTYPE
  5
126C
330
5
100
AcDbSymbolTableRecord
100
AcDbLinetypeTableRecord
  2
CENTER
 70
     0
  3
____ _ ____ _ ____ _ ____ _ ____ _ ____ _ ____
 72
    65
 73
     4
 40
2.0
 49
1.25
 74
     0
 49
-0.25
 74
     0
 49
0.25
 74
     0
 49
-0.25
 74
     0
  0
LTYPE
  5
126E
330
5
100
AcDbSymbolTableRecord
100
AcDbLinetypeTableRecord
  2
DASHDOT
 70
     0
  3
__ . __ . __ . __ . __ . __ . __ . __ . __ . __
 72
    65
 73
     4
 40
1.0
 49
0.5
 74
     0
 49
-0.25
 74
     0
 49
0.0
 74
     0
 49
-0.25
 74
     0
  0
LTYPE
  5
15420
330
5
100
AcDbSymbolTableRecord
100
AcDbLinetypeTableRecord
  2
CENTER2
 70
     0
  3
Center (.5x) ___ _ ___ _ ___ _ ___ _ ___ _ ___
 72
    65
 73
     4
 40
1.125
 49
0.75
 74
     0
 49
-0.125
 74
     0
 49
0.125
 74
     0
 49
-0.125
 74
     0
  0
LTYPE
  5
15421
330
5
100
AcDbSymbolTableRecord
100
AcDbLinetypeTableRecord
  2
PHANTOM2
 70
     0
  3
Phantom (.5x) ___ _ _ ___ _ _ ___ _ _ ___ _ _
 72
    65
 73
     6
 40
1.25
 49
0.625
 74
     0
 49
-0.125
 74
     0
 49
0.125
 74
     0
 49
-0.125
 74
     0
 49
0.125
 74
     0
 49
-0.125
 74
     0
  0
LTYPE
  5
1AB5E
330
5
100
AcDbSymbolTableRecord
100
AcDbLinetypeTableRecord
  2
HIDDEN2
 70
     0
  3
Hidden (.5x) _ _ _ _ _ _ _ _ _ _ _ _ _ _ _ _ _
 72
    65
 73
     2
 40
0.1875
 49
0.125
 74
     0
 49
-0.0625
 74
     0
  0
LTYPE
  5
1C412
330
5
100
AcDbSymbolTableRecord
100
AcDbLinetypeTableRecord
  2
PHANTOM
 70
     0
  3
Phantom ______  __  __  ______  __  __  ______
 72
    65
 73
     6
 40
2.5
 49
1.25
 74
     0
 49
-0.25
 74
     0
 49
0.25
 74
     0
 49
-0.25
 74
     0
 49
0.25
 74
     0
 49
-0.25
 74
     0
  0
ENDTAB
  0
TABLE
  2
LAYER
  5
2
330
0
100
AcDbSymbolTable
 70
    17
  0
LAYER
  5
E
330
2
100
AcDbSymbolTableRecord
100
AcDbLayerTableRecord
  2
0
 70
     2
 62
     7
  6
CONTINUOUS
  0
LAYER
  5
2C
330
2
100
AcDbSymbolTableRecord
100
AcDbLayerTableRecord
  2
M_VIEW
 70
     4
 62
    -1
  6
CONTINUOUS
  0
LAYER
  5
30
330
2
100
AcDbSymbolTableRecord
100
AcDbLayerTableRecord
  2
FRAME025
 70
     0
 62
     7
  6
CONTINUOUS
  0
LAYER
  5
12B
330
2
100
AcDbSymbolTableRecord
100
AcDbLayerTableRecord
  2
DEFPOINTS
 70
     4
 62
    -7
  6
CONTINUOUS
  0
LAYER
  5
651
330
2
100
AcDbSymbolTableRecord
100
AcDbLayerTableRecord
  2
FRAME020
 70
     0
 62
     7
  6
CONTINUOUS
  0
LAYER
  5
1271
330
2
100
AcDbSymbolTableRecord
100
AcDbLayerTableRecord
  2
A
 70
     0
 62
     7
  6
CONTINUOUS
  0
LAYER
  5
A9BB
330
2
100
AcDbSymbolTableRecord
100
AcDbLayerTableRecord
  2
文字
 70
     0
 62
     7
  6
CONTINUOUS
  0
LAYER
  5
12163
330
2
100
AcDbSymbolTableRecord
100
AcDbLayerTableRecord
  2
寸法線
 70
     0
 62
     7
  6
CONTINUOUS
  0
LAYER
  5
122DE
330
2
100
AcDbSymbolTableRecord
100
AcDbLayerTableRecord
  2
DIMENSION
 70
     0
 62
     7
  6
CONTINUOUS
  0
LAYER
  5
15422
330
2
100
AcDbSymbolTableRecord
100
AcDbLayerTableRecord
  2
細線
 70
     0
 62
     7
  6
CONTINUOUS
  0
LAYER
  5
15423
330
2
100
AcDbSymbolTableRecord
100
AcDbLayerTableRecord
  2
CENTER
 70
     0
 62
     7
  6
CENTER
  0
LAYER
  5
15425
330
2
100
AcDbSymbolTableRecord
100
AcDbLayerTableRecord
  2
中心線
 70
     0
 62
     7
  6
CENTER2
  0
LAYER
  5
15426
330
2
100
AcDbSymbolTableRecord
100
AcDbLayerTableRecord
  2
仮想線
 70
     0
 62
     7
  6
PHANTOM2
  0
LAYER
  5
1AB5F
330
2
100
AcDbSymbolTableRecord
100
AcDbLayerTableRecord
  2
破線
 70
     0
 62
     7
  6
HIDDEN2
  0
LAYER
  5
1C413
330
2
100
AcDbSymbolTableRecord
100
AcDbLayerTableRecord
  2
２点鎖線
 70
     0
 62
     7
  6
PHANTOM
  0
LAYER
  5
1C7F0
330
2
100
AcDbSymbolTableRecord
100
AcDbLayerTableRecord
  2
ｷｬｯﾌ_ﾎ_ﾙﾄ
 70
     0
 62
     7
  6
CONTINUOUS
  0
ENDTAB
  0
TABLE
  2
STYLE
  5
3
330
0
100
AcDbSymbolTable
 70
     4
  0
STYLE
  5
F
330
3
100
AcDbSymbolTableRecord
100
AcDbTextStyleTableRecord
  2
STANDARD
 70
     0
 40
0.0
 41
1.0
 50
0.0
 71
     0
 42
2.5
  3
isocp.shx
  4
bigfont.shx
  0
STYLE
  5
35
330
3
100
AcDbSymbolTableRecord
100
AcDbTextStyleTableRecord
  2
MSｺ_ｼｯｸ
 70
     0
 40
0.0
 41
1.0
 50
0.0
 71
     0
 42
5.0
  3
MS Gothic.ttf
  4

1001
ACAD
1000
MS Gothic
1071
    32817
  0
STYLE
  5
1275
330
3
100
AcDbSymbolTableRecord
100
AcDbTextStyleTableRecord
  2
BIGFONT
 70
     0
 40
2.0
 41
1.0
 50
0.0
 71
     0
 42
2.0
  3
txt.shx
  4
bigfont.shx
  0
ENDTAB
  0
TABLE
  2
VIEW
  5
6
330
0
100
AcDbSymbolTable
 70
     0
  0
ENDTAB
  0
TABLE
  2
UCS
  5
7
330
0
100
AcDbSymbolTable
 70
     0
  0
ENDTAB
  0
TABLE
  2
APPID
  5
9
330
0
100
AcDbSymbolTable
 70
     3
  0
APPID
  5
10
330
9
100
AcDbSymbolTableRecord
100
AcDbRegAppTableRecord
  2
ACAD
 70
     0
  0
APPID
  5
F013
330
9
100
AcDbSymbolTableRecord
100
AcDbRegAppTableRecord
  2
CONTENTBLOCKDESCRIPTION
 70
     0
  0
APPID
  5
F014
330
9
100
AcDbSymbolTableRecord
100
AcDbRegAppTableRecord
  2
CONTENTBLOCKICON
 70
     0
  0
ENDTAB
  0
TABLE
  2
DIMSTYLE
  5
A
330
0
100
AcDbSymbolTable
 70
     2
  0
DIMSTYLE
105
1D
330
A
100
AcDbSymbolTableRecord
100
AcDbDimStyleTableRecord
  2
STANDARD
 70
     0
  3

  4

  5

  6

  7

 40
1.0
 41
0.18
 42
0.0625
 43
0.38
 44
0.18
 45
0.0
 46
0.0
 47
0.0
 48
0.0
140
0.18
141
0.09
142
0.0
143
25.4
144
1.0
145
0.0
146
1.0
147
0.09
 71
     0
 72
     0
 73
     1
 74
     1
 75
     0
 76
     0
 77
     0
 78
     0
170
     0
171
     2
172
     0
173
     0
174
     0
175
     0
176
     0
177
     0
178
     0
270
     2
271
     4
272
     4
273
     2
274
     2
340
F
275
     0
280
     0
281
     0
282
     0
283
     1
284
     0
285
     0
286
     0
287
     3
288
     0
  0
DIMSTYLE
105
1542A
102
{ACAD_REACTORS
330
1596E
330
15C35
330
1588C
330
158FF
330
158FE
330
15ABA
330
1A3D1
330
1B8CF
102
}
330
A
100
AcDbSymbolTableRecord
100
AcDbDimStyleTableRecord
  2
STD_M_
 70
     0
  3

  4

  5
OPEN30
  6
OPEN30
  7
OPEN
 40
2.0
 41
3.5
 42
1.0
 43
6.5
 44
1.0
 45
0.005
 46
0.0
 47
0.0
 48
0.0
140
3.5
141
2.5
142
0.0
143
0.0394
144
1.0
145
0.0
146
1.0
147
0.75
 71
     0
 72
     0
 73
     0
 74
     0
 75
     0
 76
     0
 77
     1
 78
     9
170
     0
171
     4
172
     1
173
     0
174
     0
175
     0
176
     3
177
     3
178
     2
270
     2
271
     2
272
     2
273
     8
274
     4
340
F
275
     0
280
     0
281
     0
282
     0
283
     1
284
     9
285
     0
286
     0
287
     3
288
     0
  0
ENDTAB
  0
TABLE
  2
BLOCK_RECORD
  5
1
330
0
100
AcDbSymbolTable
 70
    43
  0
BLOCK_RECORD
  5
18
102
{ACAD_XDICTIONARY
360
EFC6
102
}
330
1
100
AcDbSymbolTableRecord
100
AcDbBlockTableRecord
  2
*MODEL_SPACE
  0
BLOCK_RECORD
  5
15
102
{ACAD_XDICTIONARY
360
EFC4
102
}
330
1
100
AcDbSymbolTableRecord
100
AcDbBlockTableRecord
  2
*PAPER_SPACE
  0
BLOCK_RECORD
  5
115C
330
1
100
AcDbSymbolTableRecord
100
AcDbBlockTableRecord
  2
機械A4横_LBP
  0
BLOCK_RECORD
  5
1215D
330
1
100
AcDbSymbolTableRecord
100
AcDbBlockTableRecord
  2
_OPEN30
  0
BLOCK_RECORD
  5
15351
330
1
100
AcDbSymbolTableRecord
100
AcDbBlockTableRecord
  2
_OPEN
  0
ENDTAB
  0
ENDSEC
  0
SECTION
  2
BLOCKS
  0
BLOCK
  5
19
330
18
100
AcDbEntity
  8
0
100
AcDbBlockBegin
  2
*MODEL_SPACE
 70
     0
 10
0.0
 20
0.0
 30
0.0
  3
*MODEL_SPACE
  1

  0
ENDBLK
  5
1A
330
18
100
AcDbEntity
  8
0
100
AcDbBlockEnd
  0
BLOCK
  5
16
330
15
100
AcDbEntity
 67
     1
  8
0
100
AcDbBlockBegin
  2
*PAPER_SPACE
 70
     0
 10
0.0
 20
0.0
 30
0.0
  3
*PAPER_SPACE
  1

  0
ENDBLK
  5
17
330
15
100
AcDbEntity
 67
     1
  8
0
100
AcDbBlockEnd
  0
BLOCK
  5
115D
330
115C
100
AcDbEntity
  8
0
100
AcDbBlockBegin
  2
機械A4横_LBP
 70
     0
 10
0.0
 20
0.0
 30
0.0
  3
機械A4横_LBP
  1

  0
ENDBLK
  5
115E
330
115C
100
AcDbEntity
  8
0
100
AcDbBlockEnd
  0
BLOCK
  5
12161
330
1215D
100
AcDbEntity
  8
0
100
AcDbBlockBegin
  2
_OPEN30
 70
     0
 10
0.0
 20
0.0
 30
0.0
  3
_OPEN30
  1

  0
LINE
  5
1215E
330
1215D
100
AcDbEntity
  8
0
  6
BYBLOCK
 62
     0
100
AcDbLine
 10
-1.0
 20
0.26794919
 30
0.0
 11
0.0
 21
0.0
 31
0.0
  0
LINE
  5
1215F
330
1215D
100
AcDbEntity
  8
0
  6
BYBLOCK
 62
     0
100
AcDbLine
 10
0.0
 20
0.0
 30
0.0
 11
-1.0
 21
-0.26794919
 31
0.0
  0
LINE
  5
12160
330
1215D
100
AcDbEntity
  8
0
  6
BYBLOCK
 62
     0
100
AcDbLine
 10
0.0
 20
0.0
 30
0.0
 11
-1.0
 21
0.0
 31
0.0
  0
ENDBLK
  5
12162
330
1215D
100
AcDbEntity
  8
0
100
AcDbBlockEnd
  0
BLOCK
  5
15355
330
15351
100
AcDbEntity
  8
0
100
AcDbBlockBegin
  2
_OPEN
 70
     0
 10
0.0
 20
0.0
 30
0.0
  3
_OPEN
  1

  0
LINE
  5
15352
330
15351
100
AcDbEntity
  8
0
  6
BYBLOCK
 62
     0
100
AcDbLine
 10
-1.0
 20
0.1666666666666666
 30
0.0
 11
0.0
 21
0.0
 31
0.0
  0
LINE
  5
15353
330
15351
100
AcDbEntity
  8
0
  6
BYBLOCK
 62
     0
100
AcDbLine
 10
-1.0
 20
-0.1666666666666666
 30
0.0
 11
0.0
 21
0.0
 31
0.0
  0
LINE
  5
15354
330
15351
100
AcDbEntity
  8
0
  6
BYBLOCK
 62
     0
100
AcDbLine
 10
0.0
 20
0.0
 30
0.0
 11
-1.0
 21
0.0
 31
0.0
  0
ENDBLK
  5
15356
330
15351
100
AcDbEntity
  8
0
100
AcDbBlockEnd
  0
ENDSEC
  0
SECTION
  2
ENTITIES
  0
INSERT
  5
1160
330
18
100
AcDbEntity
  8
FRAME025
100
AcDbBlockReference
  2
機械A4横_LBP
 10
76.00059629174575
 20
114.4379043572399
 30
0.0
  0
MTEXT
  5
1405
330
18
100
AcDbEntity
  8
0
  6
DASHDOT
100
AcDbMText
 10
173.682726410024
 20
430.5785054452221
 30
0.0
 40
1.0
 41
2.0
 71
     1
 72
     5
  1

  7
BIGFONT
1001
ACAD
1000
MTEXTBEGIN
1070
    73
1070
     1
1070
    44
1040
1.0
1070
    74
1070
     0
1000
MTEXTEND
1000
MTEXTBEGIN
1070
    73
1070
     1
1070
    44
1040
1.0
1070
    74
1070
     0
1000
MTEXTEND
  0
MTEXT
  5
1406
330
18
100
AcDbEntity
  8
0
  6
CENTER
100
AcDbMText
 10
411.3606673541956
 20
323.7890106174461
 30
0.0
 40
2.0
 41
15.6417
 71
     1
 72
     5
  1

  7
BIGFONT
1001
ACAD
1000
MTEXTBEGIN
1070
    73
1070
     1
1070
    44
1040
1.0
1070
    74
1070
     0
1000
MTEXTEND
1000
MTEXTBEGIN
1070
    73
1070
     1
1070
    44
1040
1.0
1070
    74
1070
     0
1000
MTEXTEND
  0
MTEXT
  5
1407
330
18
100
AcDbEntity
  8
0
100
AcDbMText
 10
85.77239017043272
 20
222.8564838730205
 30
0.0
 40
2.0
 41
0.0
 71
     1
 72
     5
  1

1001
ACAD
1000
MTEXTBEGIN
1070
    73
1070
     1
1070
    44
1040
1.0
1070
    74
1070
     0
1000
MTEXTEND
1000
MTEXTBEGIN
1070
    73
1070
     1
1070
    44
1040
1.0
1070
    74
1070
     0
1000
MTEXTEND
  0
MTEXT
  5
1408
330
18
100
AcDbEntity
  8
0
100
AcDbMText
 10
130.1718819235825
 20
254.48796746601
 30
0.0
 40
2.0
 41
10.1453
 71
     1
 72
     5
  1

 11
-0.0000000000000002
 21
-1.0
 31
0.0
1001
ACAD
1000
MTEXTBEGIN
1070
    73
1070
     1
1070
    44
1040
1.0
1070
    74
1070
     0
1000
MTEXTEND
1000
MTEXTBEGIN
1070
    73
1070
     1
1070
    44
1040
1.0
1070
    74
1070
     0
1000
MTEXTEND
  0
MTEXT
  5
142F
330
18
100
AcDbEntity
  8
0
  6
BYBLOCK
100
AcDbMText
 10
165.9513799082503
 20
329.2674780082993
 30
0.0
 40
2.0
 41
0.0
 71
     7
 72
     5
  1

 11
0.0000000000000001
 21
1.0
 31
0.0
1001
ACAD
1000
MTEXTBEGIN
1070
    73
1070
     1
1070
    44
1040
1.0
1070
    74
1070
     0
1000
MTEXTEND
1000
MTEXTBEGIN
1070
    73
1070
     1
1070
    44
1040
1.0
1070
    74
1070
     0
1000
MTEXTEND
  0
MTEXT
  5
1430
330
18
100
AcDbEntity
  8
0
  6
BYBLOCK
100
AcDbMText
 10
130.4859915450975
 20
340.0607863667167
 30
0.0
 40
2.0
 41
0.0
 71
     4
 72
     5
  1

 11
-0.0000000000000002
 21
-1.0
 31
0.0
1001
ACAD
1000
MTEXTBEGIN
1070
    73
1070
     1
1070
    44
1040
1.0
1070
    74
1070
     0
1000
MTEXTEND
1000
MTEXTBEGIN
1070
    73
1070
     1
1070
    44
1040
1.0
1070
    74
1070
     0
1000
MTEXTEND
  0
MTEXT
  5
1532
330
18
100
AcDbEntity
  8
0
  6
DASHDOT
100
AcDbMText
 10
173.6828134149741
 20
430.5785054452221
 30
0.0
 40
1.0
 41
2.0
 71
     1
 72
     5
  1

  7
BIGFONT
1001
ACAD
1000
MTEXTBEGIN
1070
    73
1070
     1
1070
    44
1040
1.0
1070
    74
1070
     0
1000
MTEXTEND
1000
MTEXTBEGIN
1070
    73
1070
     1
1070
    44
1040
1.0
1070
    74
1070
     0
1000
MTEXTEND
  0
MTEXT
  5
1533
330
18
100
AcDbEntity
  8
0
  6
CENTER
100
AcDbMText
 10
411.3607543591458
 20
323.7890106174461
 30
0.0
 40
2.0
 41
15.6417
 71
     1
 72
     5
  1

  7
BIGFONT
1001
ACAD
1000
MTEXTBEGIN
1070
    73
1070
     1
1070
    44
1040
1.0
1070
    74
1070
     0
1000
MTEXTEND
1000
MTEXTBEGIN
1070
    73
1070
     1
1070
    44
1040
1.0
1070
    74
1070
     0
1000
MTEXTEND
  0
MTEXT
  5
1534
330
18
100
AcDbEntity
  8
0
100
AcDbMText
 10
85.77247717538298
 20
222.8564838730205
 30
0.0
 40
2.0
 41
0.0
 71
     1
 72
     5
  1

1001
ACAD
1000
MTEXTBEGIN
1070
    73
1070
     1
1070
    44
1040
1.0
1070
    74
1070
     0
1000
MTEXTEND
1000
MTEXTBEGIN
1070
    73
1070
     1
1070
    44
1040
1.0
1070
    74
1070
     0
1000
MTEXTEND
  0
MTEXT
  5
1535
330
18
100
AcDbEntity
  8
0
100
AcDbMText
 10
130.1719689285329
 20
254.48796746601
 30
0.0
 40
2.0
 41
10.1453
 71
     1
 72
     5
  1

 11
-0.0000000000000002
 21
-1.0
 31
0.0
1001
ACAD
1000
MTEXTBEGIN
1070
    73
1070
     1
1070
    44
1040
1.0
1070
    74
1070
     0
1000
MTEXTEND
1000
MTEXTBEGIN
1070
    73
1070
     1
1070
    44
1040
1.0
1070
    74
1070
     0
1000
MTEXTEND
  0
MTEXT
  5
155C
330
18
100
AcDbEntity
  8
0
  6
BYBLOCK
100
AcDbMText
 10
165.9514669132005
 20
329.2674780082993
 30
0.0
 40
2.0
 41
0.0
 71
     7
 72
     5
  1

 11
0.0000000000000001
 21
1.0
 31
0.0
1001
ACAD
1000
MTEXTBEGIN
1070
    73
1070
     1
1070
    44
1040
1.0
1070
    74
1070
     0
1000
MTEXTEND
1000
MTEXTBEGIN
1070
    73
1070
     1
1070
    44
1040
1.0
1070
    74
1070
     0
1000
MTEXTEND
  0
MTEXT
  5
155D
330
18
100
AcDbEntity
  8
0
  6
BYBLOCK
100
AcDbMText
 10
130.4860785500478
 20
340.0607863667167
 30
0.0
 40
2.0
 41
0.0
 71
     4
 72
     5
  1

 11
-0.0000000000000002
 21
-1.0
 31
0.0
1001
ACAD
1000
MTEXTBEGIN
1070
    73
1070
     1
1070
    44
1040
1.0
1070
    74
1070
     0
1000
MTEXTEND
1000
MTEXTBEGIN
1070
    73
1070
     1
1070
    44
1040
1.0
1070
    74
1070
     0
1000
MTEXTEND
  0
TEXT
  5
2279
330
18
100
AcDbEntity
  8
A
100
AcDbText
 10
-27.8188103732038
 20
322.0637567728283
 30
0.0
 40
3.524999999999999
  1
�    
100
AcDbText
  0
TEXT
  5
2283
330
18
100
AcDbEntity
  8
A
100
AcDbText
 10
-175.7439103235753
 20
-107.9032633455339
 30
0.0
 40
2.5
  1

 41
0.5
  7
MSｺ_ｼｯｸ
100
AcDbText
  0
TEXT
  5
2293
330
18
100
AcDbEntity
  8
A
100
AcDbText
 10
-167.9189103235753
 20
-107.9032633455339
 30
0.0
 40
2.5
  1

  7
MSｺ_ｼｯｸ
100
AcDbText
  0
LINE
  5
15869
330
18
100
AcDbEntity
  8
0
100
AcDbLine
 10
178.3111705283134
 20
105.6481240147664
 30
0.0
 11
178.3111705283126
 21
26.74812401476831
 31
0.0
  0
LINE
  5
1586A
330
18
100
AcDbEntity
  8
破線
100
AcDbLine
 10
18.81117052831347
 20
107.9481238973452
 30
0.0
 11
18.81117052831337
 21
6.948124014767273
 31
0.0
  0
LINE
  5
1586B
330
18
100
AcDbEntity
  8
破線
100
AcDbLine
 10
83.81117052831346
 20
107.9481238973452
 30
0.0
 11
83.81117052831312
 21
6.948124014767245
 31
0.0
  0
LINE
  5
1586C
330
18
100
AcDbEntity
  8
0
100
AcDbLine
 10
-75.68882947168657
 20
105.6481240147665
 30
0.0
 11
-75.68882947168686
 21
25.74812401476828
 31
0.0
  0
LINE
  5
15870
330
18
100
AcDbEntity
  8
中心線
100
AcDbLine
 10
51.31117052831348
 20
145.7934244338429
 30
0.0
 11
51.31117052831337
 21
-3.958378909662371
 31
0.0
  0
LINE
  5
15873
330
18
100
AcDbEntity
  8
0
100
AcDbLine
 10
-75.68882947168657
 20
105.6481240147665
 30
0.0
 11
178.3111705283134
 21
105.6481240147664
 31
0.0
  0
LINE
  5
15874
330
18
100
AcDbEntity
  8
0
100
AcDbLine
 10
-75.68882947168657
 20
105.1481240147665
 30
0.0
 11
178.3111705283134
 21
105.1481240147665
 31
0.0
  0
LINE
  5
15875
330
18
100
AcDbEntity
  8
0
100
AcDbLine
 10
-41.18882947168652
 20
106.9481238973493
 30
0.0
 11
143.8111705283134
 21
106.9481238973474
 31
0.0
  0
LINE
  5
15876
330
18
100
AcDbEntity
  8
0
100
AcDbLine
 10
-29.1888294716864
 20
109.9481238973452
 30
0.0
 11
131.8111705283117
 21
109.9481238973452
 31
0.0
  0
LINE
  5
1587C
330
18
100
AcDbEntity
  8
中心線
100
AcDbLine
 10
51.31117052831347
 20
446.6614262630981
 30
0.0
 11
51.31117052831347
 21
162.5195861638
 31
0.0
  0
ARC
  5
1587E
330
18
100
AcDbEntity
  8
中心線
100
AcDbCircle
 10
51.3111705283136
 20
304.8527994879977
 30
0.0
 40
75.00000000000074
100
AcDbArc
 50
281.4910527402732
 51
258.6904904598785
  0
CIRCLE
  5
15880
330
18
100
AcDbEntity
  8
0
100
AcDbCircle
 10
51.3111705283136
 20
304.8527994879977
 30
0.0
 40
80.99999999999964
  0
CIRCLE
  5
15881
330
18
100
AcDbEntity
  8
0
100
AcDbCircle
 10
51.3111705283136
 20
304.8527994879977
 30
0.0
 40
92.34999999999994
  0
CIRCLE
  5
158D6
330
18
100
AcDbEntity
  8
細線
100
AcDbCircle
 10
28.93664051296623
 20
221.7871726568127
 30
0.0
 40
4.25
  0
CIRCLE
  5
158D7
330
18
100
AcDbEntity
  8
0
100
AcDbCircle
 10
28.93664051296623
 20
221.7871726568127
 30
0.0
 40
4.75
  0
LWPOLYLINE
  5
158D9
330
18
100
AcDbEntity
  8
細線
100
AcDbPolyline
 90
        6
 70
     1
 43
0.0
 10
26.70558146507264
 20
221.1907511745538
 10
28.33762285109287
 20
219.5568072396049
 10
30.5686805001283
 20
220.1532245724517
 10
31.16769676314369
 20
222.383585840247
 10
29.53565537712346
 20
224.0175297751959
 10
27.30459772808845
 20
223.4211124423493
  0
LINE
  5
158DA
330
18
100
AcDbEntity
  8
中心線
100
AcDbLine
 10
16.53403966471693
 20
244.4325030592164
 30
0.0
 11
10.64243008437449
 21
234.3704653121148
 31
0.0
  0
CIRCLE
  5
158DB
330
18
100
AcDbEntity
  8
細線
100
AcDbCircle
 10
13.82070243081989
 20
239.8954006148986
 30
0.0
 40
4.0
  0
CIRCLE
  5
158DC
330
18
100
AcDbEntity
  8
0
100
AcDbCircle
 10
13.82070243081989
 20
239.8954006148986
 30
0.0
 40
3.0
  0
LWPOLYLINE
  5
158EE
330
18
100
AcDbEntity
  8
細線
100
AcDbPolyline
 90
        6
 70
     1
 43
0.0
 10
71.81956570215112
 20
220.1292916436015
 10
74.04992696994678
 20
219.5302753805864
 10
75.68387090489571
 20
221.1623167666066
 10
75.08745357204921
 20
223.3933744156415
 10
72.8570923042537
 20
223.9923906786574
 10
71.22314836930498
 20
222.3603492926366
  0
CIRCLE
  5
158EF
330
18
100
AcDbEntity
  8
細線
100
AcDbCircle
 10
73.45350877384112
 20
221.7613373225471
 30
0.0
 40
4.25
  0
CIRCLE
  5
158F1
330
18
100
AcDbEntity
  8
0
100
AcDbCircle
 10
73.45350877384112
 20
221.7613373225471
 30
0.0
 40
4.75
  0
LWPOLYLINE
  5
158F2
330
18
100
AcDbEntity
  8
細線
100
AcDbPolyline
 90
        6
 70
     1
 43
0.0
 10
114.3201132516082
 20
244.666994211987
 10
113.7236959187615
 20
242.4359365629515
 10
111.493334650966
 20
241.8369202999364
 10
109.8593907160174
 20
243.4689616859564
 10
110.4558080488635
 20
245.7000193349921
 10
112.6861693166592
 20
246.2990355980068
  0
CIRCLE
  5
158F4
330
18
100
AcDbEntity
  8
0
100
AcDbCircle
 10
112.0897486976601
 20
244.0679808430389
 30
0.0
 40
4.75
  0
CIRCLE
  5
158F5
330
18
100
AcDbEntity
  8
細線
100
AcDbCircle
 10
112.0897486976601
 20
244.0679808430389
 30
0.0
 40
4.25
  0
CIRCLE
  5
158F9
330
18
100
AcDbEntity
  8
細線
100
AcDbCircle
 10
88.75922996089959
 20
239.870933981276
 30
0.0
 40
4.0
  0
LINE
  5
158FA
330
18
100
AcDbEntity
  8
中心線
100
AcDbLine
 10
86.04589272700229
 20
244.4080364255936
 30
0.0
 11
91.93750230734474
 21
234.3459986784915
 31
0.0
  0
CIRCLE
  5
158FB
330
18
100
AcDbEntity
  8
0
100
AcDbCircle
 10
88.75922996089959
 20
239.870933981276
 30
0.0
 40
3.0
  0
LWPOLYLINE
  5
15914
330
18
100
AcDbEntity
  8
細線
100
AcDbPolyline
 90
        6
 70
     1
 43
0.0
 10
135.9458987560144
 20
284.2184198226675
 10
136.5436205297247
 20
281.9877112918478
 10
134.910631160451
 20
280.3547147860101
 10
132.679920017468
 20
280.9524268109918
 10
132.0821982437577
 20
283.1831353418116
 10
133.7151876130311
 20
284.8161318476492
  0
CIRCLE
  5
15915
330
18
100
AcDbEntity
  8
細線
100
AcDbCircle
 10
134.3129050943179
 20
282.5854241825803
 30
0.0
 40
4.25
  0
CIRCLE
  5
15917
330
18
100
AcDbEntity
  8
0
100
AcDbCircle
 10
134.3129050943179
 20
282.5854241825803
 30
0.0
 40
4.75
  0
LINE
  5
15967
330
18
100
AcDbEntity
  8
0
100
AcDbLine
 10
-41.18882947168652
 20
106.9481238973493
 30
0.0
 11
-41.18882947168652
 21
105.6481240147665
 31
0.0
  0
LINE
  5
15968
330
18
100
AcDbEntity
  8
0
100
AcDbLine
 10
-29.68882947168651
 20
109.4481238973451
 30
0.0
 11
-29.68882947168651
 21
106.9481238973492
 31
0.0
  0
LINE
  5
1596A
330
18
100
AcDbEntity
  8
0
100
AcDbLine
 10
-29.68882947168651
 20
109.4481238973451
 30
0.0
 11
-29.18882947168651
 21
109.9481238973451
 31
0.0
  0
LINE
  5
15970
330
18
100
AcDbEntity
  8
中心線
100
AcDbLine
 10
-79.8667977722024
 20
304.8527994879977
 30
0.0
 11
182.565896851225
 21
304.8527994879971
 31
0.0
  0
CIRCLE
  5
15988
102
{ACAD_REACTORS
330
1C526
102
}
330
18
100
AcDbEntity
  8
0
100
AcDbCircle
 10
31.18002389103935
 20
339.4586750038273
 30
0.0
 40
5.5
  0
CIRCLE
  5
15996
330
18
100
AcDbEntity
  8
細線
100
AcDbCircle
 10
-23.6888294716873
 20
304.8527994879977
 30
0.0
 40
4.0
  0
CIRCLE
  5
15999
330
18
100
AcDbEntity
  8
0
100
AcDbCircle
 10
-9.603180630743665
 20
244.0679808430389
 30
0.0
 40
4.75
  0
CIRCLE
  5
1599A
330
18
100
AcDbEntity
  8
細線
100
AcDbCircle
 10
-9.603180630743665
 20
244.0679808430389
 30
0.0
 40
4.25
  0
LWPOLYLINE
  5
1599B
330
18
100
AcDbEntity
  8
細線
100
AcDbPolyline
 90
        6
 70
     1
 43
0.0
 10
-11.83354518469201
 20
244.666994211987
 10
-11.2371278518453
 20
242.4359365629515
 10
-9.006766584049612
 20
241.8369202999364
 10
-7.372822649101093
 20
243.4689616859564
 10
-7.969239981947196
 20
245.7000193349918
 10
-10.19960124974286
 20
246.2990355980068
  0
CIRCLE
  5
1599C
330
18
100
AcDbEntity
  8
0
100
AcDbCircle
 10
-23.6888294716873
 20
304.8527994879977
 30
0.0
 40
3.0
  0
CIRCLE
  5
159A2
330
18
100
AcDbEntity
  8
細線
100
AcDbCircle
 10
-31.81340537112662
 20
282.5372185409053
 30
0.0
 40
4.25
  0
CIRCLE
  5
159A3
330
18
100
AcDbEntity
  8
0
100
AcDbCircle
 10
-31.81340537112662
 20
282.5372185409053
 30
0.0
 40
4.75
  0
LWPOLYLINE
  5
159A4
330
18
100
AcDbEntity
  8
細線
100
AcDbPolyline
 90
        6
 70
     1
 43
0.0
 10
-32.40982685338514
 20
280.3061594930117
 10
-34.04377078833405
 20
281.9382008790318
 10
-33.44735345548737
 20
284.1692585280675
 10
-31.2169921876922
 20
284.7682747910825
 10
-29.58304825274316
 20
283.1362334050628
 10
-30.17946558558981
 20
280.9051757560272
  0
CIRCLE
  5
159C8
330
18
100
AcDbEntity
  8
細線
100
AcDbCircle
 10
13.82070243081989
 20
369.8101983610956
 30
0.0
 40
4.0
  0
LINE
  5
159C9
330
18
100
AcDbEntity
  8
中心線
100
AcDbLine
 10
16.53403966471693
 20
365.2730959167783
 30
0.0
 11
10.64243008437449
 21
375.3351336638802
 31
0.0
  0
CIRCLE
  5
159CA
330
18
100
AcDbEntity
  8
細線
100
AcDbCircle
 10
-31.8263370274011
 20
327.1022999402144
 30
0.0
 40
4.25
  0
CIRCLE
  5
159CB
330
18
100
AcDbEntity
  8
0
100
AcDbCircle
 10
-31.8263370274011
 20
327.1022999402144
 30
0.0
 40
4.75
  0
LWPOLYLINE
  5
159CD
330
18
100
AcDbEntity
  8
細線
100
AcDbPolyline
 90
        6
 70
     1
 43
0.0
 10
-33.45933068909806
 20
325.4693043001268
 10
-34.05705246280823
 20
327.7000128309467
 10
-32.42406309353498
 20
329.3330093367841
 10
-30.19335195055139
 20
328.7352973118028
 10
-29.59563017684124
 20
326.5045887809831
 10
-31.22861954611487
 20
324.8715922751451
  0
CIRCLE
  5
159CE
330
18
100
AcDbEntity
  8
0
100
AcDbCircle
 10
13.82070243081989
 20
369.8101983610956
 30
0.0
 40
3.0
  0
CIRCLE
  5
159E3
330
18
100
AcDbEntity
  8
細線
100
AcDbCircle
 10
31.89974214562496
 20
377.2972364596786
 30
0.0
 40
2.0
  0
CIRCLE
  5
159E4
330
18
100
AcDbEntity
  8
細線
100
AcDbCircle
 10
31.89974214562496
 20
377.2972364596786
 30
0.0
 40
2.5
  0
LWPOLYLINE
  5
159E6
330
18
100
AcDbEntity
  8
細線
100
AcDbPolyline
 90
        6
 70
     1
 43
0.0
 10
-11.83354518469188
 20
365.0207299108068
 10
-11.23712785184524
 20
367.2517875598424
 10
-9.006766584049685
 20
367.8508038228575
 10
-7.372822649101037
 20
366.2187624368374
 10
-7.96923998194731
 20
363.9877047878022
 10
-10.19960124974284
 20
363.3886885247871
  0
CIRCLE
  5
159E7
330
18
100
AcDbEntity
  8
細線
100
AcDbCircle
 10
-9.603180630743722
 20
365.6197432797557
 30
0.0
 40
4.25
  0
CIRCLE
  5
159E8
330
18
100
AcDbEntity
  8
0
100
AcDbCircle
 10
-9.603180630743722
 20
365.6197432797557
 30
0.0
 40
4.75
  0
CIRCLE
  5
159EA
330
18
100
AcDbEntity
  8
細線
100
AcDbCircle
 10
88.75922996089959
 20
369.8346649947187
 30
0.0
 40
4.0
  0
LINE
  5
159EB
330
18
100
AcDbEntity
  8
中心線
100
AcDbLine
 10
86.04589272700229
 20
365.2975625504008
 30
0.0
 11
91.93750230734474
 21
375.3596002975031
 31
0.0
  0
CIRCLE
  5
159EC
330
18
100
AcDbEntity
  8
0
100
AcDbCircle
 10
88.75922996089959
 20
369.8346649947187
 30
0.0
 40
3.0
  0
LWPOLYLINE
  5
159ED
330
18
100
AcDbEntity
  8
細線
100
AcDbPolyline
 90
        6
 70
     1
 43
0.0
 10
30.66700236476531
 20
389.5584324791925
 10
28.43664109696966
 20
390.1574487422077
 10
26.80269716202071
 20
388.5254073561872
 10
27.39911449486722
 20
386.2943497071523
 10
29.62947576266248
 20
385.6953334441369
 10
31.26341969761142
 20
387.3273748301571
  0
CIRCLE
  5
159EE
330
18
100
AcDbEntity
  8
細線
100
AcDbCircle
 10
29.0330592930753
 20
387.9263868002476
 30
0.0
 40
4.25
  0
CIRCLE
  5
159EF
330
18
100
AcDbEntity
  8
0
100
AcDbCircle
 10
29.0330592930753
 20
387.9263868002476
 30
0.0
 40
4.75
  0
LWPOLYLINE
  5
15A1D
330
18
100
AcDbEntity
  8
細線
100
AcDbPolyline
 90
        6
 70
     1
 43
0.0
 10
134.8963949203012
 20
329.3815646297827
 10
136.53033885525
 20
327.7495232437623
 10
135.9339215224034
 20
325.5184655947268
 10
133.7035602546082
 20
324.9194493317117
 10
132.0696163196594
 20
326.5514907177315
 10
132.6660336525059
 20
328.7825483667671
  0
CIRCLE
  5
15A1E
330
18
100
AcDbEntity
  8
細線
100
AcDbCircle
 10
134.2999734380431
 20
327.1505055818891
 30
0.0
 40
4.25
  0
CIRCLE
  5
15A1F
330
18
100
AcDbEntity
  8
0
100
AcDbCircle
 10
134.2999734380431
 20
327.1505055818891
 30
0.0
 40
4.75
  0
CIRCLE
  5
15A24
330
18
100
AcDbEntity
  8
細線
100
AcDbCircle
 10
126.3111705283143
 20
304.8527994879977
 30
0.0
 40
4.0
  0
CIRCLE
  5
15A25
330
18
100
AcDbEntity
  8
0
100
AcDbCircle
 10
126.3111705283143
 20
304.8527994879977
 30
0.0
 40
3.0
  0
LWPOLYLINE
  5
15A26
330
18
100
AcDbEntity
  8
細線
100
AcDbPolyline
 90
        6
 70
     1
 43
0.0
 10
114.3201132516082
 20
365.0207299108073
 10
113.7236959187615
 20
367.2517875598426
 10
111.4933346509658
 20
367.8508038228578
 10
109.8593907160173
 20
366.2187624368378
 10
110.4558080488634
 20
363.9877047878026
 10
112.686169316659
 20
363.3886885247873
  0
CIRCLE
  5
15A28
330
18
100
AcDbEntity
  8
0
100
AcDbCircle
 10
112.0897486976601
 20
365.6197432797557
 30
0.0
 40
4.75
  0
CIRCLE
  5
15A29
330
18
100
AcDbEntity
  8
細線
100
AcDbCircle
 10
112.0897486976601
 20
365.6197432797557
 30
0.0
 40
4.25
  0
LWPOLYLINE
  5
15A41
330
18
100
AcDbEntity
  8
細線
100
AcDbPolyline
 90
        6
 70
     1
 43
0.0
 10
75.73243445170803
 20
388.5111992974616
 10
74.0994450824348
 20
390.1441958032993
 10
71.86873393945095
 20
389.5464837783178
 10
71.27101216574121
 20
387.315775247498
 10
72.9040015350147
 20
385.6827787416601
 10
75.13471267799791
 20
386.2804907666418
  0
CIRCLE
  5
15A42
330
18
100
AcDbEntity
  8
細線
100
AcDbCircle
 10
73.5017219122751
 20
387.9134831222567
 30
0.0
 40
4.25
  0
CIRCLE
  5
15A43
330
18
100
AcDbEntity
  8
0
100
AcDbCircle
 10
73.5017219122751
 20
387.9134831222567
 30
0.0
 40
4.75
  0
LINE
  5
15A78
330
18
100
AcDbEntity
  8
0
100
AcDbLine
 10
132.3111705283134
 20
109.4481238973435
 30
0.0
 11
132.3111705283134
 21
106.9481238973476
 31
0.0
  0
LINE
  5
15A7A
330
18
100
AcDbEntity
  8
0
100
AcDbLine
 10
132.3111705283134
 20
109.4481238973435
 30
0.0
 11
131.8111705283132
 21
109.9481238973435
 31
0.0
  0
LINE
  5
15A7C
330
18
100
AcDbEntity
  8
0
100
AcDbLine
 10
143.8111705283134
 20
106.9481238973474
 30
0.0
 11
143.8111705283134
 21
105.6481240147665
 31
0.0
  0
TEXT
  5
15BB9
330
18
100
AcDbEntity
  8
文字
100
AcDbText
 10
33.75741007352962
 20
-205.4742353503406
 30
0.0
 40
3.599999999999998
  1

100
AcDbText
  0
TEXT
  5
15BBA
330
18
100
AcDbEntity
  8
文字
100
AcDbText
 10
36.10086009232259
 20
-210.4640001125286
 30
0.0
 40
3.599999999999998
  1

100
AcDbText
  0
ARC
  5
1818D
330
18
100
AcDbEntity
  8
0
100
AcDbCircle
 10
-103.6972757856432
 20
227.9777996760976
 30
0.0
 40
2.820984676078412
100
AcDbArc
 50
138.343640729248
 51
221.6563592707518
  0
LINE
  5
1818E
330
18
100
AcDbEntity
  8
0
100
AcDbLine
 10
-105.8049597401409
 20
226.1027994897974
 30
0.0
 11
-200.6108317847953
 21
226.1027994897974
 31
0.0
  0
LINE
  5
1818F
330
18
100
AcDbEntity
  8
0
100
AcDbLine
 10
-105.8049597401407
 20
233.6027994861975
 30
0.0
 11
-200.6108317847953
 21
233.6027994861974
 31
0.0
  0
LINE
  5
181CA
330
18
100
AcDbEntity
  8
0
100
AcDbLine
 10
-246.5108317847954
 20
218.2876429549184
 30
0.0
 11
-222.5108317847955
 21
218.2876429549184
 31
0.0
  0
LINE
  5
181CB
330
18
100
AcDbEntity
  8
0
100
AcDbLine
 10
-246.5108317847954
 20
240.2876429549185
 30
0.0
 11
-222.5108317847955
 21
240.2876429549184
 31
0.0
  0
TEXT
  5
181CC
330
18
100
AcDbEntity
  8
FRAME020
  6
CONTINUOUS
100
AcDbText
 10
-230.8168854177845
 20
223.6624787836035
 30
0.0
 40
2.799999999999998
  1
0-5200
 50
90.0
100
AcDbText
  0
LWPOLYLINE
  5
181CD
330
18
100
AcDbEntity
  8
0
100
AcDbPolyline
 90
        4
 70
     1
 43
0.0
 10
-269.5108317847954
 20
244.0376429549183
 10
-264.5108317847954
 20
244.0376429549183
 10
-264.5108317847954
 20
214.5376429549183
 10
-269.5108317847954
 20
214.5376429549183
  0
LWPOLYLINE
  5
181CE
330
18
100
AcDbEntity
  8
0
100
AcDbPolyline
 90
        4
 70
     1
 43
0.0
 10
-264.5108317847954
 20
246.1376429549183
 10
-260.5108317847954
 20
246.1376429549183
 10
-260.5108317847954
 20
212.4376429549183
 10
-264.5108317847954
 20
212.4376429549183
  0
LINE
  5
181CF
330
18
100
AcDbEntity
  8
0
100
AcDbLine
 10
-247.5108317847955
 20
230.7876429549184
 30
0.0
 11
-247.5108317847955
 21
227.7876429549184
 31
0.0
  0
TEXT
  5
181D0
330
18
100
AcDbEntity
  8
FRAME020
  6
CONTINUOUS
100
AcDbText
 10
-234.3893495657232
 20
222.8539886067959
 30
0.0
 40
4.0
  1
ＡＭＰ
 50
90.0
100
AcDbText
  0
LWPOLYLINE
  5
181D1
330
18
100
AcDbEntity
  8
0
100
AcDbPolyline
 90
        4
 70
     1
 43
0.0
 10
-240.1328061619108
 20
220.5376429549184
 10
-230.1328061619108
 20
220.5376429549184
 10
-230.1328061619108
 20
238.0376429549183
 10
-240.1328061619108
 20
238.0376429549183
  0
LINE
  5
181D7
330
18
100
AcDbEntity
  8
0
100
AcDbLine
 10
-247.5108317847955
 20
218.7876429549183
 30
0.0
 11
-260.5108317847954
 21
218.7876429549183
 31
0.0
  0
LINE
  5
181D8
330
18
100
AcDbEntity
  8
0
100
AcDbLine
 10
-247.5108317847955
 20
221.7876429549184
 30
0.0
 11
-260.5108317847954
 21
221.7876429549184
 31
0.0
  0
LINE
  5
181D9
330
18
100
AcDbEntity
  8
0
100
AcDbLine
 10
-247.5108317847955
 20
224.7876429549183
 30
0.0
 11
-260.5108317847954
 21
224.7876429549183
 31
0.0
  0
LINE
  5
181DA
330
18
100
AcDbEntity
  8
0
100
AcDbLine
 10
-260.5108317847954
 20
214.5376429549183
 30
0.0
 11
-247.5108317847955
 21
214.5376429549183
 31
0.0
  0
LINE
  5
181DB
330
18
100
AcDbEntity
  8
0
100
AcDbLine
 10
-247.5108317847955
 20
227.7876429549184
 30
0.0
 11
-260.5108317847954
 21
227.7876429549184
 31
0.0
  0
LINE
  5
181DC
330
18
100
AcDbEntity
  8
0
100
AcDbLine
 10
-247.5108317847955
 20
214.5376429549183
 30
0.0
 11
-246.5108317847954
 21
218.2876429549184
 31
0.0
  0
LINE
  5
181DD
330
18
100
AcDbEntity
  8
0
100
AcDbLine
 10
-247.5108317847955
 20
218.7876429549183
 30
0.0
 11
-247.5108317847955
 21
214.5376429549183
 31
0.0
  0
LINE
  5
181DE
330
18
100
AcDbEntity
  8
0
100
AcDbLine
 10
-247.5108317847955
 20
224.7876429549183
 30
0.0
 11
-247.5108317847955
 21
221.7876429549184
 31
0.0
  0
LINE
  5
181DF
330
18
100
AcDbEntity
  8
0
100
AcDbLine
 10
-246.5108317847954
 20
218.2876429549184
 30
0.0
 11
-247.5108317847955
 21
218.7876429549183
 31
0.0
  0
LINE
  5
181E1
330
18
100
AcDbEntity
  8
0
100
AcDbLine
 10
-247.5108317847955
 20
244.0376429549183
 30
0.0
 11
-246.5108317847954
 21
240.2876429549184
 31
0.0
  0
LINE
  5
181E2
330
18
100
AcDbEntity
  8
0
100
AcDbLine
 10
-247.5108317847955
 20
244.0376429549183
 30
0.0
 11
-247.5108317847955
 21
239.7876429549183
 31
0.0
  0
LINE
  5
181E3
330
18
100
AcDbEntity
  8
0
100
AcDbLine
 10
-247.5108317847955
 20
233.7876429549183
 30
0.0
 11
-260.5108317847954
 21
233.7876429549183
 31
0.0
  0
LINE
  5
181E4
330
18
100
AcDbEntity
  8
0
100
AcDbLine
 10
-247.5108317847955
 20
236.7876429549184
 30
0.0
 11
-260.5108317847954
 21
236.7876429549184
 31
0.0
  0
LINE
  5
181E5
330
18
100
AcDbEntity
  8
0
100
AcDbLine
 10
-247.5108317847955
 20
230.7876429549184
 30
0.0
 11
-260.5108317847954
 21
230.7876429549184
 31
0.0
  0
LINE
  5
181E6
330
18
100
AcDbEntity
  8
0
100
AcDbLine
 10
-247.5108317847955
 20
239.7876429549183
 30
0.0
 11
-260.5108317847954
 21
239.7876429549183
 31
0.0
  0
LINE
  5
181E7
330
18
100
AcDbEntity
  8
0
100
AcDbLine
 10
-247.5108317847955
 20
236.7876429549184
 30
0.0
 11
-247.5108317847955
 21
233.7876429549183
 31
0.0
  0
LINE
  5
181E8
330
18
100
AcDbEntity
  8
0
100
AcDbLine
 10
-246.5108317847954
 20
240.2876429549184
 30
0.0
 11
-247.5108317847955
 21
239.7876429549183
 31
0.0
  0
LINE
  5
181E9
330
18
100
AcDbEntity
  8
0
100
AcDbLine
 10
-247.5108317847955
 20
244.0376429549183
 30
0.0
 11
-260.5108317847954
 21
244.0376429549183
 31
0.0
  0
LINE
  5
181ED
330
18
100
AcDbEntity
  8
0
100
AcDbLine
 10
-207.2249257445268
 20
228.0050926193478
 30
0.0
 11
-222.5108317847955
 21
225.3876429549183
 31
0.0
  0
LINE
  5
181EE
330
18
100
AcDbEntity
  8
0
100
AcDbLine
 10
-208.3054263793902
 20
228.1876429549182
 30
0.0
 11
-222.5108317847955
 21
225.7876429549181
 31
0.0
  0
LINE
  5
181EF
330
18
100
AcDbEntity
  8
0
100
AcDbLine
 10
-214.2799593015736
 20
229.1970389280725
 30
0.0
 11
-222.5108317847955
 21
227.7876429549181
 31
0.0
  0
LINE
  5
181F0
330
18
100
AcDbEntity
  8
0
100
AcDbLine
 10
-200.6108317847953
 20
226.8876429549183
 30
0.0
 11
-222.5108317847955
 21
230.5876429549182
 31
0.0
  0
LINE
  5
181F1
330
18
100
AcDbEntity
  8
0
100
AcDbLine
 10
-222.5108317847955
 20
240.2876429549184
 30
0.0
 11
-222.5108317847955
 21
218.2876429549184
 31
0.0
  0
LINE
  5
181F2
330
18
100
AcDbEntity
  8
0
100
AcDbLine
 10
-200.6108317847953
 20
233.6027994861974
 30
0.0
 11
-200.6108317847953
 21
226.1027994897974
 31
0.0
  0
LINE
  5
181F3
330
18
100
AcDbEntity
  8
0
100
AcDbLine
 10
-201.2027236766871
 20
226.9876429549184
 30
0.0
 11
-222.5108317847955
 21
223.3876429549183
 31
0.0
  0
TEXT
  5
181F4
330
18
100
AcDbEntity
  8
FRAME020
  6
CONTINUOUS
100
AcDbText
 10
-223.0089042219272
 20
221.5710402219921
 30
0.0
 40
3.0
  1
B2
 50
90.0
100
AcDbText
  0
LWPOLYLINE
  5
181F5
330
18
100
AcDbEntity
  8
0
100
AcDbPolyline
 90
        4
 70
     1
 43
0.0
 10
-227.0108317847955
 20
221.5376429549184
 10
-222.5108317847955
 20
221.5376429549184
 10
-222.5108317847955
 20
226.0376429549184
 10
-227.0108317847955
 20
226.0376429549184
  0
LINE
  5
181F8
330
18
100
AcDbEntity
  8
0
100
AcDbLine
 10
-200.6108317847953
 20
231.2876429549183
 30
0.0
 11
-222.5108317847955
 21
234.9876429549182
 31
0.0
  0
LINE
  5
181F9
330
18
100
AcDbEntity
  8
0
100
AcDbLine
 10
-200.6108317847953
 20
228.8876429549183
 30
0.0
 11
-222.5108317847955
 21
232.5876429549182
 31
0.0
  0
LINE
  5
181FA
330
18
100
AcDbEntity
  8
0
100
AcDbLine
 10
-200.6108317847953
 20
229.2876429549183
 30
0.0
 11
-222.5108317847955
 21
232.9876429549182
 31
0.0
  0
TEXT
  5
181FB
330
18
100
AcDbEntity
  8
FRAME020
  6
CONTINUOUS
100
AcDbText
 10
-223.0089042219272
 20
232.5710402219921
 30
0.0
 40
3.0
  1
B1
 50
90.0
100
AcDbText
  0
LWPOLYLINE
  5
181FC
330
18
100
AcDbEntity
  8
0
100
AcDbPolyline
 90
        4
 70
     1
 43
0.0
 10
-227.0108317847955
 20
232.5376429549184
 10
-222.5108317847955
 20
232.5376429549184
 10
-222.5108317847955
 20
237.0376429549184
 10
-227.0108317847955
 20
237.0376429549184
  0
LINE
  5
181FD
330
18
100
AcDbEntity
  8
0
100
AcDbLine
 10
-207.2249257445268
 20
230.4050926193478
 30
0.0
 11
-208.4007646707011
 21
230.2037503374684
 31
0.0
  0
LINE
  5
181FE
330
18
100
AcDbEntity
  8
0
100
AcDbLine
 10
-200.6108317847953
 20
231.5376429549181
 30
0.0
 11
-201.3457311136543
 21
231.4118040287437
 31
0.0
  0
LINE
  5
181FF
330
18
100
AcDbEntity
  8
0
100
AcDbLine
 10
-200.6108317847953
 20
229.1376429549181
 30
0.0
 11
-201.3457311136543
 21
229.0118040287438
 31
0.0
  0
LINE
  5
18200
330
18
100
AcDbEntity
  8
0
100
AcDbLine
 10
-201.2027236766871
 20
229.3876429549181
 30
0.0
 11
-202.3865074604714
 21
229.187642954918
 31
0.0
  0
LINE
  5
1825F
330
18
100
AcDbEntity
  8
0
100
AcDbLine
 10
-132.5544688097892
 20
356.9527994879982
 30
0.0
 11
-112.1070618282955
 21
356.952799487998
 31
0.0
  0
LINE
  5
18260
330
18
100
AcDbEntity
  8
0
100
AcDbLine
 10
-155.8713705163598
 20
356.9527994879982
 30
0.0
 11
-107.0991774094385
 21
356.952799487998
 31
0.0
  0
LINE
  5
18261
330
18
100
AcDbEntity
  8
0
100
AcDbLine
 10
-155.871713663852
 20
352.7527994879982
 30
0.0
 11
-107.0991774094385
 21
352.7527994879982
 31
0.0
  0
ARC
  5
18267
330
18
100
AcDbEntity
  8
0
100
AcDbCircle
 10
-105.9188744630298
 20
353.8027994879981
 30
0.0
 40
1.579751577084588
100
AcDbArc
 50
138.343640729248
 51
221.6563592707518
  0
ARC
  5
18268
330
18
100
AcDbEntity
  8
0
100
AcDbCircle
 10
-108.2794803558474
 20
353.8027994879981
 30
0.0
 40
1.579751577084588
100
AcDbArc
 50
318.3436407292481
 51
41.65635927075181
  0
ARC
  5
18269
330
18
100
AcDbEntity
  8
0
100
AcDbCircle
 10
-108.2794803558474
 20
355.9027994879981
 30
0.0
 40
1.579751577084588
100
AcDbArc
 50
318.3436407292481
 51
41.65635927075181
  0
LINE
  5
182DA
330
18
100
AcDbEntity
  8
0
100
AcDbLine
 10
-48.68882947168663
 20
179.8527994879973
 30
0.0
 11
28.86122620767105
 21
179.8527994879973
 31
0.0
  0
ARC
  5
183F2
330
18
100
AcDbEntity
  8
0
100
AcDbCircle
 10
-100.8583466674836
 20
227.9777996760976
 30
0.0
 40
2.820984676078412
100
AcDbArc
 50
138.343640729248
 51
221.6563592707518
  0
ARC
  5
183F3
330
18
100
AcDbEntity
  8
0
100
AcDbCircle
 10
-107.9126430285034
 20
227.9777996760976
 30
0.0
 40
2.820984676078412
100
AcDbArc
 50
318.3436407292481
 51
41.65635927075181
  0
ARC
  5
183F5
330
18
100
AcDbEntity
  8
0
100
AcDbCircle
 10
-79.18882947168619
 20
229.8527994879977
 30
0.0
 40
10.50000000000042
100
AcDbArc
 50
154.7912347032435
 51
205.2087652967562
  0
LINE
  5
183F6
330
18
100
AcDbEntity
  8
0
100
AcDbLine
 10
-93.18882947168665
 20
224.6242280594253
 30
0.0
 11
-93.18882947168665
 21
235.0813709165698
 31
0.0
  0
LINE
  5
183F7
330
18
100
AcDbEntity
  8
0
100
AcDbLine
 10
-89.68882947168641
 20
220.5242280594264
 30
0.0
 11
-89.68882947168664
 21
239.1813709165691
 31
0.0
  0
LINE
  5
183F8
330
18
100
AcDbEntity
  8
0
100
AcDbLine
 10
-77.68882947168662
 20
219.3527994879977
 30
0.0
 11
-77.68882947168662
 21
240.3527994879977
 31
0.0
  0
LINE
  5
183F9
330
18
100
AcDbEntity
  8
0
100
AcDbLine
 10
-74.68882947168705
 20
240.3527994879977
 30
0.0
 11
-74.68882947168705
 21
219.3527994879977
 31
0.0
  0
LINE
  5
183FA
330
18
100
AcDbEntity
  8
0
100
AcDbLine
 10
-82.68882947168661
 20
219.3527994879977
 30
0.0
 11
-82.68882947168661
 21
240.3527994879977
 31
0.0
  0
LINE
  5
183FB
330
18
100
AcDbEntity
  8
0
100
AcDbLine
 10
-79.68882947168662
 20
239.3527994879975
 30
0.0
 11
-79.68882947168662
 21
220.3527994879975
 31
0.0
  0
LINE
  5
183FC
330
18
100
AcDbEntity
  8
0
100
AcDbLine
 10
-73.68882947168661
 20
282.4028551673541
 30
0.0
 11
-73.68882947168661
 21
204.8527994879973
 31
0.0
  0
ARC
  5
18401
330
18
100
AcDbEntity
  8
0
100
AcDbCircle
 10
-80.71503295411686
 20
219.6538843014078
 30
0.0
 40
9.015903847971632
100
AcDbArc
 50
152.179561144164
 51
174.4603666814926
  0
LINE
  5
18402
330
18
100
AcDbEntity
  8
0
100
AcDbLine
 10
-88.6888294716862
 20
219.3527994879977
 30
0.0
 11
-93.18882947168665
 21
224.6242280594255
 31
0.0
  0
LINE
  5
18403
330
18
100
AcDbEntity
  8
0
100
AcDbLine
 10
-93.18882947168665
 20
226.1027994897974
 30
0.0
 11
-102.9660299558462
 21
226.1027994897974
 31
0.0
  0
LINE
  5
18404
330
18
100
AcDbEntity
  8
0
100
AcDbLine
 10
-79.68882947168662
 20
220.3527994879975
 30
0.0
 11
-82.68882947168661
 21
220.3527994879975
 31
0.0
  0
LINE
  5
18405
330
18
100
AcDbEntity
  8
0
100
AcDbLine
 10
-88.68882947168662
 20
223.8616261295454
 30
0.0
 11
-88.68882947168662
 21
225.3806635329978
 31
0.0
  0
LINE
  5
18406
330
18
100
AcDbEntity
  8
0
100
AcDbLine
 10
-82.68882947168661
 20
225.380663532998
 30
0.0
 11
-88.68882947168662
 21
225.380663532998
 31
0.0
  0
LINE
  5
18407
330
18
100
AcDbEntity
  8
0
100
AcDbLine
 10
-82.68882947168661
 20
223.8616261295454
 30
0.0
 11
-88.68882947168662
 21
223.8616261295454
 31
0.0
  0
LINE
  5
18408
330
18
100
AcDbEntity
  8
0
100
AcDbLine
 10
-82.68882947168661
 20
219.3527994879977
 30
0.0
 11
-88.68882947168662
 21
219.3527994879977
 31
0.0
  0
LINE
  5
18409
330
18
100
AcDbEntity
  8
0
100
AcDbLine
 10
-74.68882947168705
 20
225.380663532998
 30
0.0
 11
-77.68882947168662
 21
225.380663532998
 31
0.0
  0
LINE
  5
1840A
330
18
100
AcDbEntity
  8
0
100
AcDbLine
 10
-74.68882947168705
 20
223.8616261295454
 30
0.0
 11
-77.68882947168662
 21
223.8616261295454
 31
0.0
  0
LINE
  5
1840B
330
18
100
AcDbEntity
  8
0
100
AcDbLine
 10
-74.68882947168705
 20
219.3527994879977
 30
0.0
 11
-77.68882947168662
 21
219.3527994879977
 31
0.0
  0
LINE
  5
1840C
330
18
100
AcDbEntity
  8
0
100
AcDbLine
 10
-77.68882947168662
 20
222.452799487997
 30
0.0
 11
-79.68882947168662
 21
222.452799487997
 31
0.0
  0
LINE
  5
1840D
330
18
100
AcDbEntity
  8
0
100
AcDbLine
 10
-73.68882947168661
 20
220.8527994879975
 30
0.0
 11
-74.68882947168705
 21
220.8527994879975
 31
0.0
  0
ARC
  5
18415
330
18
100
AcDbEntity
  8
0
100
AcDbCircle
 10
-80.71503295411686
 20
240.0517146745875
 30
0.0
 40
9.015903847971632
100
AcDbArc
 50
185.5396333185073
 51
207.8204388558359
  0
LINE
  5
18416
330
18
100
AcDbEntity
  8
0
100
AcDbLine
 10
-88.68882947168641
 20
240.3527994879977
 30
0.0
 11
-93.18882947168665
 21
235.0813709165698
 31
0.0
  0
LINE
  5
18417
330
18
100
AcDbEntity
  8
0
100
AcDbLine
 10
-93.18882947168665
 20
233.6027994861975
 30
0.0
 11
-102.9660299558455
 21
233.6027994861975
 31
0.0
  0
ARC
  5
18418
330
18
100
AcDbEntity
  8
0
100
AcDbCircle
 10
-100.8583466674827
 20
231.7277992998977
 30
0.0
 40
2.820984676078412
100
AcDbArc
 50
138.343640729248
 51
221.6563592707518
  0
ARC
  5
18419
330
18
100
AcDbEntity
  8
0
100
AcDbCircle
 10
-107.9126430285034
 20
231.7277992998977
 30
0.0
 40
2.820984676078412
100
AcDbArc
 50
318.3436407292481
 51
41.65635927075181
  0
ARC
  5
1841A
330
18
100
AcDbEntity
  8
0
100
AcDbCircle
 10
-105.0737139103425
 20
231.7277992998977
 30
0.0
 40
2.820984676078412
100
AcDbArc
 50
318.3436407292481
 51
41.65635927075181
  0
LINE
  5
1841B
330
18
100
AcDbEntity
  8
0
100
AcDbLine
 10
-79.68882947168662
 20
239.3527994879975
 30
0.0
 11
-82.68882947168661
 21
239.3527994879975
 31
0.0
  0
LINE
  5
1841C
330
18
100
AcDbEntity
  8
0
100
AcDbLine
 10
-88.68882947168662
 20
234.324935442997
 30
0.0
 11
-88.68882947168662
 21
235.8439728464496
 31
0.0
  0
LINE
  5
1841D
330
18
100
AcDbEntity
  8
0
100
AcDbLine
 10
-82.68882947168661
 20
240.3527994879977
 30
0.0
 11
-88.68882947168641
 21
240.3527994879977
 31
0.0
  0
LINE
  5
1841E
330
18
100
AcDbEntity
  8
0
100
AcDbLine
 10
-88.68882947168662
 20
235.8439728464496
 30
0.0
 11
-82.68882947168661
 21
235.8439728464496
 31
0.0
  0
LINE
  5
1841F
330
18
100
AcDbEntity
  8
0
100
AcDbLine
 10
-88.68882947168662
 20
234.3249354429973
 30
0.0
 11
-82.68882947168661
 21
234.3249354429973
 31
0.0
  0
LINE
  5
18420
330
18
100
AcDbEntity
  8
0
100
AcDbLine
 10
-74.68882947168705
 20
240.3527994879977
 30
0.0
 11
-77.68882947168662
 21
240.3527994879977
 31
0.0
  0
LINE
  5
18421
330
18
100
AcDbEntity
  8
0
100
AcDbLine
 10
-77.68882947168662
 20
235.8439728464496
 30
0.0
 11
-74.68882947168705
 21
235.8439728464496
 31
0.0
  0
LINE
  5
18422
330
18
100
AcDbEntity
  8
0
100
AcDbLine
 10
-77.68882947168662
 20
234.324935442997
 30
0.0
 11
-74.68882947168705
 21
234.324935442997
 31
0.0
  0
LINE
  5
18423
330
18
100
AcDbEntity
  8
0
100
AcDbLine
 10
-77.68882947168662
 20
237.2527994879973
 30
0.0
 11
-79.68882947168662
 21
237.2527994879973
 31
0.0
  0
LINE
  5
18424
330
18
100
AcDbEntity
  8
0
100
AcDbLine
 10
-73.68882947168661
 20
238.8527994879976
 30
0.0
 11
-74.68882947168731
 21
238.8527994879976
 31
0.0
  0
LINE
  5
188B8
330
18
100
AcDbEntity
  8
0
100
AcDbLine
 10
73.76111484895591
 20
179.8527994879973
 30
0.0
 11
151.3111705283133
 21
179.8527994879977
 31
0.0
  0
LINE
  5
18E3B
330
18
100
AcDbEntity
  8
0
100
AcDbLine
 10
-48.68882947168684
 20
429.8527994879978
 30
0.0
 11
28.86122620767037
 21
429.8527994879978
 31
0.0
  0
LINE
  5
18E6F
330
18
100
AcDbEntity
  8
0
100
AcDbLine
 10
-73.68882947168689
 20
404.8527994879978
 30
0.0
 11
-73.68882947168661
 21
327.302743808641
 31
0.0
  0
ARC
  5
1901D
330
18
100
AcDbEntity
  8
0
100
AcDbCircle
 10
-80.71503295411686
 20
365.0517146745873
 30
0.0
 40
9.015903847971632
100
AcDbArc
 50
185.5396333185073
 51
207.8204388558359
  0
LINE
  5
1901E
330
18
100
AcDbEntity
  8
0
100
AcDbLine
 10
-88.68882947168641
 20
365.3527994879977
 30
0.0
 11
-93.18882947168686
 21
360.0813709165699
 31
0.0
  0
ARC
  5
1901F
330
18
100
AcDbEntity
  8
0
100
AcDbCircle
 10
-80.71503295411686
 20
344.6538843014077
 30
0.0
 40
9.015903847971632
100
AcDbArc
 50
152.179561144164
 51
174.4603666814926
  0
LINE
  5
19020
330
18
100
AcDbEntity
  8
0
100
AcDbLine
 10
-88.68882947168641
 20
344.3527994879977
 30
0.0
 11
-93.18882947168686
 21
349.6242280594255
 31
0.0
  0
ARC
  5
19021
330
18
100
AcDbEntity
  8
0
100
AcDbCircle
 10
-79.1888294716864
 20
354.8527994879977
 30
0.0
 40
10.50000000000042
100
AcDbArc
 50
154.7912347032435
 51
205.2087652967562
  0
LINE
  5
19022
330
18
100
AcDbEntity
  8
0
100
AcDbLine
 10
-89.68882947168641
 20
345.5242280594263
 30
0.0
 11
-89.68882947168685
 21
364.1813709165691
 31
0.0
  0
LINE
  5
19023
330
18
100
AcDbEntity
  8
0
100
AcDbLine
 10
-93.18882947168686
 20
349.6242280594252
 30
0.0
 11
-93.18882947168686
 21
360.0813709165699
 31
0.0
  0
ARC
  5
19024
330
18
100
AcDbEntity
  8
0
100
AcDbCircle
 10
-104.0492681062701
 20
353.8027994879975
 30
0.0
 40
1.579751577084588
100
AcDbArc
 50
138.343640729248
 51
221.6563592707518
  0
LINE
  5
19025
330
18
100
AcDbEntity
  8
0
100
AcDbLine
 10
-105.2295710526791
 20
352.7527994879978
 30
0.0
 11
-93.18882947168665
 21
352.7527994879978
 31
0.0
  0
LINE
  5
19026
330
18
100
AcDbEntity
  8
0
100
AcDbLine
 10
-105.2295710526796
 20
356.9527994879976
 30
0.0
 11
-93.18882947168665
 21
356.9527994879976
 31
0.0
  0
ARC
  5
19027
330
18
100
AcDbEntity
  8
0
100
AcDbCircle
 10
-106.4098739990879
 20
355.9027994879976
 30
0.0
 40
1.579751577084588
100
AcDbArc
 50
318.3436407292481
 51
41.65635927075181
  0
ARC
  5
19028
330
18
100
AcDbEntity
  8
0
100
AcDbCircle
 10
-104.0492681062709
 20
355.9027994879976
 30
0.0
 40
1.579751577084588
100
AcDbArc
 50
138.343640729248
 51
221.6563592707518
  0
LINE
  5
19029
330
18
100
AcDbEntity
  8
0
100
AcDbLine
 10
-79.68882947168686
 20
364.3527994879975
 30
0.0
 11
-79.68882947168686
 21
345.3527994879975
 31
0.0
  0
LINE
  5
1902A
330
18
100
AcDbEntity
  8
0
100
AcDbLine
 10
-82.68882947168686
 20
344.3527994879977
 30
0.0
 11
-82.68882947168686
 21
365.3527994879977
 31
0.0
  0
LINE
  5
1902B
330
18
100
AcDbEntity
  8
0
100
AcDbLine
 10
-74.68882947168731
 20
365.3527994879977
 30
0.0
 11
-74.68882947168731
 21
344.3527994879977
 31
0.0
  0
LINE
  5
1902C
330
18
100
AcDbEntity
  8
0
100
AcDbLine
 10
-77.68882947168686
 20
344.3527994879977
 30
0.0
 11
-77.68882947168686
 21
365.3527994879977
 31
0.0
  0
LINE
  5
1902D
330
18
100
AcDbEntity
  8
0
100
AcDbLine
 10
-79.68882947168686
 20
345.3527994879975
 30
0.0
 11
-82.68882947168686
 21
345.3527994879975
 31
0.0
  0
LINE
  5
1902E
330
18
100
AcDbEntity
  8
0
100
AcDbLine
 10
-88.68882947168684
 20
348.8616261295453
 30
0.0
 11
-88.68882947168684
 21
350.3806635329979
 31
0.0
  0
LINE
  5
1902F
330
18
100
AcDbEntity
  8
0
100
AcDbLine
 10
-82.68882947168686
 20
344.3527994879977
 30
0.0
 11
-88.68882947168684
 21
344.3527994879977
 31
0.0
  0
LINE
  5
19030
330
18
100
AcDbEntity
  8
0
100
AcDbLine
 10
-82.68882947168686
 20
348.8616261295453
 30
0.0
 11
-88.68882947168684
 21
348.8616261295453
 31
0.0
  0
LINE
  5
19031
330
18
100
AcDbEntity
  8
0
100
AcDbLine
 10
-82.68882947168686
 20
350.3806635329979
 30
0.0
 11
-88.68882947168684
 21
350.3806635329979
 31
0.0
  0
LINE
  5
19032
330
18
100
AcDbEntity
  8
0
100
AcDbLine
 10
-73.68882947168684
 20
345.8527994879975
 30
0.0
 11
-74.68882947168731
 21
345.8527994879975
 31
0.0
  0
LINE
  5
19033
330
18
100
AcDbEntity
  8
0
100
AcDbLine
 10
-77.68882947168686
 20
347.4527994879971
 30
0.0
 11
-79.68882947168686
 21
347.4527994879971
 31
0.0
  0
LINE
  5
19034
330
18
100
AcDbEntity
  8
0
100
AcDbLine
 10
-74.68882947168731
 20
344.3527994879977
 30
0.0
 11
-77.68882947168686
 21
344.3527994879977
 31
0.0
  0
LINE
  5
19035
330
18
100
AcDbEntity
  8
0
100
AcDbLine
 10
-74.68882947168731
 20
350.3806635329979
 30
0.0
 11
-77.68882947168686
 21
350.3806635329979
 31
0.0
  0
LINE
  5
19036
330
18
100
AcDbEntity
  8
0
100
AcDbLine
 10
-74.68882947168731
 20
348.8616261295453
 30
0.0
 11
-77.68882947168686
 21
348.8616261295453
 31
0.0
  0
LINE
  5
19037
330
18
100
AcDbEntity
  8
0
100
AcDbLine
 10
-79.68882947168686
 20
364.3527994879975
 30
0.0
 11
-82.68882947168686
 21
364.3527994879975
 31
0.0
  0
LINE
  5
19038
330
18
100
AcDbEntity
  8
0
100
AcDbLine
 10
-88.68882947168684
 20
359.3249354429972
 30
0.0
 11
-88.68882947168684
 21
360.8439728464496
 31
0.0
  0
LINE
  5
19039
330
18
100
AcDbEntity
  8
0
100
AcDbLine
 10
-88.68882947168684
 20
359.3249354429973
 30
0.0
 11
-82.68882947168686
 21
359.3249354429973
 31
0.0
  0
LINE
  5
1903A
330
18
100
AcDbEntity
  8
0
100
AcDbLine
 10
-88.68882947168684
 20
360.8439728464496
 30
0.0
 11
-82.68882947168686
 21
360.8439728464496
 31
0.0
  0
LINE
  5
1903B
330
18
100
AcDbEntity
  8
0
100
AcDbLine
 10
-82.68882947168686
 20
365.3527994879977
 30
0.0
 11
-88.68882947168641
 21
365.3527994879977
 31
0.0
  0
LINE
  5
1903C
330
18
100
AcDbEntity
  8
0
100
AcDbLine
 10
-73.68882947168684
 20
363.8527994879975
 30
0.0
 11
-74.68882947168731
 21
363.8527994879975
 31
0.0
  0
LINE
  5
1903D
330
18
100
AcDbEntity
  8
0
100
AcDbLine
 10
-77.68882947168686
 20
362.2527994879972
 30
0.0
 11
-79.68882947168686
 21
362.2527994879972
 31
0.0
  0
LINE
  5
1903E
330
18
100
AcDbEntity
  8
0
100
AcDbLine
 10
-74.68882947168731
 20
365.3527994879977
 30
0.0
 11
-77.68882947168686
 21
365.3527994879977
 31
0.0
  0
LINE
  5
1903F
330
18
100
AcDbEntity
  8
0
100
AcDbLine
 10
-77.68882947168686
 20
359.3249354429972
 30
0.0
 11
-74.68882947168731
 21
359.3249354429972
 31
0.0
  0
LINE
  5
19040
330
18
100
AcDbEntity
  8
0
100
AcDbLine
 10
-77.68882947168686
 20
360.8439728464496
 30
0.0
 11
-74.68882947168731
 21
360.8439728464496
 31
0.0
  0
LINE
  5
198F1
330
18
100
AcDbEntity
  8
0
100
AcDbLine
 10
73.76111484895659
 20
429.8527994879978
 30
0.0
 11
151.3111705283136
 21
429.8527994879974
 31
0.0
  0
LINE
  5
1997A
330
18
100
AcDbEntity
  8
0
100
AcDbLine
 10
176.3111705283131
 20
282.4028551673544
 30
0.0
 11
176.3111705283131
 21
204.8527994879977
 31
0.0
  0
LINE
  5
19983
330
18
100
AcDbEntity
  8
0
100
AcDbLine
 10
176.3111705283136
 20
404.8527994879974
 30
0.0
 11
176.3111705283136
 21
327.3027438086407
 31
0.0
  0
LINE
  5
19DA6
330
18
100
AcDbEntity
  8
0
100
AcDbLine
 10
73.76111484895591
 20
25.44812401476724
 30
0.0
 11
176.3111705283136
 21
25.44812401476724
 31
0.0
  0
LINE
  5
19DAE
330
18
100
AcDbEntity
  8
0
100
AcDbLine
 10
176.3111705283131
 20
5.448124014766165
 30
0.0
 11
176.3111705283131
 21
25.44812401476724
 31
0.0
  0
LINE
  5
19DAF
330
18
100
AcDbEntity
  8
0
100
AcDbLine
 10
176.3111705283136
 20
5.448124014767188
 30
0.0
 11
176.3111705283136
 21
25.44812401476724
 31
0.0
  0
LINE
  5
19DB5
330
18
100
AcDbEntity
  8
0
100
AcDbLine
 10
-73.68882947168732
 20
25.44812401476724
 30
0.0
 11
28.86122620766926
 21
25.44812401476714
 31
0.0
  0
LINE
  5
19DB6
330
18
100
AcDbEntity
  8
0
100
AcDbLine
 10
-73.68882947168732
 20
25.44812401476724
 30
0.0
 11
-73.68882947168732
 21
5.448124014767302
 31
0.0
  0
LINE
  5
19DB7
330
18
100
AcDbEntity
  8
0
100
AcDbLine
 10
-74.68882947168686
 20
18.44812401476724
 30
0.0
 11
-73.68882947168732
 21
18.44812401476724
 31
0.0
  0
LINE
  5
19DB8
330
18
100
AcDbEntity
  8
0
100
AcDbLine
 10
-74.68882947168641
 20
25.74812401476835
 30
0.0
 11
-74.68882947168629
 21
18.44812401476713
 31
0.0
  0
LINE
  5
19DB9
330
18
100
AcDbEntity
  8
0
100
AcDbLine
 10
-75.68882947168686
 20
25.74812401476828
 30
0.0
 11
-74.9388294716864
 21
25.74812401476835
 31
0.0
  0
LINE
  5
19DBF
330
18
100
AcDbEntity
  8
0
100
AcDbLine
 10
-73.68882947168732
 20
5.448124014767302
 30
0.0
 11
176.3111705283131
 21
5.448124014765824
 31
0.0
  0
LINE
  5
19DC0
330
18
100
AcDbEntity
  8
0
100
AcDbLine
 10
-73.68882947168732
 20
5.448124014767302
 30
0.0
 11
176.3111705283136
 21
5.448124014767188
 31
0.0
  0
LINE
  5
19DEE
330
18
100
AcDbEntity
  8
0
100
AcDbLine
 10
-73.68882947168754
 20
6.448124014767245
 30
0.0
 11
-74.688829471688
 21
6.448124014767245
 31
0.0
  0
LINE
  5
19DF5
330
18
100
AcDbEntity
  8
0
100
AcDbLine
 10
-89.68882947168731
 20
23.77669544333831
 30
0.0
 11
-89.68882947168731
 21
15.44812401476724
 31
0.0
  0
ARC
  5
19DF6
330
18
100
AcDbEntity
  8
0
100
AcDbCircle
 10
-81.86256961543609
 20
20.19812401476703
 30
0.0
 40
7.848428098993441
100
AcDbArc
 50
150.4309251395775
 51
209.5690748604225
  0
LINE
  5
19DF7
330
18
100
AcDbEntity
  8
0
100
AcDbLine
 10
-88.68882947168732
 20
24.94812401476724
 30
0.0
 11
-93.18882947168731
 21
19.6766954433383
 31
0.0
  0
LINE
  5
19DF8
330
18
100
AcDbEntity
  8
0
100
AcDbLine
 10
-79.68882947168731
 20
24.94812401476724
 30
0.0
 11
-79.68882947168731
 21
5.948124014767302
 31
0.0
  0
LINE
  5
19DF9
330
18
100
AcDbEntity
  8
0
100
AcDbLine
 10
-82.68882947168732
 20
24.94812401476724
 30
0.0
 11
-82.68882947168732
 21
5.948124014767302
 31
0.0
  0
LINE
  5
19DFA
330
18
100
AcDbEntity
  8
0
100
AcDbLine
 10
-74.688829471688
 20
24.94812401476724
 30
0.0
 11
-74.688829471688
 21
5.948124014767302
 31
0.0
  0
LINE
  5
19DFB
330
18
100
AcDbEntity
  8
0
100
AcDbLine
 10
-77.68882947168754
 20
5.948124014767302
 30
0.0
 11
-77.68882947168731
 21
24.94812401476724
 31
0.0
  0
LINE
  5
19DFC
330
18
100
AcDbEntity
  8
0
100
AcDbLine
 10
-88.68882947168732
 20
5.948124014767302
 30
0.0
 11
-93.18882947168731
 21
11.21955258619618
 31
0.0
  0
LINE
  5
19DFD
330
18
100
AcDbEntity
  8
0
100
AcDbLine
 10
-93.18882947168731
 20
11.68617193885583
 30
0.0
 11
-112.3008251002979
 21
11.68617193885592
 31
0.0
  0
LINE
  5
19DFE
330
18
100
AcDbEntity
  8
0
100
AcDbLine
 10
-93.18882947168731
 20
19.18617118645625
 30
0.0
 11
-112.3008251002969
 21
19.18617118645613
 31
0.0
  0
LINE
  5
19E05
330
18
100
AcDbEntity
  8
0
100
AcDbLine
 10
-93.18882947168731
 20
19.6766954433383
 30
0.0
 11
-93.18882947168731
 21
11.21955258619607
 31
0.0
  0
ARC
  5
19E06
330
18
100
AcDbEntity
  8
0
100
AcDbCircle
 10
-81.86256961543609
 20
10.69812401476747
 30
0.0
 40
7.848428098993441
100
AcDbArc
 50
150.4309251395775
 51
209.5690748604225
  0
LINE
  5
19E07
330
18
100
AcDbEntity
  8
0
100
AcDbLine
 10
-89.68882947168731
 20
7.119552586195837
 30
0.0
 11
-89.68882947168731
 21
15.44812401476724
 31
0.0
  0
LINE
  5
19E08
330
18
100
AcDbEntity
  8
0
100
AcDbLine
 10
-88.68882947168732
 20
6.825140668559726
 30
0.0
 11
-82.68882947168732
 21
6.825140668559726
 31
0.0
  0
LINE
  5
19E09
330
18
100
AcDbEntity
  8
0
100
AcDbLine
 10
-82.68882947168732
 20
5.948124014767302
 30
0.0
 11
-88.68882947168732
 21
5.948124014767302
 31
0.0
  0
LINE
  5
19E0A
330
18
100
AcDbEntity
  8
0
100
AcDbLine
 10
-88.68882947168732
 20
6.825140668559726
 30
0.0
 11
-88.68882947168732
 21
5.948124014767302
 31
0.0
  0
LINE
  5
19E0B
330
18
100
AcDbEntity
  8
0
100
AcDbLine
 10
-74.688829471688
 20
5.948124014767302
 30
0.0
 11
-77.68882947168754
 21
5.948124014767302
 31
0.0
  0
LINE
  5
19E0C
330
18
100
AcDbEntity
  8
0
100
AcDbLine
 10
-77.68882947168731
 20
8.048124014766699
 30
0.0
 11
-79.68882947168731
 21
8.048124014766699
 31
0.0
  0
LINE
  5
19E0D
330
18
100
AcDbEntity
  8
0
100
AcDbLine
 10
-77.68882947168754
 20
6.825140668559726
 30
0.0
 11
-74.688829471688
 21
6.825140668559726
 31
0.0
  0
LINE
  5
19E0E
330
18
100
AcDbEntity
  8
0
100
AcDbLine
 10
-79.68882947168731
 20
5.948124014767302
 30
0.0
 11
-82.68882947168732
 21
5.948124014767302
 31
0.0
  0
LINE
  5
19E0F
330
18
100
AcDbEntity
  8
0
100
AcDbLine
 10
-88.68882947168732
 20
14.57110736097492
 30
0.0
 11
-82.68882947168732
 21
14.57110736097492
 31
0.0
  0
LINE
  5
19E10
330
18
100
AcDbEntity
  8
0
100
AcDbLine
 10
-88.68882947168732
 20
16.32514066855924
 30
0.0
 11
-82.68882947168732
 21
16.32514066855924
 31
0.0
  0
LINE
  5
19E11
330
18
100
AcDbEntity
  8
0
100
AcDbLine
 10
-88.68882947168732
 20
14.57110736097492
 30
0.0
 11
-88.68882947168732
 21
16.32514066855924
 31
0.0
  0
LINE
  5
19E12
330
18
100
AcDbEntity
  8
0
100
AcDbLine
 10
-77.68882947168754
 20
16.32514066855924
 30
0.0
 11
-74.688829471688
 21
16.32514066855913
 31
0.0
  0
LINE
  5
19E13
330
18
100
AcDbEntity
  8
0
100
AcDbLine
 10
-77.68882947168754
 20
14.57110736097502
 30
0.0
 11
-74.688829471688
 21
14.57110736097502
 31
0.0
  0
LINE
  5
19E14
330
18
100
AcDbEntity
  8
0
100
AcDbLine
 10
-88.68882947168732
 20
24.07110736097479
 30
0.0
 11
-82.68882947168732
 21
24.07110736097479
 31
0.0
  0
LINE
  5
19E15
330
18
100
AcDbEntity
  8
0
100
AcDbLine
 10
-82.68882947168732
 20
24.94812401476724
 30
0.0
 11
-88.68882947168732
 21
24.94812401476724
 31
0.0
  0
LINE
  5
19E16
330
18
100
AcDbEntity
  8
0
100
AcDbLine
 10
-88.68882947168732
 20
24.07110736097479
 30
0.0
 11
-88.68882947168732
 21
24.94812401476724
 31
0.0
  0
LINE
  5
19E18
330
18
100
AcDbEntity
  8
0
100
AcDbLine
 10
-74.688829471688
 20
24.94812401476724
 30
0.0
 11
-77.68882947168731
 21
24.94812401476724
 31
0.0
  0
LINE
  5
19E19
330
18
100
AcDbEntity
  8
0
100
AcDbLine
 10
-77.68882947168731
 20
24.07110736097479
 30
0.0
 11
-74.688829471688
 21
24.07110736097479
 31
0.0
  0
LINE
  5
19E1A
330
18
100
AcDbEntity
  8
0
100
AcDbLine
 10
-79.68882947168731
 20
24.94812401476724
 30
0.0
 11
-82.68882947168732
 21
24.94812401476724
 31
0.0
  0
LINE
  5
19E1B
330
18
100
AcDbEntity
  8
0
100
AcDbLine
 10
-77.68882947168731
 20
22.84812401476689
 30
0.0
 11
-79.68882947168731
 21
22.84812401476689
 31
0.0
  0
LINE
  5
19E22
330
18
100
AcDbEntity
  8
中心線
100
AcDbLine
 10
-96.11190002594367
 20
15.44812401476735
 30
0.0
 11
-70.16216329606277
 21
15.44812401476724
 31
0.0
  0
LINE
  5
1A1E0
330
18
100
AcDbEntity
  8
中心線
100
AcDbLine
 10
-49.08882947168644
 20
30.44812401476738
 30
0.0
 11
-49.08882947168649
 21
0.448124014766421
 31
0.0
  0
ARC
  5
1A28A
330
18
100
AcDbEntity
  8
0
100
AcDbCircle
 10
-113.0320705970277
 20
13.561171750756
 30
0.0
 40
2.820984676078412
100
AcDbArc
 50
138.343640729248
 51
221.6563592707518
  0
LINE
  5
1A28B
330
18
100
AcDbEntity
  8
0
100
AcDbLine
 10
-115.1397538853902
 20
11.68617156445556
 30
0.0
 11
-200.6126612797324
 21
11.68617156445588
 31
0.0
  0
LINE
  5
1A28C
330
18
100
AcDbEntity
  8
0
100
AcDbLine
 10
-115.139754551525
 20
19.18617156085614
 30
0.0
 11
-200.6126612797324
 21
19.18617156085554
 31
0.0
  0
LINE
  5
1A28D
330
18
100
AcDbEntity
  8
0
100
AcDbLine
 10
-264.5108317847954
 20
2.948124014767373
 30
0.0
 11
-264.5108317847954
 21
27.9481240147675
 31
0.0
  0
LINE
  5
1A28E
330
18
100
AcDbEntity
  8
0
100
AcDbLine
 10
-260.5108317847954
 20
27.9481240147675
 30
0.0
 11
-260.5108317847954
 21
2.948124014767373
 31
0.0
  0
LINE
  5
1A28F
330
18
100
AcDbEntity
  8
0
100
AcDbLine
 10
-260.5108317847954
 20
2.948124014767373
 30
0.0
 11
-264.5108317847954
 21
2.948124014767373
 31
0.0
  0
LINE
  5
1A290
330
18
100
AcDbEntity
  8
0
100
AcDbLine
 10
-260.5108317847954
 20
4.448124014767273
 30
0.0
 11
-222.5108317847955
 21
4.448124014767387
 31
0.0
  0
LINE
  5
1A291
330
18
100
AcDbEntity
  8
0
100
AcDbLine
 10
-260.5108317847954
 20
26.4481240147675
 30
0.0
 11
-222.5108317847955
 21
26.44812401476738
 31
0.0
  0
LINE
  5
1A292
330
18
100
AcDbEntity
  8
0
100
AcDbLine
 10
-264.5108317847954
 20
27.9481240147675
 30
0.0
 11
-260.5108317847954
 21
27.9481240147675
 31
0.0
  0
LINE
  5
1A293
330
18
100
AcDbEntity
  8
0
100
AcDbLine
 10
-269.5108317847954
 20
26.4481240147675
 30
0.0
 11
-264.5108317847954
 21
26.4481240147676
 31
0.0
  0
LINE
  5
1A294
330
18
100
AcDbEntity
  8
0
100
AcDbLine
 10
-269.5108317847954
 20
4.448124014767387
 30
0.0
 11
-264.5108317847954
 21
4.448124014767387
 31
0.0
  0
LINE
  5
1A295
330
18
100
AcDbEntity
  8
0
100
AcDbLine
 10
-269.5108317847954
 20
4.448124014767273
 30
0.0
 11
-269.5108317847954
 21
26.4481240147675
 31
0.0
  0
LINE
  5
1A296
330
18
100
AcDbEntity
  8
0
100
AcDbLine
 10
-246.5108317847953
 20
26.4481240147675
 30
0.0
 11
-246.5108317847954
 21
4.448124014767387
 31
0.0
  0
LINE
  5
1A297
330
18
100
AcDbEntity
  8
0
100
AcDbLine
 10
-247.5108317847954
 20
26.4481240147675
 30
0.0
 11
-247.5108317847955
 21
4.4481240147675
 31
0.0
  0
LINE
  5
1A298
330
18
100
AcDbEntity
  8
0
100
AcDbLine
 10
-201.2035185095565
 20
17.71727424563212
 30
0.0
 11
-222.5128796321986
 21
21.30984988041771
 31
0.0
  0
LINE
  5
1A299
330
18
100
AcDbEntity
  8
0
100
AcDbLine
 10
-200.6109646577604
 20
15.81748058725546
 30
0.0
 11
-222.5096741787012
 21
12.10985043883786
 31
0.0
  0
LINE
  5
1A29A
330
18
100
AcDbEntity
  8
0
100
AcDbLine
 10
-200.6116614954771
 20
17.81748046585974
 30
0.0
 11
-222.510371016418
 21
14.10985031744215
 31
0.0
  0
LINE
  5
1A29B
330
18
100
AcDbEntity
  8
0
100
AcDbLine
 10
-200.610825290217
 20
15.41748061153455
 30
0.0
 11
-222.5095348111577
 21
11.70985046311719
 31
0.0
  0
LINE
  5
1A29C
330
18
100
AcDbEntity
  8
0
100
AcDbLine
 10
-200.6101284525001
 20
13.41748073293027
 30
0.0
 11
-222.5088379734409
 21
9.709850584512793
 31
0.0
  0
LINE
  5
1A29D
330
18
100
AcDbEntity
  8
0
100
AcDbLine
 10
-207.2253657132108
 20
16.69772639419014
 30
0.0
 11
-222.5121827944818
 21
19.30985000181343
 31
0.0
  0
LINE
  5
1A29E
330
18
100
AcDbEntity
  8
0
100
AcDbLine
 10
-208.3058026785108
 20
16.51479960290228
 30
0.0
 11
-222.5120434269383
 21
18.90985002609252
 31
0.0
  0
LINE
  5
1A29F
330
18
100
AcDbEntity
  8
0
100
AcDbLine
 10
-214.279468741034
 20
15.50332205107581
 30
0.0
 11
-222.5108317847955
 21
16.90985014748824
 31
0.0
  0
LINE
  5
1A2A0
330
18
100
AcDbEntity
  8
0
100
AcDbLine
 10
-222.5108317847955
 20
26.44812401476738
 30
0.0
 11
-222.5108317847955
 21
4.448124014767387
 31
0.0
  0
LINE
  5
1A2A1
330
18
100
AcDbEntity
  8
0
100
AcDbLine
 10
-207.2245295079508
 20
14.29772653986495
 30
0.0
 11
-208.4004385142019
 21
14.49865912506678
 31
0.0
  0
LINE
  5
1A2A2
330
18
100
AcDbEntity
  8
0
100
AcDbLine
 10
-200.6100413477854
 20
13.16748074810485
 30
0.0
 11
-201.3449844766924
 21
13.29306361385606
 31
0.0
  0
LINE
  5
1A2A3
330
18
100
AcDbEntity
  8
0
100
AcDbLine
 10
-200.6108775530456
 20
15.56748060242993
 30
0.0
 11
-201.3458206819528
 21
15.693063468181
 31
0.0
  0
LINE
  5
1A2A4
330
18
100
AcDbEntity
  8
0
100
AcDbLine
 10
-201.2026823042963
 20
15.31727439130716
 30
0.0
 11
-202.3865356999991
 21
15.51686192657305
 31
0.0
  0
LINE
  5
1A2A5
330
18
100
AcDbEntity
  8
0
100
AcDbLine
 10
-200.6126612797324
 20
11.6861715644558
 30
0.0
 11
-200.6126612797324
 21
19.18617156085592
 31
0.0
  0
ARC
  5
1A2A6
330
18
100
AcDbEntity
  8
0
100
AcDbCircle
 10
-110.1931414788668
 20
17.31117137455604
 30
0.0
 40
2.820984676078412
100
AcDbArc
 50
138.343640729248
 51
221.6563592707518
  0
ARC
  5
1A2A7
330
18
100
AcDbEntity
  8
0
100
AcDbCircle
 10
-117.2474378398877
 20
17.31117137455592
 30
0.0
 40
2.820984676078412
100
AcDbArc
 50
318.3436407292481
 51
41.65635927075181
  0
ARC
  5
1A2A8
330
18
100
AcDbEntity
  8
0
100
AcDbCircle
 10
-114.408508721727
 20
17.31117137455604
 30
0.0
 40
2.820984676078412
100
AcDbArc
 50
318.3436407292481
 51
41.65635927075181
  0
ARC
  5
1A2A9
330
18
100
AcDbEntity
  8
0
100
AcDbCircle
 10
-110.193141478868
 20
13.561171750756
 30
0.0
 40
2.820984676078412
100
AcDbArc
 50
138.343640729248
 51
221.6563592707518
  0
ARC
  5
1A2AA
330
18
100
AcDbEntity
  8
0
100
AcDbCircle
 10
-117.2474378398877
 20
13.561171750756
 30
0.0
 40
2.820984676078412
100
AcDbArc
 50
318.3436407292481
 51
41.65635927075181
  0
LINE
  5
1B8C4
330
18
100
AcDbEntity
  8
0
100
AcDbLine
 10
-75.43882947168686
 20
26.74812401476835
 30
0.0
 11
178.3111705283126
 21
26.74812401476827
 31
0.0
  0
LINE
  5
1B9E5
330
18
100
AcDbEntity
  8
中心線
100
AcDbLine
 10
-37.1097768055381
 20
393.2737468218498
 30
0.0
 11
-61.08620799481411
 21
417.2501780111256
 31
0.0
  0
ARC
  5
1B9E6
330
18
100
AcDbEntity
  8
中心線
100
AcDbCircle
 10
51.31117052831337
 20
304.8527994879977
 30
0.0
 40
142.0
100
AcDbArc
 50
125.9723870492882
 51
144.0276129507114
  0
ARC
  5
1B9E7
330
18
100
AcDbEntity
  8
中心線
100
AcDbCircle
 10
51.3111705283136
 20
304.8527994879971
 30
0.0
 40
142.0
100
AcDbArc
 50
215.972387049288
 51
234.0276129507115
  0
LINE
  5
1B9E8
330
18
100
AcDbEntity
  8
中心線
100
AcDbLine
 10
-37.1097768055385
 20
216.4318521541455
 30
0.0
 11
-61.08620799481435
 21
192.4554209648695
 31
0.0
  0
ARC
  5
1B9E9
330
18
100
AcDbEntity
  8
中心線
100
AcDbCircle
 10
51.3111705283141
 20
304.8527994879973
 30
0.0
 40
142.0
100
AcDbArc
 50
305.9723870492881
 51
324.0276129507116
  0
LINE
  5
1B9EA
330
18
100
AcDbEntity
  8
中心線
100
AcDbLine
 10
139.7321178621655
 20
216.4318521541451
 30
0.0
 11
163.7085490514415
 21
192.4554209648694
 31
0.0
  0
ARC
  5
1B9EB
330
18
100
AcDbEntity
  8
中心線
100
AcDbCircle
 10
51.31117052831388
 20
304.8527994879977
 30
0.0
 40
142.0
100
AcDbArc
 50
35.97238704928822
 51
54.02761295071162
  0
LINE
  5
1B9EC
330
18
100
AcDbEntity
  8
中心線
100
AcDbLine
 10
139.7321178621661
 20
393.2737468218492
 30
0.0
 11
163.7085490514419
 21
417.2501780111251
 31
0.0
  0
SOLID
  5
1C1D0
330
18
100
AcDbEntity
  8
0
  6
BYBLOCK
 62
     0
100
AcDbTrace
 10
-45.68882947168643
 20
307.1622005679977
 30
0.0
 11
-41.68882947168643
 21
304.8527994879976
 31
0.0
 12
-45.68882947168643
 22
302.5433984079975
 32
0.0
 13
-45.68882947168643
 23
302.5433984079975
 33
0.0
  0
SOLID
  5
1C1D2
330
18
100
AcDbEntity
  8
0
  6
BYBLOCK
 62
     0
100
AcDbTrace
 10
-36.68882947168643
 20
307.1622005679977
 30
0.0
 11
-40.68882947168643
 21
304.8527994879976
 31
0.0
 12
-36.68882947168643
 22
302.5433984079975
 32
0.0
 13
-36.68882947168643
 23
302.5433984079975
 33
0.0
  0
CIRCLE
  5
1C2BB
330
18
100
AcDbEntity
  8
0
100
AcDbCircle
 10
392.1667843708673
 20
186.0439228544419
 30
0.0
 40
4.0
  0
CIRCLE
  5
1C2BC
330
18
100
AcDbEntity
  8
DIMENSION
  6
CONTINUOUS
100
AcDbCircle
 10
392.1667843708673
 20
186.0439228544419
 30
0.0
 40
3.5
  0
LWPOLYLINE
  5
1C2BD
330
18
100
AcDbEntity
  8
DIMENSION
  6
CONTINUOUS
100
AcDbPolyline
 90
        6
 70
     1
 43
0.0
 10
393.8398169767863
 20
185.5956351187741
 10
392.6150721065346
 20
184.3708902485229
 10
390.9420395006158
 20
184.8191779841894
 10
390.4937517649483
 20
186.4922105901085
 10
391.7184966351999
 20
187.7169554603602
 10
393.3915292411191
 20
187.2686677246936
  0
CIRCLE
  5
1C2BE
330
18
100
AcDbEntity
  8
0
100
AcDbCircle
 10
328.4972992756475
 20
186.0439228544419
 30
0.0
 40
4.0
  0
CIRCLE
  5
1C2BF
330
18
100
AcDbEntity
  8
DIMENSION
  6
CONTINUOUS
100
AcDbCircle
 10
328.4972992756475
 20
186.0439228544419
 30
0.0
 40
3.5
  0
LWPOLYLINE
  5
1C2C0
330
18
100
AcDbEntity
  8
DIMENSION
  6
CONTINUOUS
100
AcDbPolyline
 90
        6
 70
     1
 43
0.0
 10
329.7220441458987
 20
184.8191779841894
 10
328.0490115399807
 20
184.3708902485229
 10
326.8242666697285
 20
185.5956351187746
 10
327.2725544053952
 20
187.2686677246939
 10
328.9455870113137
 20
187.7169554603606
 10
330.1703318815658
 20
186.4922105901088
  0
LINE
  5
1C2C4
330
18
100
AcDbEntity
  8
中心線
100
AcDbLine
 10
360.3434743172698
 20
173.6027999859094
 30
0.0
 11
360.3206093292456
 21
436.1027989900853
 31
0.0
  0
LINE
  5
1C2C5
330
18
100
AcDbEntity
  8
0
100
AcDbLine
 10
260.3320418232576
 20
179.852799487997
 30
0.0
 11
360.3429299128344
 21
179.852799487997
 31
0.0
  0
LINE
  5
1C2C8
330
18
100
AcDbEntity
  8
0
100
AcDbLine
 10
360.3429299128344
 20
179.852799487997
 30
0.0
 11
460.3320418232579
 21
179.8527994879973
 31
0.0
  0
LINE
  5
1C2D4
330
18
100
AcDbEntity
  8
0
100
AcDbLine
 10
260.3320418232576
 20
429.8527994879973
 30
0.0
 11
360.3211537336811
 21
429.8527994879973
 31
0.0
  0
CIRCLE
  5
1C2D5
330
18
100
AcDbEntity
  8
0
100
AcDbCircle
 10
328.4972992756478
 20
423.6616761215526
 30
0.0
 40
4.0
  0
CIRCLE
  5
1C2D6
330
18
100
AcDbEntity
  8
DIMENSION
  6
CONTINUOUS
100
AcDbCircle
 10
328.4972992756478
 20
423.6616761215526
 30
0.0
 40
3.5
  0
CIRCLE
  5
1C2D8
330
18
100
AcDbEntity
  8
0
100
AcDbCircle
 10
360.3320418232576
 20
304.8527994879973
 30
0.0
 40
32.5
  0
LINE
  5
1C2DB
330
18
100
AcDbEntity
  8
0
100
AcDbLine
 10
235.3320418232576
 20
404.8527994879973
 30
0.0
 11
235.3320418232578
 21
304.8419113984206
 31
0.0
  0
LINE
  5
1C2DC
330
18
100
AcDbEntity
  8
0
100
AcDbLine
 10
231.3227409970997
 20
390.6303246640858
 30
0.0
 11
231.3263993951697
 21
369.6303249827496
 31
0.0
  0
LINE
  5
1C2DD
330
18
100
AcDbEntity
  8
0
100
AcDbLine
 10
234.3263993496459
 20
369.6308476110451
 30
0.0
 11
234.3227409515758
 21
390.6308472923815
 31
0.0
  0
LINE
  5
1C2DE
330
18
100
AcDbEntity
  8
0
100
AcDbLine
 10
229.3262252160868
 20
370.6299765487113
 30
0.0
 11
229.3229152368805
 21
389.6299762603965
 31
0.0
  0
CIRCLE
  5
1C2DF
330
18
100
AcDbEntity
  8
0
100
AcDbCircle
 10
241.5231651897024
 20
273.0180569403874
 30
0.0
 40
4.0
  0
CIRCLE
  5
1C2E0
330
18
100
AcDbEntity
  8
DIMENSION
  6
CONTINUOUS
100
AcDbCircle
 10
241.5231651897024
 20
273.0180569403874
 30
0.0
 40
3.5
  0
LINE
  5
1C2E1
330
18
100
AcDbEntity
  8
0
100
AcDbLine
 10
235.3320418232578
 20
304.8419113984206
 30
0.0
 11
235.3320418232576
 21
204.8527994879969
 31
0.0
  0
ARC
  5
1C2E4
330
18
100
AcDbEntity
  8
中心線
100
AcDbCircle
 10
360.3320418232576
 20
304.8527994879973
 30
0.0
 40
142.0
100
AcDbArc
 50
219.7577689449203
 51
230.2522125203303
  0
LINE
  5
1C2E5
330
18
100
AcDbEntity
  8
中心線
100
AcDbLine
 10
269.1232128075213
 20
213.6280796496872
 30
0.0
 11
250.7400379671405
 21
195.2417020078574
 31
0.0
  0
LINE
  5
1C2E7
330
18
100
AcDbEntity
  8
0
100
AcDbLine
 10
229.3459457237783
 20
220.0299792633401
 30
0.0
 11
229.3426357445721
 21
239.0299789750253
 31
0.0
  0
LINE
  5
1C2E8
330
18
100
AcDbEntity
  8
0
100
AcDbLine
 10
234.3461198573371
 20
219.030850325674
 30
0.0
 11
234.3424614592672
 21
240.0308500070102
 31
0.0
  0
LINE
  5
1C2E9
330
18
100
AcDbEntity
  8
0
100
AcDbLine
 10
231.3424615047911
 20
240.0303273787144
 30
0.0
 11
231.3461199028612
 21
219.0303276973783
 31
0.0
  0
LINE
  5
1C2EC
330
18
100
AcDbEntity
  8
0
100
AcDbLine
 10
231.3450697920901
 20
225.0581916509092
 30
0.0
 11
234.3450697465665
 21
225.0587142792049
 31
0.0
  0
LINE
  5
1C2ED
330
18
100
AcDbEntity
  8
0
100
AcDbLine
 10
231.3453344227334
 20
223.5391542705073
 30
0.0
 11
234.3453343772095
 21
223.5396768988029
 31
0.0
  0
LINE
  5
1C2EE
330
18
100
AcDbEntity
  8
0
100
AcDbLine
 10
234.3461198573371
 20
219.030850325674
 30
0.0
 11
231.3461199028612
 21
219.0303276973783
 31
0.0
  0
LINE
  5
1C2EF
330
18
100
AcDbEntity
  8
0
100
AcDbLine
 10
231.3455798536223
 20
222.1303276503379
 30
0.0
 11
229.3455798839711
 21
222.129979231474
 31
0.0
  0
LINE
  5
1C2F0
330
18
100
AcDbEntity
  8
0
100
AcDbLine
 10
235.3458585280155
 20
220.5310245123443
 30
0.0
 11
234.3458585431893
 21
220.5308503029123
 31
0.0
  0
LINE
  5
1C2F1
330
18
100
AcDbEntity
  8
0
100
AcDbLine
 10
234.3432469393952
 20
235.5220234338815
 30
0.0
 11
231.3432469849189
 21
235.5215008055858
 31
0.0
  0
LINE
  5
1C2F2
330
18
100
AcDbEntity
  8
0
100
AcDbLine
 10
234.3435115700381
 20
234.0029860534794
 30
0.0
 11
231.3435116155621
 21
234.0024634251839
 31
0.0
  0
LINE
  5
1C2F3
330
18
100
AcDbEntity
  8
0
100
AcDbLine
 10
234.3424614592672
 20
240.0308500070102
 30
0.0
 11
231.3424615047911
 21
240.0303273787144
 31
0.0
  0
LINE
  5
1C2F4
330
18
100
AcDbEntity
  8
0
100
AcDbLine
 10
231.34300155403
 20
236.930327425756
 30
0.0
 11
229.343001584379
 21
236.9299790068922
 31
0.0
  0
LINE
  5
1C2F5
330
18
100
AcDbEntity
  8
0
100
AcDbLine
 10
235.3427227582411
 20
238.5310242392038
 30
0.0
 11
234.3427227734153
 21
238.5308500297719
 31
0.0
  0
LWPOLYLINE
  5
1C2F6
330
18
100
AcDbEntity
  8
DIMENSION
  6
CONTINUOUS
100
AcDbPolyline
 90
        6
 70
     1
 43
0.0
 10
241.0748774540345
 20
271.3450243344686
 10
239.8501325837834
 20
272.5697692047205
 10
240.2984203194498
 20
274.2428018106392
 10
241.971452925369
 20
274.6910895463066
 10
243.1961977956205
 20
273.4663446760549
 10
242.7479100599541
 20
271.7933120701359
  0
CIRCLE
  5
1C2F7
330
18
100
AcDbEntity
  8
0
100
AcDbCircle
 10
273.3579077373125
 20
217.8786654020522
 30
0.0
 40
4.0
  0
CIRCLE
  5
1C2F8
330
18
100
AcDbEntity
  8
DIMENSION
  6
CONTINUOUS
100
AcDbCircle
 10
273.3579077373125
 20
217.8786654020522
 30
0.0
 40
3.5
  0
LWPOLYLINE
  5
1C2F9
330
18
100
AcDbEntity
  8
DIMENSION
  6
CONTINUOUS
100
AcDbPolyline
 90
        6
 70
     1
 43
0.0
 10
273.8061954729785
 20
216.205632796133
 10
272.1331628670603
 20
216.6539205318001
 10
271.684875131393
 20
218.3269531377187
 10
272.909620001645
 20
219.5516980079712
 10
274.5826526075635
 20
219.1034102723043
 10
275.0309403432307
 20
217.4303776663858
  0
CIRCLE
  5
1C2FF
330
18
100
AcDbEntity
  8
0
100
AcDbCircle
 10
241.5231651897024
 20
336.6875420356076
 30
0.0
 40
4.0
  0
CIRCLE
  5
1C300
330
18
100
AcDbEntity
  8
DIMENSION
  6
CONTINUOUS
100
AcDbCircle
 10
241.5231651897024
 20
336.6875420356076
 30
0.0
 40
3.5
  0
LWPOLYLINE
  5
1C301
330
18
100
AcDbEntity
  8
DIMENSION
  6
CONTINUOUS
100
AcDbPolyline
 90
        6
 70
     1
 43
0.0
 10
240.2984203194498
 20
335.4627971653561
 10
239.8501325837834
 20
337.1358297712743
 10
241.0748774540349
 20
338.3605746415266
 10
242.7479100599541
 20
337.9122869058598
 10
243.1961977956209
 20
336.2392542999415
 10
241.9714529253695
 20
335.0145094296893
  0
LINE
  5
1C302
330
18
100
AcDbEntity
  8
0
100
AcDbLine
 10
234.3263993496459
 20
369.6308476110451
 30
0.0
 11
231.3263993951697
 21
369.6303249827496
 31
0.0
  0
LINE
  5
1C303
330
18
100
AcDbEntity
  8
0
100
AcDbLine
 10
235.3261380203241
 20
371.1310217977155
 30
0.0
 11
234.3261380354979
 21
371.1308475882833
 31
0.0
  0
ARC
  5
1C30C
330
18
100
AcDbEntity
  8
中心線
100
AcDbCircle
 10
360.3320418232576
 20
304.8527994879973
 30
0.0
 40
142.0
100
AcDbArc
 50
129.7577689449203
 51
140.2522125203302
  0
LINE
  5
1C30D
330
18
100
AcDbEntity
  8
中心線
100
AcDbLine
 10
269.1073219849474
 20
396.0616285037335
 30
0.0
 11
250.7209443431175
 21
414.4448033441146
 31
0.0
  0
LINE
  5
1C30F
330
18
100
AcDbEntity
  8
0
100
AcDbLine
 10
231.3256139150419
 20
374.1391515558785
 30
0.0
 11
234.325613869518
 21
374.1396741841741
 31
0.0
  0
LINE
  5
1C310
330
18
100
AcDbEntity
  8
0
100
AcDbLine
 10
231.3253492843989
 20
375.6581889362802
 30
0.0
 11
234.325349238875
 21
375.6587115645761
 31
0.0
  0
LINE
  5
1C311
330
18
100
AcDbEntity
  8
0
100
AcDbLine
 10
231.3258593459309
 20
372.7303249357091
 30
0.0
 11
229.3258593762798
 21
372.7299765168451
 31
0.0
  0
LINE
  5
1C312
330
18
100
AcDbEntity
  8
0
100
AcDbLine
 10
234.3227409515758
 20
390.6308472923815
 30
0.0
 11
231.3227409970997
 21
390.6303246640858
 31
0.0
  0
LINE
  5
1C313
330
18
100
AcDbEntity
  8
0
100
AcDbLine
 10
234.3237910623467
 20
384.6029833388507
 30
0.0
 11
231.3237911078704
 21
384.6024607105551
 31
0.0
  0
LINE
  5
1C314
330
18
100
AcDbEntity
  8
0
100
AcDbLine
 10
234.3235264317036
 20
386.1220207192527
 30
0.0
 11
231.3235264772276
 21
386.1214980909571
 31
0.0
  0
LINE
  5
1C315
330
18
100
AcDbEntity
  8
0
100
AcDbLine
 10
231.3232810463385
 20
387.5303247111271
 30
0.0
 11
229.3232810766876
 21
387.5299762922633
 31
0.0
  0
LINE
  5
1C316
330
18
100
AcDbEntity
  8
0
100
AcDbLine
 10
235.3230022505496
 20
389.1310215245751
 30
0.0
 11
234.3230022657237
 21
389.1308473151433
 31
0.0
  0
ARC
  5
1C319
330
18
100
AcDbEntity
  8
中心線
100
AcDbCircle
 10
360.3320418232576
 20
304.8527994879973
 30
0.0
 40
123.0
100
AcDbArc
 50
115.4690900631397
 51
134.5152249797357
  0
CIRCLE
  5
1C31A
330
18
100
AcDbEntity
  8
0
100
AcDbCircle
 10
273.3579077373125
 20
391.8269335739427
 30
0.0
 40
4.0
  0
CIRCLE
  5
1C31B
330
18
100
AcDbEntity
  8
DIMENSION
  6
CONTINUOUS
100
AcDbCircle
 10
273.3579077373125
 20
391.8269335739427
 30
0.0
 40
3.5
  0
LWPOLYLINE
  5
1C31C
330
18
100
AcDbEntity
  8
DIMENSION
  6
CONTINUOUS
100
AcDbPolyline
 90
        6
 70
     1
 43
0.0
 10
271.6848751313932
 20
391.3786458382766
 10
272.1331628670605
 20
393.0516784441948
 10
273.8061954729789
 20
393.4999661798619
 10
275.0309403432315
 20
392.2752213096102
 10
274.5826526075645
 20
390.6021887036917
 10
272.909620001646
 20
390.1539009680245
  0
LINE
  5
1C31D
330
18
100
AcDbEntity
  8
中心線
100
AcDbLine
 10
293.2414222139551
 20
400.6960528298852
 30
0.0
 11
286.3585049777423
 21
410.5258773613531
 31
0.0
  0
LINE
  5
1C31E
330
18
100
AcDbEntity
  8
DIMENSION
  6
BYBLOCK
 62
     0
100
AcDbLine
 10
291.5288933884298
 20
403.1692619450421
 30
0.0
 11
288.0874347703236
 21
408.0841742107759
 31
0.0
  0
LINE
  5
1C31F
330
18
100
AcDbEntity
  8
DIMENSION
  6
BYBLOCK
 62
     0
100
AcDbLine
 10
292.2656202122436
 20
407.3474473869621
 30
0.0
 11
287.3507079465098
 21
403.9059887688559
 31
0.0
  0
CIRCLE
  5
1C320
330
18
100
AcDbEntity
  8
0
100
AcDbCircle
 10
289.8081640793768
 20
405.6267180779087
 30
0.0
 40
3.0
  0
HATCH
  5
1C321
330
18
100
AcDbEntity
  8
DIMENSION
  6
BYBLOCK
 62
     0
100
AcDbHatch
 10
0.0
 20
0.0
 30
0.0
210
0.0
220
0.0
230
1.0
  2
ANSI31
 70
     0
 71
     0
 91
        4
 92
        7
 72
     1
 73
     1
 93
        3
 10
292.6086960020293
 20
404.5510689947024
 42
0.0088242164717323
 10
289.8081640793768
 20
405.626718077909
 42
0.0
 10
292.2656202122436
 20
407.3474473869621
 42
-0.2493796996436278
 97
        0
 92
        7
 72
     1
 73
     1
 93
        3
 10
289.8081640793768
 20
405.626718077909
 42
-0.0088242164717323
 10
292.6086960020293
 20
404.5510689947024
 42
-0.1494012440317256
 10
291.5288933884298
 20
403.1692619450421
 42
0.0
 97
        0
 92
        7
 72
     1
 73
     1
 93
        3
 10
289.8081640793768
 20
405.626718077909
 42
0.0
 10
287.3507079465097
 20
403.9059887688559
 42
-0.2400272838228544
 10
286.9714182591954
 20
406.6028702953852
 42
-0.0088242164717324
 97
        0
 92
        7
 72
     1
 73
     1
 93
        3
 10
286.9714182591954
 20
406.6028702953852
 42
-0.1584343322340092
 10
288.0874347703236
 20
408.0841742107759
 42
0.0
 10
289.8081640793768
 20
405.626718077909
 42
0.0088242164717324
 97
        0
 75
     0
 76
     1
 52
235.0
 41
1.0
 77
     0
 78
     1
 53
80.00000000000007
 43
724.9188941313989
 44
311.9708093192838
 45
0.123100969126526
 46
-0.0217060222083662
 79
     0
 47
0.0130930922504628
 98
        4
 10
292.3986445426725
 20
405.5694650484163
 10
291.4206726485798
 20
404.3410361019191
 10
288.2310226927173
 20
405.4494351679347
 10
287.6910017684737
 20
406.8141687133699
  0
LWPOLYLINE
  5
1C328
330
18
100
AcDbEntity
  8
DIMENSION
  6
CONTINUOUS
100
AcDbPolyline
 90
        6
 70
     1
 43
0.0
 10
326.8242666697291
 20
424.1099638572205
 10
328.0490115399808
 20
425.3347087274716
 10
329.7220441458996
 20
424.8864209918052
 10
330.170331881567
 20
423.2133883858861
 10
328.9455870113151
 20
421.9886435156345
 10
327.2725544053963
 20
422.4369312513009
  0
LINE
  5
1C32C
330
18
100
AcDbEntity
  8
0
100
AcDbLine
 10
485.3320418232579
 20
404.8527994879972
 30
0.0
 11
485.3320418232579
 21
304.8636875775741
 31
0.0
  0
ARC
  5
1C32E
330
18
100
AcDbEntity
  8
中心線
100
AcDbCircle
 10
360.3320418232576
 20
304.8527994879973
 30
0.0
 40
123.0
100
AcDbArc
 50
295.4690900631396
 51
314.5152249797356
  0
LINE
  5
1C32F
330
18
100
AcDbEntity
  8
中心線
100
AcDbLine
 10
427.4226614325603
 20
209.0095461461093
 30
0.0
 11
434.3055786687728
 21
199.1797216146414
 31
0.0
  0
CIRCLE
  5
1C330
330
18
100
AcDbEntity
  8
0
100
AcDbCircle
 10
430.8559195671387
 20
204.0788808980858
 30
0.0
 40
3.0
  0
LINE
  5
1C331
330
18
100
AcDbEntity
  8
DIMENSION
  6
BYBLOCK
 62
     0
100
AcDbLine
 10
428.3984634342718
 20
202.3581515890325
 30
0.0
 11
433.3133757000057
 21
205.7996102071385
 31
0.0
  0
LINE
  5
1C332
330
18
100
AcDbEntity
  8
DIMENSION
  6
BYBLOCK
 62
     0
100
AcDbLine
 10
429.1351902580855
 20
206.5363370309526
 30
0.0
 11
432.5766488761917
 21
201.6214247652186
 31
0.0
  0
HATCH
  5
1C333
330
18
100
AcDbEntity
  8
DIMENSION
  6
BYBLOCK
 62
     0
100
AcDbHatch
 10
0.0
 20
0.0
 30
0.0
210
0.0
220
0.0
230
1.0
  2
ANSI31
 70
     0
 71
     0
 91
        4
 92
        7
 72
     1
 73
     1
 93
        3
 10
428.0553876444861
 20
205.1545299812923
 42
0.0088242164717323
 10
430.8559195671387
 20
204.0788808980856
 42
0.0
 10
428.3984634342718
 20
202.3581515890325
 42
-0.2493796996436278
 97
        0
 92
        7
 72
     1
 73
     1
 93
        3
 10
430.8559195671387
 20
204.0788808980856
 42
-0.0088242164717323
 10
428.0553876444861
 20
205.1545299812923
 42
-0.1494012440317256
 10
429.1351902580855
 20
206.5363370309526
 42
0.0
 97
        0
 92
        7
 72
     1
 73
     1
 93
        3
 10
430.8559195671387
 20
204.0788808980856
 42
0.0
 10
433.3133757000058
 20
205.7996102071385
 42
-0.2400272838228544
 10
433.69266538732
 20
203.1027286806093
 42
-0.0088242164717324
 97
        0
 92
        7
 72
     1
 73
     1
 93
        3
 10
433.69266538732
 20
203.1027286806093
 42
-0.1584343322340092
 10
432.5766488761916
 20
201.6214247652186
 42
0.0
 10
430.8559195671387
 20
204.0788808980856
 42
0.0088242164717324
 97
        0
 75
     0
 76
     1
 52
414.9999999999998
 41
1.0
 77
     0
 78
     1
 53
260.0
 43
-4.254810484883363
 44
297.7347896567112
 45
-0.123100969126526
 46
0.0217060222083663
 79
     0
 47
0.0130930922504628
 98
        4
 10
428.265439103843
 20
204.1361339275783
 10
429.2434109979354
 20
205.3645628740755
 10
432.4330609537978
 20
204.2561638080599
 10
432.9730818780418
 20
202.8914302626247
  0
ARC
  5
1C334
330
18
100
AcDbEntity
  8
中心線
100
AcDbCircle
 10
360.3320418232576
 20
304.8527994879973
 30
0.0
 40
142.0
100
AcDbArc
 50
309.7577689449204
 51
320.2522125203303
  0
LINE
  5
1C335
330
18
100
AcDbEntity
  8
中心線
100
AcDbLine
 10
451.556761661568
 20
213.643970472261
 30
0.0
 11
469.9431393033978
 21
195.2607956318801
 31
0.0
  0
CIRCLE
  5
1C337
330
18
100
AcDbEntity
  8
0
100
AcDbCircle
 10
447.3061759092027
 20
217.878665402052
 30
0.0
 40
4.0
  0
CIRCLE
  5
1C338
330
18
100
AcDbEntity
  8
DIMENSION
  6
CONTINUOUS
100
AcDbCircle
 10
447.3061759092027
 20
217.878665402052
 30
0.0
 40
3.5
  0
LWPOLYLINE
  5
1C339
330
18
100
AcDbEntity
  8
DIMENSION
  6
CONTINUOUS
100
AcDbPolyline
 90
        6
 70
     1
 43
0.0
 10
448.9792085151218
 20
218.326953137718
 10
448.530920779455
 20
216.6539205318
 10
446.8578881735362
 20
216.2056327961327
 10
445.633143303284
 20
217.4303776663847
 10
446.0814310389507
 20
219.103410272303
 10
447.7544636448692
 20
219.5516980079704
  0
CIRCLE
  5
1C33E
330
18
100
AcDbEntity
  8
0
100
AcDbCircle
 10
479.1409184568131
 20
273.018056940387
 30
0.0
 40
4.0
  0
CIRCLE
  5
1C33F
330
18
100
AcDbEntity
  8
DIMENSION
  6
CONTINUOUS
100
AcDbCircle
 10
479.1409184568131
 20
273.018056940387
 30
0.0
 40
3.5
  0
LINE
  5
1C340
330
18
100
AcDbEntity
  8
0
100
AcDbLine
 10
485.3320418232579
 20
304.8636875775741
 30
0.0
 11
485.3320418232579
 21
204.8527994879973
 31
0.0
  0
LWPOLYLINE
  5
1C343
330
18
100
AcDbEntity
  8
DIMENSION
  6
CONTINUOUS
100
AcDbPolyline
 90
        6
 70
     1
 43
0.0
 10
480.3656633270656
 20
274.2428018106386
 10
480.813951062732
 20
272.5697692047203
 10
479.5892061924804
 20
271.345024334468
 10
477.9161735865613
 20
271.7933120701346
 10
477.4678858508946
 20
273.4663446760533
 10
478.692630721146
 20
274.6910895463055
  0
CIRCLE
  5
1C345
330
18
100
AcDbEntity
  8
0
100
AcDbCircle
 10
479.1409184568131
 20
336.6875420356072
 30
0.0
 40
4.0
  0
CIRCLE
  5
1C346
330
18
100
AcDbEntity
  8
DIMENSION
  6
CONTINUOUS
100
AcDbCircle
 10
479.1409184568131
 20
336.6875420356072
 30
0.0
 40
3.5
  0
LWPOLYLINE
  5
1C347
330
18
100
AcDbEntity
  8
DIMENSION
  6
CONTINUOUS
100
AcDbPolyline
 90
        6
 70
     1
 43
0.0
 10
479.589206192481
 20
338.3605746415259
 10
480.813951062732
 20
337.1358297712741
 10
480.3656633270656
 20
335.4627971653553
 10
478.6926307211465
 20
335.0145094296881
 10
477.4678858508948
 20
336.2392542999399
 10
477.9161735865613
 20
337.9122869058587
  0
LINE
  5
1C349
330
18
100
AcDbEntity
  8
0
100
AcDbLine
 10
360.3211537336811
 20
429.8527994879973
 30
0.0
 11
460.3320418232579
 21
429.8527994879972
 31
0.0
  0
CIRCLE
  5
1C34B
330
18
100
AcDbEntity
  8
0
100
AcDbCircle
 10
392.1667843708678
 20
423.6616761215526
 30
0.0
 40
4.0
  0
CIRCLE
  5
1C34C
330
18
100
AcDbEntity
  8
DIMENSION
  6
CONTINUOUS
100
AcDbCircle
 10
392.1667843708678
 20
423.6616761215526
 30
0.0
 40
3.5
  0
LWPOLYLINE
  5
1C34D
330
18
100
AcDbEntity
  8
DIMENSION
  6
CONTINUOUS
100
AcDbPolyline
 90
        6
 70
     1
 43
0.0
 10
390.9420395006165
 20
424.8864209918052
 10
392.6150721065346
 20
425.3347087274716
 10
393.8398169767868
 20
424.1099638572201
 10
393.3915292411202
 20
422.4369312513009
 10
391.7184966352017
 20
421.988643515634
 10
390.4937517649496
 20
423.2133883858857
  0
LINE
  5
1C34E
330
18
100
AcDbEntity
  8
中心線
100
AcDbLine
 10
451.5408708389942
 20
396.0775193263076
 30
0.0
 11
469.9240456793751
 21
414.4638969681373
 31
0.0
  0
ARC
  5
1C34F
330
18
100
AcDbEntity
  8
中心線
100
AcDbCircle
 10
360.3320418232576
 20
304.8527994879973
 30
0.0
 40
142.0
100
AcDbArc
 50
39.75776894492046
 51
50.25221252033039
  0
CIRCLE
  5
1C350
330
18
100
AcDbEntity
  8
0
100
AcDbCircle
 10
447.3061759092031
 20
391.8269335739426
 30
0.0
 40
4.0
  0
CIRCLE
  5
1C351
330
18
100
AcDbEntity
  8
DIMENSION
  6
CONTINUOUS
100
AcDbCircle
 10
447.3061759092031
 20
391.8269335739426
 30
0.0
 40
3.5
  0
LWPOLYLINE
  5
1C353
330
18
100
AcDbEntity
  8
DIMENSION
  6
CONTINUOUS
100
AcDbPolyline
 90
        6
 70
     1
 43
0.0
 10
446.8578881735369
 20
393.4999661798618
 10
448.5309207794552
 20
393.0516784441948
 10
448.9792085151223
 20
391.3786458382762
 10
447.7544636448705
 20
390.1539009680236
 10
446.081431038952
 20
390.6021887036905
 10
445.6331433032848
 20
392.2752213096091
  0
LINE
  5
1C358
330
18
100
AcDbEntity
  8
0
100
AcDbLine
 10
219.3229452530994
 20
389.4568055972499
 30
0.0
 11
219.3261955033573
 21
370.7996630232193
 31
0.0
  0
LINE
  5
1C359
330
18
100
AcDbEntity
  8
0
100
AcDbLine
 10
226.3227410729721
 20
390.6294536169263
 30
0.0
 11
226.326399471042
 21
369.6294539355901
 31
0.0
  0
LINE
  5
1C35A
330
18
100
AcDbEntity
  8
0
100
AcDbLine
 10
220.3263995620889
 20
369.6284086789986
 30
0.0
 11
215.8254812977971
 21
374.8990532279917
 31
0.0
  0
ARC
  5
1C35B
330
18
100
AcDbEntity
  8
0
100
AcDbCircle
 10
228.3001435068463
 20
369.9308825984014
 30
0.0
 40
9.015903847971632
100
AcDbArc
 50
152.1895426094193
 51
174.4703481467429
  0
LINE
  5
1C35C
330
18
100
AcDbEntity
  8
0
100
AcDbLine
 10
215.843380072572
 20
234.7561986410835
 30
0.0
 11
215.8452018054886
 21
224.2990559426206
 31
0.0
  0
ARC
  5
1C35D
330
18
100
AcDbEntity
  8
0
100
AcDbCircle
 10
229.8442907265883
 20
229.5300662238985
 30
0.0
 40
10.50000000000042
100
AcDbArc
 50
154.8012161684953
 51
205.2187467620091
  0
LINE
  5
1C35E
330
18
100
AcDbEntity
  8
0
100
AcDbLine
 10
226.3424615806635
 20
240.0294563315551
 30
0.0
 11
226.3461199787334
 21
219.0294566502188
 31
0.0
  0
LINE
  5
1C35F
330
18
100
AcDbEntity
  8
0
100
AcDbLine
 10
219.342665760791
 20
238.8568083118788
 30
0.0
 11
219.3459160110488
 21
220.1996657378483
 31
0.0
  0
LINE
  5
1C360
330
18
100
AcDbEntity
  8
0
100
AcDbLine
 10
220.3450699590093
 20
225.056275347158
 30
0.0
 11
226.3450698679626
 21
225.0573206037496
 31
0.0
  0
LINE
  5
1C361
330
18
100
AcDbEntity
  8
0
100
AcDbLine
 10
220.3453345896523
 20
223.5372379667563
 30
0.0
 11
226.3453344986057
 21
223.5382832233478
 31
0.0
  0
LINE
  5
1C362
330
18
100
AcDbEntity
  8
0
100
AcDbLine
 10
226.3461199787334
 20
219.0294566502188
 30
0.0
 11
220.3461200697805
 21
219.0284113936274
 31
0.0
  0
LINE
  5
1C363
330
18
100
AcDbEntity
  8
0
100
AcDbLine
 10
220.3450699590093
 20
225.0562753471583
 30
0.0
 11
220.3453345896523
 21
223.5372379667563
 31
0.0
  0
LINE
  5
1C364
330
18
100
AcDbEntity
  8
0
100
AcDbLine
 10
220.3461200697805
 20
219.0284113936274
 30
0.0
 11
215.8452018054886
 21
224.2990559426206
 31
0.0
  0
ARC
  5
1C365
330
18
100
AcDbEntity
  8
0
100
AcDbCircle
 10
228.3198640145377
 20
219.33088531303
 30
0.0
 40
9.015903847971632
100
AcDbArc
 50
152.1895426094193
 51
174.4703481467429
  0
LINE
  5
1C366
330
18
100
AcDbEntity
  8
0
100
AcDbLine
 10
229.3459457237783
 20
220.0299792633401
 30
0.0
 11
226.3459457693016
 21
220.0294566350443
 31
0.0
  0
LINE
  5
1C367
330
18
100
AcDbEntity
  8
0
100
AcDbLine
 10
226.3424615806635
 20
240.0294563315551
 30
0.0
 11
220.3424616717103
 21
240.0284110749637
 31
0.0
  0
LINE
  5
1C368
330
18
100
AcDbEntity
  8
0
100
AcDbLine
 10
226.3432470607913
 20
235.5206297584263
 30
0.0
 11
220.3432471518381
 21
235.5195845018349
 31
0.0
  0
LINE
  5
1C369
330
18
100
AcDbEntity
  8
0
100
AcDbLine
 10
226.3435116914345
 20
234.0015923780244
 30
0.0
 11
220.3435117824813
 21
234.0005471214329
 31
0.0
  0
LINE
  5
1C36A
330
18
100
AcDbEntity
  8
0
100
AcDbLine
 10
203.8170365794039
 20
227.4364204344827
 30
0.0
 11
215.8577779776849
 21
227.4385180452334
 31
0.0
  0
LINE
  5
1C36B
330
18
100
AcDbEntity
  8
0
100
AcDbLine
 10
203.8163048997905
 20
231.63642037075
 30
0.0
 11
215.8570462980708
 21
231.6385179815005
 31
0.0
  0
ARC
  5
1C36C
330
18
100
AcDbEntity
  8
0
100
AcDbCircle
 10
202.6365507310023
 20
228.4862147986439
 30
0.0
 40
1.579751577084588
100
AcDbArc
 50
318.3536221944966
 51
41.66634073600354
  0
ARC
  5
1C36D
330
18
100
AcDbEntity
  8
0
100
AcDbCircle
 10
204.9967907481923
 20
230.5866260065891
 30
0.0
 40
1.579751577084588
100
AcDbArc
 50
138.3536221944964
 51
221.6663407360035
  0
ARC
  5
1C36E
330
18
100
AcDbEntity
  8
0
100
AcDbCircle
 10
204.9971565879985
 20
228.4866260384553
 30
0.0
 40
1.579751577084588
100
AcDbArc
 50
138.3536221944964
 51
221.6663407360035
  0
LINE
  5
1C36F
330
18
100
AcDbEntity
  8
0
100
AcDbLine
 10
220.3424616717108
 20
240.0284110749637
 30
0.0
 11
215.843380072572
 21
234.7561986410834
 31
0.0
  0
ARC
  5
1C370
330
18
100
AcDbEntity
  8
0
100
AcDbCircle
 10
228.3163105200963
 20
239.7287153766835
 30
0.0
 40
9.015903847971632
100
AcDbArc
 50
185.5496147837551
 51
207.8304203210791
  0
LINE
  5
1C371
330
18
100
AcDbEntity
  8
0
100
AcDbLine
 10
220.3432471518381
 20
235.5195845018349
 30
0.0
 11
220.3435117824813
 21
234.0005471214331
 31
0.0
  0
LINE
  5
1C372
330
18
100
AcDbEntity
  8
0
100
AcDbLine
 10
229.3426357445721
 20
239.0299789750253
 30
0.0
 11
226.3426357900954
 21
239.0294563467295
 31
0.0
  0
LINE
  5
1C373
330
18
100
AcDbEntity
  8
0
100
AcDbLine
 10
226.326399471042
 20
369.6294539355901
 30
0.0
 11
220.3263995620889
 21
369.6284086789986
 31
0.0
  0
LINE
  5
1C374
330
18
100
AcDbEntity
  8
0
100
AcDbLine
 10
229.3262252160868
 20
370.6299765487113
 30
0.0
 11
226.3262252616101
 21
370.6294539204156
 31
0.0
  0
LINE
  5
1C375
330
18
100
AcDbEntity
  8
0
100
AcDbLine
 10
226.3227410729721
 20
390.6294536169263
 30
0.0
 11
220.3227411640189
 21
390.6284083603348
 31
0.0
  0
LINE
  5
1C376
330
18
100
AcDbEntity
  8
0
100
AcDbLine
 10
220.3256140819608
 20
374.1372352521275
 30
0.0
 11
226.3256139909142
 21
374.1382805087191
 31
0.0
  0
LINE
  5
1C377
330
18
100
AcDbEntity
  8
0
100
AcDbLine
 10
220.325349451318
 20
375.6562726325292
 30
0.0
 11
226.325349360271
 21
375.6573178891207
 31
0.0
  0
LINE
  5
1C378
330
18
100
AcDbEntity
  8
0
100
AcDbLine
 10
226.3237911837429
 20
384.6015896633955
 30
0.0
 11
220.3237912747896
 21
384.6005444068042
 31
0.0
  0
LINE
  5
1C379
330
18
100
AcDbEntity
  8
0
100
AcDbLine
 10
226.3235265531
 20
386.1206270437975
 30
0.0
 11
220.3235266441465
 21
386.1195817872062
 31
0.0
  0
ARC
  5
1C37A
330
18
100
AcDbEntity
  8
0
100
AcDbCircle
 10
207.1732159097686
 20
378.8885126683258
 30
0.0
 40
1.880656636903949
100
AcDbArc
 50
138.3436407292487
 51
221.656359270751
  0
ARC
  5
1C37B
330
18
100
AcDbEntity
  8
0
100
AcDbCircle
 10
207.173215909769
 20
381.3885126650258
 30
0.0
 40
1.880656636903949
100
AcDbArc
 50
138.3436407292487
 51
221.656359270751
  0
ARC
  5
1C37C
330
18
100
AcDbEntity
  8
0
100
AcDbCircle
 10
229.8245702188968
 20
380.1300635092697
 30
0.0
 40
10.50000000000042
100
AcDbArc
 50
154.8012161684953
 51
205.2187467620091
  0
LINE
  5
1C37D
330
18
100
AcDbEntity
  8
0
100
AcDbLine
 10
215.8236595648805
 20
385.3561959264546
 30
0.0
 11
215.8254812977971
 21
374.8990532279917
 31
0.0
  0
LINE
  5
1C37E
330
18
100
AcDbEntity
  8
0
100
AcDbLine
 10
215.8245690087329
 20
377.6385126699759
 30
0.0
 11
205.7680933563748
 21
377.6385126699758
 31
0.0
  0
LINE
  5
1C37F
330
18
100
AcDbEntity
  8
0
100
AcDbLine
 10
215.8245690087329
 20
382.6385126633758
 30
0.0
 11
205.7680933563755
 21
382.6385126633756
 31
0.0
  0
ARC
  5
1C380
330
18
100
AcDbEntity
  8
0
100
AcDbCircle
 10
204.3629708029817
 20
381.3885126650258
 30
0.0
 40
1.880656636903949
100
AcDbArc
 50
318.3436407292488
 51
41.6563592707512
  0
LINE
  5
1C381
330
18
100
AcDbEntity
  8
0
100
AcDbLine
 10
220.325349451318
 20
375.6562726325292
 30
0.0
 11
220.3256140819608
 21
374.1372352521275
 31
0.0
  0
LINE
  5
1C382
330
18
100
AcDbEntity
  8
0
100
AcDbLine
 10
220.3235266441465
 20
386.1195817872062
 30
0.0
 11
220.3237912747896
 21
384.6005444068042
 31
0.0
  0
LINE
  5
1C383
330
18
100
AcDbEntity
  8
0
100
AcDbLine
 10
220.3227411640193
 20
390.6284083603348
 30
0.0
 11
215.8236595648805
 21
385.3561959264546
 31
0.0
  0
ARC
  5
1C384
330
18
100
AcDbEntity
  8
0
100
AcDbCircle
 10
228.2965900124048
 20
390.3287126620548
 30
0.0
 40
9.015903847971632
100
AcDbArc
 50
185.5496147837551
 51
207.8304203210791
  0
LINE
  5
1C385
330
18
100
AcDbEntity
  8
0
100
AcDbLine
 10
229.3229152368805
 20
389.6299762603965
 30
0.0
 11
226.322915282404
 21
389.6294536321008
 31
0.0
  0
LINE
  5
1C386
330
18
100
AcDbEntity
  8
中心線
100
AcDbLine
 10
226.069777935741
 20
304.8527994879973
 30
0.0
 11
494.7050720353011
 21
304.8527994879973
 31
0.0
  0
LINE
  5
1C3CF
102
{ACAD_REACTORS
330
1C44A
102
}
330
18
100
AcDbEntity
  8
仮想線
  6
BYBLOCK
 48
0.5
100
AcDbLine
 10
71.39045482862332
 20
177.8528100612435
 30
0.0
 11
31.39045482862332
 21
177.8527889982495
 31
0.0
  0
LINE
  5
1C3D0
102
{ACAD_REACTORS
330
1C44A
102
}
330
18
100
AcDbEntity
  8
仮想線
 48
0.5
100
AcDbLine
 10
71.39045482862354
 20
173.3528100612428
 30
0.0
 11
31.39045482862287
 21
173.352788998249
 31
0.0
  0
LINE
  5
1C3D1
102
{ACAD_REACTORS
330
1C44A
102
}
330
18
100
AcDbEntity
  8
仮想線
 48
0.5
100
AcDbLine
 10
65.91106521334234
 20
171.0528047954944
 30
0.0
 11
56.71106521334253
 21
171.0528047954944
 31
0.0
  0
LINE
  5
1C3D2
102
{ACAD_REACTORS
330
1C44A
102
}
330
18
100
AcDbEntity
  8
仮想線
 48
0.5
100
AcDbLine
 10
61.31106521334244
 20
172.3528047954937
 30
0.0
 11
56.31106521334244
 21
172.3528047954945
 31
0.0
  0
LINE
  5
1C3D3
102
{ACAD_REACTORS
330
1C44A
102
}
330
18
100
AcDbEntity
  8
仮想線
 48
0.5
100
AcDbLine
 10
36.71106521334275
 20
171.0528047954944
 30
0.0
 11
45.91106521334257
 21
171.0528047954944
 31
0.0
  0
LINE
  5
1C3D4
102
{ACAD_REACTORS
330
1C44A
102
}
330
18
100
AcDbEntity
  8
仮想線
 48
0.5
100
AcDbLine
 10
41.31106521334244
 20
172.3528047954937
 30
0.0
 11
46.31106521334266
 21
172.3528047954945
 31
0.0
  0
LINE
  5
1C3D5
102
{ACAD_REACTORS
330
1C44A
102
}
330
18
100
AcDbEntity
  8
仮想線
 48
0.5
100
AcDbLine
 10
37.2816755980624
 20
166.0528047954944
 30
0.0
 11
45.18167559806204
 21
166.0528047954944
 31
0.0
  0
LINE
  5
1C3D6
102
{ACAD_REACTORS
330
1C44A
102
}
330
18
100
AcDbEntity
  8
仮想線
  6
BYBLOCK
 48
0.5
100
AcDbLine
 10
31.39045482862287
 20
173.352788998249
 30
0.0
 11
31.39045482862332
 21
177.8527889982495
 31
0.0
  0
LINE
  5
1C3D7
102
{ACAD_REACTORS
330
1C44A
102
}
330
18
100
AcDbEntity
  8
仮想線
 48
0.5
100
AcDbLine
 10
36.31106521334289
 20
173.3528047954948
 30
0.0
 11
36.31106521334264
 21
172.3528047954945
 31
0.0
  0
LINE
  5
1C3D8
102
{ACAD_REACTORS
330
1C44A
102
}
330
18
100
AcDbEntity
  8
仮想線
 48
0.5
100
AcDbLine
 10
36.71106521334275
 20
172.3528047954943
 30
0.0
 11
36.71106521334275
 21
171.0528047954944
 31
0.0
  0
LINE
  5
1C3D9
102
{ACAD_REACTORS
330
1C44A
102
}
330
18
100
AcDbEntity
  8
仮想線
 48
0.5
100
AcDbLine
 10
36.31106521334264
 20
172.3528047954945
 30
0.0
 11
41.31106521334244
 21
172.3528047954938
 31
0.0
  0
LINE
  5
1C3DA
102
{ACAD_REACTORS
330
1C44A
102
}
330
18
100
AcDbEntity
  8
仮想線
 48
0.5
100
AcDbLine
 10
37.2816755980624
 20
166.0528047954944
 30
0.0
 11
36.98167559806222
 21
166.3528047954945
 31
0.0
  0
LINE
  5
1C3DB
102
{ACAD_REACTORS
330
1C44A
102
}
330
18
100
AcDbEntity
  8
仮想線
 48
0.5
100
AcDbLine
 10
36.98167559806222
 20
171.0528047954944
 30
0.0
 11
36.98167559806222
 21
166.3528047954945
 31
0.0
  0
LINE
  5
1C3DC
102
{ACAD_REACTORS
330
1C44A
102
}
330
18
100
AcDbEntity
  8
仮想線
 48
0.5
100
AcDbLine
 10
46.31106521334266
 20
173.3528047954948
 30
0.0
 11
46.31106521334266
 21
172.3528047954945
 31
0.0
  0
LINE
  5
1C3DD
102
{ACAD_REACTORS
330
1C44A
102
}
330
18
100
AcDbEntity
  8
仮想線
 48
0.5
100
AcDbLine
 10
45.91106521334257
 20
172.3528047954943
 30
0.0
 11
45.91106521334257
 21
171.0528047954944
 31
0.0
  0
LINE
  5
1C3DE
102
{ACAD_REACTORS
330
1C44A
102
}
330
18
100
AcDbEntity
  8
仮想線
 48
0.5
100
AcDbLine
 10
56.31106521334244
 20
173.3528047954948
 30
0.0
 11
56.31106521334244
 21
172.3528047954945
 31
0.0
  0
LINE
  5
1C3DF
102
{ACAD_REACTORS
330
1C44A
102
}
330
18
100
AcDbEntity
  8
仮想線
 48
0.5
100
AcDbLine
 10
56.71106521334253
 20
172.3528047954943
 30
0.0
 11
56.71106521334253
 21
171.0528047954944
 31
0.0
  0
LINE
  5
1C3E0
102
{ACAD_REACTORS
330
1C44A
102
}
330
18
100
AcDbEntity
  8
仮想線
 48
0.5
100
AcDbLine
 10
45.48167559806223
 20
166.3528047954943
 30
0.0
 11
45.18167559806204
 21
166.0528047954944
 31
0.0
  0
LINE
  5
1C3E1
102
{ACAD_REACTORS
330
1C44A
102
}
330
18
100
AcDbEntity
  8
仮想線
 48
0.5
100
AcDbLine
 10
45.48167559806223
 20
171.0528047954944
 30
0.0
 11
45.48167559806223
 21
166.3528047954943
 31
0.0
  0
LINE
  5
1C3E2
102
{ACAD_REACTORS
330
1C44A
102
}
330
18
100
AcDbEntity
  8
仮想線
 48
0.5
100
AcDbLine
 10
66.31106521334221
 20
173.3528047954948
 30
0.0
 11
66.31106521334243
 21
172.3528047954945
 31
0.0
  0
LINE
  5
1C3E3
102
{ACAD_REACTORS
330
1C44A
102
}
330
18
100
AcDbEntity
  8
仮想線
 48
0.5
100
AcDbLine
 10
65.91106521334234
 20
172.3528047954943
 30
0.0
 11
65.91106521334234
 21
171.0528047954944
 31
0.0
  0
LINE
  5
1C3E4
102
{ACAD_REACTORS
330
1C44A
102
}
330
18
100
AcDbEntity
  8
仮想線
 48
0.5
100
AcDbLine
 10
66.31106521334243
 20
172.3528047954945
 30
0.0
 11
61.31106521334244
 21
172.3528047954937
 31
0.0
  0
LINE
  5
1C3E5
102
{ACAD_REACTORS
330
1C44A
102
}
330
18
100
AcDbEntity
  8
仮想線
 48
0.5
100
AcDbLine
 10
65.34045482862267
 20
166.0528047954944
 30
0.0
 11
65.64045482862287
 21
166.3528047954945
 31
0.0
  0
LINE
  5
1C3E6
102
{ACAD_REACTORS
330
1C44A
102
}
330
18
100
AcDbEntity
  8
仮想線
 48
0.5
100
AcDbLine
 10
57.14045482862285
 20
166.3528047954943
 30
0.0
 11
57.44045482862304
 21
166.0528047954944
 31
0.0
  0
LINE
  5
1C3E7
102
{ACAD_REACTORS
330
1C44A
102
}
330
18
100
AcDbEntity
  8
仮想線
 48
0.5
100
AcDbLine
 10
65.34045482862267
 20
166.0528047954944
 30
0.0
 11
57.44045482862304
 21
166.0528047954944
 31
0.0
  0
LINE
  5
1C3E8
102
{ACAD_REACTORS
330
1C44A
102
}
330
18
100
AcDbEntity
  8
仮想線
 48
0.5
100
AcDbLine
 10
65.64045482862287
 20
171.0528047954944
 30
0.0
 11
65.64045482862287
 21
166.3528047954945
 31
0.0
  0
LINE
  5
1C3E9
102
{ACAD_REACTORS
330
1C44A
102
}
330
18
100
AcDbEntity
  8
仮想線
 48
0.5
100
AcDbLine
 10
57.14045482862285
 20
171.0528047954944
 30
0.0
 11
57.14045482862285
 21
166.3528047954943
 31
0.0
  0
LINE
  5
1C3EA
102
{ACAD_REACTORS
330
1C44A
102
}
330
18
100
AcDbEntity
  8
仮想線
 48
0.5
100
AcDbLine
 10
71.39045482862332
 20
177.8528100612435
 30
0.0
 11
71.39045482862354
 21
173.3528100612428
 31
0.0
  0
LINE
  5
1C3EB
102
{ACAD_REACTORS
330
1C44A
102
}
330
18
100
AcDbEntity
  8
中心線
 48
0.5
100
AcDbLine
 10
61.31106521334221
 20
188.3858041137913
 30
0.0
 11
61.31106521334244
 21
163.2949410716193
 31
0.0
  0
LINE
  5
1C3EC
102
{ACAD_REACTORS
330
1C44A
102
}
330
18
100
AcDbEntity
  8
中心線
 48
0.5
100
AcDbLine
 10
41.31106521334266
 20
188.3858041137913
 30
0.0
 11
41.31106521334266
 21
163.2949410716193
 31
0.0
  0
LINE
  5
1C439
330
18
100
AcDbEntity
  8
２点鎖線
 48
0.5
100
AcDbLine
 10
41.28724786422947
 20
141.1181202558726
 30
0.0
 11
61.28724786422947
 21
141.1181202558726
 31
0.0
  0
LINE
  5
1C43A
330
18
100
AcDbEntity
  8
CENTER
100
AcDbLine
 10
75.40570120058408
 20
121.1181202558724
 30
0.0
 11
27.3232847770895
 21
121.1181202558724
 31
0.0
  0
LINE
  5
1C43B
330
18
100
AcDbEntity
  8
CENTER
 48
0.5
100
AcDbLine
 10
67.26695723095054
 20
97.94812389734602
 30
0.0
 11
34.47318555770925
 21
97.94812389734602
 31
0.0
  0
LINE
  5
1C43C
330
18
100
AcDbEntity
  8
２点鎖線
 48
0.5
100
AcDbLine
 10
68.28724786422957
 20
90.94812389734556
 30
0.0
 11
34.28724786422935
 21
90.94812389734556
 31
0.0
  0
CIRCLE
  5
1C43D
330
18
100
AcDbEntity
  8
２点鎖線
 48
0.5
100
AcDbCircle
 10
51.28724786430928
 20
121.1181202558722
 30
0.0
 40
10.0
  0
LINE
  5
1C43E
330
18
100
AcDbEntity
  8
２点鎖線
 48
0.5
100
AcDbLine
 10
31.28724786422935
 20
93.94812389734555
 30
0.0
 11
31.28724786422947
 21
131.1181202558726
 31
0.0
  0
CIRCLE
  5
1C43F
330
18
100
AcDbEntity
  8
２点鎖線
 48
0.5
100
AcDbCircle
 10
41.31117052831257
 20
97.94812389734602
 30
0.0
 40
4.25
  0
LINE
  5
1C440
330
18
100
AcDbEntity
  8
中心線
 48
0.5
100
AcDbLine
 10
41.31117052831257
 20
104.0286090984458
 30
0.0
 11
41.31117052831257
 21
92.00049589938521
 31
0.0
  0
LINE
  5
1C441
330
18
100
AcDbEntity
  8
２点鎖線
 48
0.5
100
AcDbLine
 10
34.28724786422935
 20
90.94812389734556
 30
0.0
 11
31.28724786422935
 21
93.94812389734555
 31
0.0
  0
LINE
  5
1C442
330
18
100
AcDbEntity
  8
２点鎖線
 48
0.5
100
AcDbLine
 10
41.28724786422947
 20
141.1181202558726
 30
0.0
 11
31.28724786422947
 21
131.1181202558726
 31
0.0
  0
LINE
  5
1C443
330
18
100
AcDbEntity
  8
２点鎖線
 48
0.5
100
AcDbLine
 10
71.28724786422947
 20
131.1181202558726
 30
0.0
 11
71.28724786422957
 21
93.94812389734555
 31
0.0
  0
LINE
  5
1C444
330
18
100
AcDbEntity
  8
２点鎖線
 48
0.5
100
AcDbLine
 10
68.28724786422957
 20
90.94812389734556
 30
0.0
 11
71.28724786422957
 21
93.94812389734555
 31
0.0
  0
LINE
  5
1C445
330
18
100
AcDbEntity
  8
中心線
 48
0.5
100
AcDbLine
 10
61.31117052831257
 20
104.0286090984458
 30
0.0
 11
61.31117052831257
 21
92.00049589938521
 31
0.0
  0
CIRCLE
  5
1C446
330
18
100
AcDbEntity
  8
２点鎖線
 48
0.5
100
AcDbCircle
 10
61.31117052831257
 20
97.94812389734602
 30
0.0
 40
4.25
  0
LINE
  5
1C447
330
18
100
AcDbEntity
  8
２点鎖線
 48
0.5
100
AcDbLine
 10
71.28724786422947
 20
131.1181202558726
 30
0.0
 11
61.28724786422947
 21
141.1181202558726
 31
0.0
  0
LINE
  5
1C44B
102
{ACAD_REACTORS
330
1C469
102
}
330
18
100
AcDbEntity
  8
仮想線
 48
0.5
100
AcDbLine
 10
31.23188622800348
 20
436.3527889147518
 30
0.0
 11
71.23188622800416
 21
436.3528099777458
 31
0.0
  0
LINE
  5
1C44C
102
{ACAD_REACTORS
330
1C469
102
}
330
18
100
AcDbEntity
  8
仮想線
  6
BYBLOCK
 48
0.5
100
AcDbLine
 10
71.23188622800416
 20
436.3528099777458
 30
0.0
 11
71.2318862280037
 21
431.8528099777452
 31
0.0
  0
LINE
  5
1C44D
102
{ACAD_REACTORS
330
1C469
102
}
330
18
100
AcDbEntity
  8
仮想線
 48
0.5
100
AcDbLine
 10
61.3112758432846
 20
437.3527941805011
 30
0.0
 11
56.31127584328437
 21
437.3527941805001
 31
0.0
  0
LINE
  5
1C44E
102
{ACAD_REACTORS
330
1C469
102
}
330
18
100
AcDbEntity
  8
仮想線
 48
0.5
100
AcDbLine
 10
65.91127584328427
 20
438.6527941805003
 30
0.0
 11
56.71127584328446
 21
438.6527941805003
 31
0.0
  0
LINE
  5
1C44F
102
{ACAD_REACTORS
330
1C469
102
}
330
18
100
AcDbEntity
  8
中心線
 48
0.5
100
AcDbLine
 10
61.31127584328435
 20
421.3197948622036
 30
0.0
 11
61.31127584328438
 21
446.4106579043756
 31
0.0
  0
LINE
  5
1C450
102
{ACAD_REACTORS
330
1C469
102
}
330
18
100
AcDbEntity
  8
仮想線
 48
0.5
100
AcDbLine
 10
57.14066545856478
 20
438.6527941805003
 30
0.0
 11
57.14066545856482
 21
443.3527941805007
 31
0.0
  0
LINE
  5
1C451
102
{ACAD_REACTORS
330
1C469
102
}
330
18
100
AcDbEntity
  8
仮想線
 48
0.5
100
AcDbLine
 10
65.6406654585648
 20
438.6527941805003
 30
0.0
 11
65.64066545856481
 21
443.3527941805
 31
0.0
  0
LINE
  5
1C452
102
{ACAD_REACTORS
330
1C469
102
}
330
18
100
AcDbEntity
  8
仮想線
 48
0.5
100
AcDbLine
 10
57.14066545856482
 20
443.3527941805007
 30
0.0
 11
57.44066545856499
 21
443.6527941805003
 31
0.0
  0
LINE
  5
1C453
102
{ACAD_REACTORS
330
1C469
102
}
330
18
100
AcDbEntity
  8
仮想線
 48
0.5
100
AcDbLine
 10
65.34066545856463
 20
443.6527941805003
 30
0.0
 11
65.64066545856481
 21
443.3527941805
 31
0.0
  0
LINE
  5
1C454
102
{ACAD_REACTORS
330
1C469
102
}
330
18
100
AcDbEntity
  8
仮想線
 48
0.5
100
AcDbLine
 10
65.34066545856463
 20
443.6527941805003
 30
0.0
 11
57.44066545856499
 21
443.6527941805003
 31
0.0
  0
LINE
  5
1C455
102
{ACAD_REACTORS
330
1C469
102
}
330
18
100
AcDbEntity
  8
仮想線
 48
0.5
100
AcDbLine
 10
66.31127584328436
 20
437.3527941805001
 30
0.0
 11
61.3112758432846
 21
437.3527941805011
 31
0.0
  0
LINE
  5
1C456
102
{ACAD_REACTORS
330
1C469
102
}
330
18
100
AcDbEntity
  8
仮想線
 48
0.5
100
AcDbLine
 10
65.91127584328427
 20
437.3527941805006
 30
0.0
 11
65.91127584328427
 21
438.6527941805003
 31
0.0
  0
LINE
  5
1C457
102
{ACAD_REACTORS
330
1C469
102
}
330
18
100
AcDbEntity
  8
仮想線
 48
0.5
100
AcDbLine
 10
66.31127584328414
 20
436.3527941805001
 30
0.0
 11
66.31127584328436
 21
437.3527941805001
 31
0.0
  0
LINE
  5
1C458
102
{ACAD_REACTORS
330
1C469
102
}
330
18
100
AcDbEntity
  8
仮想線
 48
0.5
100
AcDbLine
 10
56.71127584328446
 20
437.3527941805006
 30
0.0
 11
56.71127584328446
 21
438.6527941805003
 31
0.0
  0
LINE
  5
1C459
102
{ACAD_REACTORS
330
1C469
102
}
330
18
100
AcDbEntity
  8
仮想線
 48
0.5
100
AcDbLine
 10
56.31127584328437
 20
436.3527941805001
 30
0.0
 11
56.31127584328437
 21
437.3527941805001
 31
0.0
  0
LINE
  5
1C45A
102
{ACAD_REACTORS
330
1C469
102
}
330
18
100
AcDbEntity
  8
中心線
 48
0.5
100
AcDbLine
 10
41.3112758432848
 20
421.3197948622036
 30
0.0
 11
41.3112758432846
 21
446.4106579043756
 31
0.0
  0
LINE
  5
1C45B
102
{ACAD_REACTORS
330
1C469
102
}
330
18
100
AcDbEntity
  8
仮想線
 48
0.5
100
AcDbLine
 10
37.28188622800435
 20
443.6527941805003
 30
0.0
 11
45.18188622800399
 21
443.6527941805003
 31
0.0
  0
LINE
  5
1C45C
102
{ACAD_REACTORS
330
1C469
102
}
330
18
100
AcDbEntity
  8
仮想線
 48
0.5
100
AcDbLine
 10
36.3112758432846
 20
437.3527941805001
 30
0.0
 11
41.31127584328459
 21
437.3527941805011
 31
0.0
  0
LINE
  5
1C45D
102
{ACAD_REACTORS
330
1C469
102
}
330
18
100
AcDbEntity
  8
仮想線
 48
0.5
100
AcDbLine
 10
36.71127584328468
 20
438.6527941805003
 30
0.0
 11
45.91127584328449
 21
438.6527941805003
 31
0.0
  0
LINE
  5
1C45E
102
{ACAD_REACTORS
330
1C469
102
}
330
18
100
AcDbEntity
  8
仮想線
 48
0.5
100
AcDbLine
 10
45.48188622800416
 20
438.6527941805003
 30
0.0
 11
45.48188622800417
 21
443.3527941805007
 31
0.0
  0
LINE
  5
1C45F
102
{ACAD_REACTORS
330
1C469
102
}
330
18
100
AcDbEntity
  8
仮想線
 48
0.5
100
AcDbLine
 10
45.48188622800417
 20
443.3527941805007
 30
0.0
 11
45.18188622800399
 21
443.6527941805003
 31
0.0
  0
LINE
  5
1C460
102
{ACAD_REACTORS
330
1C469
102
}
330
18
100
AcDbEntity
  8
仮想線
 48
0.5
100
AcDbLine
 10
45.91127584328449
 20
437.3527941805006
 30
0.0
 11
45.91127584328449
 21
438.6527941805003
 31
0.0
  0
LINE
  5
1C461
102
{ACAD_REACTORS
330
1C469
102
}
330
18
100
AcDbEntity
  8
仮想線
 48
0.5
100
AcDbLine
 10
46.31127584328459
 20
436.3527941805001
 30
0.0
 11
46.31127584328459
 21
437.3527941805001
 31
0.0
  0
LINE
  5
1C462
102
{ACAD_REACTORS
330
1C469
102
}
330
18
100
AcDbEntity
  8
仮想線
 48
0.5
100
AcDbLine
 10
41.31127584328459
 20
437.3527941805011
 30
0.0
 11
46.31127584328459
 21
437.3527941805001
 31
0.0
  0
LINE
  5
1C463
102
{ACAD_REACTORS
330
1C469
102
}
330
18
100
AcDbEntity
  8
仮想線
 48
0.5
100
AcDbLine
 10
37.28188622800435
 20
443.6527941805003
 30
0.0
 11
36.98188622800417
 21
443.3527941805
 31
0.0
  0
LINE
  5
1C464
102
{ACAD_REACTORS
330
1C469
102
}
330
18
100
AcDbEntity
  8
仮想線
 48
0.5
100
AcDbLine
 10
36.98188622800417
 20
438.6527941805003
 30
0.0
 11
36.98188622800417
 21
443.3527941805
 31
0.0
  0
LINE
  5
1C465
102
{ACAD_REACTORS
330
1C469
102
}
330
18
100
AcDbEntity
  8
仮想線
 48
0.5
100
AcDbLine
 10
36.71127584328468
 20
437.3527941805006
 30
0.0
 11
36.71127584328468
 21
438.6527941805003
 31
0.0
  0
LINE
  5
1C466
102
{ACAD_REACTORS
330
1C469
102
}
330
18
100
AcDbEntity
  8
仮想線
 48
0.5
100
AcDbLine
 10
36.31127584328481
 20
436.3527941805001
 30
0.0
 11
36.3112758432846
 21
437.3527941805001
 31
0.0
  0
LINE
  5
1C467
102
{ACAD_REACTORS
330
1C469
102
}
330
18
100
AcDbEntity
  8
仮想線
  6
BYBLOCK
 48
0.5
100
AcDbLine
 10
31.23188622800372
 20
431.8527889147512
 30
0.0
 11
71.2318862280037
 21
431.8528099777452
 31
0.0
  0
LINE
  5
1C468
102
{ACAD_REACTORS
330
1C469
102
}
330
18
100
AcDbEntity
  8
仮想線
 48
0.5
100
AcDbLine
 10
31.23188622800372
 20
431.8527889147514
 30
0.0
 11
31.23188622800348
 21
436.3527889147518
 31
0.0
  0
LINE
  5
1C46A
102
{ACAD_REACTORS
330
1C488
102
}
330
18
100
AcDbEntity
  8
仮想線
100
AcDbLine
 10
374.9321253620907
 20
438.6527937045246
 30
0.0
 11
365.7321253620909
 21
438.6527937045246
 31
0.0
  0
LINE
  5
1C46B
102
{ACAD_REACTORS
330
1C488
102
}
330
18
100
AcDbEntity
  8
仮想線
100
AcDbLine
 10
340.2527357468098
 20
436.3527884387763
 30
0.0
 11
380.2527357468106
 21
436.35280950177
 31
0.0
  0
LINE
  5
1C46C
102
{ACAD_REACTORS
330
1C488
102
}
330
18
100
AcDbEntity
  8
仮想線
  6
BYBLOCK
100
AcDbLine
 10
380.2527357468106
 20
436.35280950177
 30
0.0
 11
380.2527357468101
 21
431.8528095017697
 31
0.0
  0
LINE
  5
1C46D
102
{ACAD_REACTORS
330
1C488
102
}
330
18
100
AcDbEntity
  8
仮想線
100
AcDbLine
 10
370.3321253620909
 20
437.3527937045253
 30
0.0
 11
365.3321253620908
 21
437.3527937045245
 31
0.0
  0
LINE
  5
1C46E
102
{ACAD_REACTORS
330
1C488
102
}
330
18
100
AcDbEntity
  8
中心線
100
AcDbLine
 10
370.3321253620908
 20
421.3197943862279
 30
0.0
 11
370.3321253620908
 21
446.4106574283999
 31
0.0
  0
LINE
  5
1C46F
102
{ACAD_REACTORS
330
1C488
102
}
330
18
100
AcDbEntity
  8
仮想線
100
AcDbLine
 10
366.1615149773712
 20
438.6527937045246
 30
0.0
 11
366.1615149773712
 21
443.3527937045248
 31
0.0
  0
LINE
  5
1C470
102
{ACAD_REACTORS
330
1C488
102
}
330
18
100
AcDbEntity
  8
仮想線
100
AcDbLine
 10
374.6615149773712
 20
438.6527937045246
 30
0.0
 11
374.6615149773712
 21
443.3527937045242
 31
0.0
  0
LINE
  5
1C471
102
{ACAD_REACTORS
330
1C488
102
}
330
18
100
AcDbEntity
  8
仮想線
100
AcDbLine
 10
366.1615149773712
 20
443.3527937045248
 30
0.0
 11
366.4615149773712
 21
443.6527937045246
 31
0.0
  0
LINE
  5
1C472
102
{ACAD_REACTORS
330
1C488
102
}
330
18
100
AcDbEntity
  8
仮想線
100
AcDbLine
 10
374.361514977371
 20
443.6527937045246
 30
0.0
 11
374.6615149773712
 21
443.3527937045242
 31
0.0
  0
LINE
  5
1C473
102
{ACAD_REACTORS
330
1C488
102
}
330
18
100
AcDbEntity
  8
仮想線
100
AcDbLine
 10
374.361514977371
 20
443.6527937045246
 30
0.0
 11
366.4615149773712
 21
443.6527937045246
 31
0.0
  0
LINE
  5
1C474
102
{ACAD_REACTORS
330
1C488
102
}
330
18
100
AcDbEntity
  8
仮想線
100
AcDbLine
 10
375.3321253620908
 20
437.3527937045245
 30
0.0
 11
370.3321253620909
 21
437.3527937045253
 31
0.0
  0
LINE
  5
1C475
102
{ACAD_REACTORS
330
1C488
102
}
330
18
100
AcDbEntity
  8
仮想線
100
AcDbLine
 10
374.9321253620907
 20
437.3527937045248
 30
0.0
 11
374.9321253620907
 21
438.6527937045246
 31
0.0
  0
LINE
  5
1C476
102
{ACAD_REACTORS
330
1C488
102
}
330
18
100
AcDbEntity
  8
仮想線
100
AcDbLine
 10
375.3321253620906
 20
436.3527937045244
 30
0.0
 11
375.3321253620908
 21
437.3527937045245
 31
0.0
  0
LINE
  5
1C477
102
{ACAD_REACTORS
330
1C488
102
}
330
18
100
AcDbEntity
  8
仮想線
100
AcDbLine
 10
365.7321253620909
 20
437.3527937045248
 30
0.0
 11
365.7321253620909
 21
438.6527937045246
 31
0.0
  0
LINE
  5
1C478
102
{ACAD_REACTORS
330
1C488
102
}
330
18
100
AcDbEntity
  8
仮想線
100
AcDbLine
 10
365.3321253620908
 20
436.3527937045244
 30
0.0
 11
365.3321253620908
 21
437.3527937045245
 31
0.0
  0
LINE
  5
1C479
102
{ACAD_REACTORS
330
1C488
102
}
330
18
100
AcDbEntity
  8
中心線
100
AcDbLine
 10
350.3321253620912
 20
421.3197943862279
 30
0.0
 11
350.332125362091
 21
446.4106574283999
 31
0.0
  0
LINE
  5
1C47A
102
{ACAD_REACTORS
330
1C488
102
}
330
18
100
AcDbEntity
  8
仮想線
100
AcDbLine
 10
346.3027357468108
 20
443.6527937045246
 30
0.0
 11
354.2027357468104
 21
443.6527937045246
 31
0.0
  0
LINE
  5
1C47B
102
{ACAD_REACTORS
330
1C488
102
}
330
18
100
AcDbEntity
  8
仮想線
100
AcDbLine
 10
345.3321253620909
 20
437.3527937045245
 30
0.0
 11
350.332125362091
 21
437.3527937045253
 31
0.0
  0
LINE
  5
1C47C
102
{ACAD_REACTORS
330
1C488
102
}
330
18
100
AcDbEntity
  8
仮想線
100
AcDbLine
 10
345.7321253620911
 20
438.6527937045246
 30
0.0
 11
354.9321253620909
 21
438.6527937045246
 31
0.0
  0
LINE
  5
1C47D
102
{ACAD_REACTORS
330
1C488
102
}
330
18
100
AcDbEntity
  8
仮想線
100
AcDbLine
 10
354.5027357468106
 20
438.6527937045246
 30
0.0
 11
354.5027357468106
 21
443.3527937045248
 31
0.0
  0
LINE
  5
1C47E
102
{ACAD_REACTORS
330
1C488
102
}
330
18
100
AcDbEntity
  8
仮想線
100
AcDbLine
 10
354.5027357468106
 20
443.3527937045248
 30
0.0
 11
354.2027357468104
 21
443.6527937045246
 31
0.0
  0
LINE
  5
1C47F
102
{ACAD_REACTORS
330
1C488
102
}
330
18
100
AcDbEntity
  8
仮想線
100
AcDbLine
 10
354.9321253620909
 20
437.3527937045248
 30
0.0
 11
354.9321253620909
 21
438.6527937045246
 31
0.0
  0
LINE
  5
1C480
102
{ACAD_REACTORS
330
1C488
102
}
330
18
100
AcDbEntity
  8
仮想線
100
AcDbLine
 10
355.332125362091
 20
436.3527937045244
 30
0.0
 11
355.332125362091
 21
437.3527937045245
 31
0.0
  0
LINE
  5
1C481
102
{ACAD_REACTORS
330
1C488
102
}
330
18
100
AcDbEntity
  8
仮想線
100
AcDbLine
 10
350.332125362091
 20
437.3527937045253
 30
0.0
 11
355.332125362091
 21
437.3527937045245
 31
0.0
  0
LINE
  5
1C482
102
{ACAD_REACTORS
330
1C488
102
}
330
18
100
AcDbEntity
  8
仮想線
100
AcDbLine
 10
346.3027357468108
 20
443.6527937045246
 30
0.0
 11
346.0027357468106
 21
443.3527937045242
 31
0.0
  0
LINE
  5
1C483
102
{ACAD_REACTORS
330
1C488
102
}
330
18
100
AcDbEntity
  8
仮想線
100
AcDbLine
 10
346.0027357468106
 20
438.6527937045246
 30
0.0
 11
346.0027357468106
 21
443.3527937045242
 31
0.0
  0
LINE
  5
1C484
102
{ACAD_REACTORS
330
1C488
102
}
330
18
100
AcDbEntity
  8
仮想線
100
AcDbLine
 10
345.7321253620911
 20
437.3527937045248
 30
0.0
 11
345.7321253620911
 21
438.6527937045246
 31
0.0
  0
LINE
  5
1C485
102
{ACAD_REACTORS
330
1C488
102
}
330
18
100
AcDbEntity
  8
仮想線
100
AcDbLine
 10
345.3321253620913
 20
436.3527937045244
 30
0.0
 11
345.3321253620909
 21
437.3527937045245
 31
0.0
  0
LINE
  5
1C486
102
{ACAD_REACTORS
330
1C488
102
}
330
18
100
AcDbEntity
  8
仮想線
  6
BYBLOCK
100
AcDbLine
 10
340.2527357468101
 20
431.8527884387754
 30
0.0
 11
380.2527357468101
 21
431.8528095017697
 31
0.0
  0
LINE
  5
1C487
102
{ACAD_REACTORS
330
1C488
102
}
330
18
100
AcDbEntity
  8
仮想線
100
AcDbLine
 10
340.2527357468101
 20
431.8527884387757
 30
0.0
 11
340.2527357468098
 21
436.3527884387763
 31
0.0
  0
LINE
  5
1C489
102
{ACAD_REACTORS
330
1C4A7
102
}
330
18
100
AcDbEntity
  8
仮想線
100
AcDbLine
 10
380.4113478997056
 20
173.352810537218
 30
0.0
 11
340.4113478997048
 21
173.3527894742245
 31
0.0
  0
LINE
  5
1C48A
102
{ACAD_REACTORS
330
1C4A7
102
}
330
18
100
AcDbEntity
  8
仮想線
  6
BYBLOCK
100
AcDbLine
 10
340.4113478997048
 20
173.3527894742245
 30
0.0
 11
340.4113478997054
 21
177.8527894742247
 31
0.0
  0
LINE
  5
1C48B
102
{ACAD_REACTORS
330
1C4A7
102
}
330
18
100
AcDbEntity
  8
仮想線
100
AcDbLine
 10
350.3319582844245
 20
172.352805271469
 30
0.0
 11
355.3319582844246
 21
172.3528052714701
 31
0.0
  0
LINE
  5
1C48C
102
{ACAD_REACTORS
330
1C4A7
102
}
330
18
100
AcDbEntity
  8
仮想線
100
AcDbLine
 10
345.7319582844248
 20
171.05280527147
 30
0.0
 11
354.9319582844245
 21
171.05280527147
 31
0.0
  0
LINE
  5
1C48D
102
{ACAD_REACTORS
330
1C4A7
102
}
330
18
100
AcDbEntity
  8
中心線
100
AcDbLine
 10
350.3319582844246
 20
188.3858045897668
 30
0.0
 11
350.3319582844246
 21
163.2949415475945
 31
0.0
  0
LINE
  5
1C48E
102
{ACAD_REACTORS
330
1C4A7
102
}
330
18
100
AcDbEntity
  8
仮想線
100
AcDbLine
 10
354.5025686691443
 20
171.05280527147
 30
0.0
 11
354.5025686691443
 21
166.3528052714698
 31
0.0
  0
LINE
  5
1C48F
102
{ACAD_REACTORS
330
1C4A7
102
}
330
18
100
AcDbEntity
  8
仮想線
100
AcDbLine
 10
346.0025686691443
 20
171.05280527147
 30
0.0
 11
346.0025686691443
 21
166.35280527147
 31
0.0
  0
LINE
  5
1C490
102
{ACAD_REACTORS
330
1C4A7
102
}
330
18
100
AcDbEntity
  8
仮想線
100
AcDbLine
 10
354.5025686691443
 20
166.3528052714698
 30
0.0
 11
354.2025686691441
 21
166.0528052714699
 31
0.0
  0
LINE
  5
1C491
102
{ACAD_REACTORS
330
1C4A7
102
}
330
18
100
AcDbEntity
  8
仮想線
100
AcDbLine
 10
346.3025686691445
 20
166.0528052714699
 30
0.0
 11
346.0025686691443
 21
166.35280527147
 31
0.0
  0
LINE
  5
1C492
102
{ACAD_REACTORS
330
1C4A7
102
}
330
18
100
AcDbEntity
  8
仮想線
100
AcDbLine
 10
346.3025686691445
 20
166.0528052714699
 30
0.0
 11
354.2025686691441
 21
166.0528052714699
 31
0.0
  0
LINE
  5
1C493
102
{ACAD_REACTORS
330
1C4A7
102
}
330
18
100
AcDbEntity
  8
仮想線
100
AcDbLine
 10
345.3319582844246
 20
172.3528052714701
 30
0.0
 11
350.3319582844245
 21
172.3528052714693
 31
0.0
  0
LINE
  5
1C494
102
{ACAD_REACTORS
330
1C4A7
102
}
330
18
100
AcDbEntity
  8
仮想線
100
AcDbLine
 10
345.7319582844248
 20
172.3528052714698
 30
0.0
 11
345.7319582844248
 21
171.05280527147
 31
0.0
  0
LINE
  5
1C495
102
{ACAD_REACTORS
330
1C4A7
102
}
330
18
100
AcDbEntity
  8
仮想線
100
AcDbLine
 10
345.3319582844248
 20
173.3528052714701
 30
0.0
 11
345.3319582844246
 21
172.3528052714701
 31
0.0
  0
LINE
  5
1C496
102
{ACAD_REACTORS
330
1C4A7
102
}
330
18
100
AcDbEntity
  8
仮想線
100
AcDbLine
 10
354.9319582844245
 20
172.3528052714698
 30
0.0
 11
354.9319582844245
 21
171.05280527147
 31
0.0
  0
LINE
  5
1C497
102
{ACAD_REACTORS
330
1C4A7
102
}
330
18
100
AcDbEntity
  8
仮想線
100
AcDbLine
 10
355.3319582844246
 20
173.3528052714701
 30
0.0
 11
355.3319582844246
 21
172.3528052714701
 31
0.0
  0
LINE
  5
1C498
102
{ACAD_REACTORS
330
1C4A7
102
}
330
18
100
AcDbEntity
  8
中心線
100
AcDbLine
 10
370.3319582844242
 20
188.3858045897667
 30
0.0
 11
370.3319582844244
 21
163.2949415475945
 31
0.0
  0
LINE
  5
1C499
102
{ACAD_REACTORS
330
1C4A7
102
}
330
18
100
AcDbEntity
  8
仮想線
100
AcDbLine
 10
374.3613478997045
 20
166.0528052714699
 30
0.0
 11
366.4613478997051
 21
166.0528052714699
 31
0.0
  0
LINE
  5
1C49A
102
{ACAD_REACTORS
330
1C4A7
102
}
330
18
100
AcDbEntity
  8
仮想線
100
AcDbLine
 10
375.3319582844245
 20
172.3528052714701
 30
0.0
 11
370.3319582844244
 21
172.352805271469
 31
0.0
  0
LINE
  5
1C49B
102
{ACAD_REACTORS
330
1C4A7
102
}
330
18
100
AcDbEntity
  8
仮想線
100
AcDbLine
 10
374.9319582844242
 20
171.05280527147
 30
0.0
 11
365.7319582844245
 21
171.05280527147
 31
0.0
  0
LINE
  5
1C49C
102
{ACAD_REACTORS
330
1C4A7
102
}
330
18
100
AcDbEntity
  8
仮想線
100
AcDbLine
 10
366.1613478997048
 20
171.05280527147
 30
0.0
 11
366.1613478997048
 21
166.3528052714698
 31
0.0
  0
LINE
  5
1C49D
102
{ACAD_REACTORS
330
1C4A7
102
}
330
18
100
AcDbEntity
  8
仮想線
100
AcDbLine
 10
366.1613478997048
 20
166.3528052714698
 30
0.0
 11
366.4613478997051
 21
166.0528052714699
 31
0.0
  0
LINE
  5
1C49E
102
{ACAD_REACTORS
330
1C4A7
102
}
330
18
100
AcDbEntity
  8
仮想線
100
AcDbLine
 10
365.7319582844245
 20
172.3528052714698
 30
0.0
 11
365.7319582844245
 21
171.05280527147
 31
0.0
  0
LINE
  5
1C49F
102
{ACAD_REACTORS
330
1C4A7
102
}
330
18
100
AcDbEntity
  8
仮想線
100
AcDbLine
 10
365.3319582844245
 20
173.3528052714701
 30
0.0
 11
365.3319582844245
 21
172.3528052714701
 31
0.0
  0
LINE
  5
1C4A0
102
{ACAD_REACTORS
330
1C4A7
102
}
330
18
100
AcDbEntity
  8
仮想線
100
AcDbLine
 10
370.3319582844244
 20
172.352805271469
 30
0.0
 11
365.3319582844245
 21
172.3528052714701
 31
0.0
  0
LINE
  5
1C4A1
102
{ACAD_REACTORS
330
1C4A7
102
}
330
18
100
AcDbEntity
  8
仮想線
100
AcDbLine
 10
374.3613478997045
 20
166.0528052714699
 30
0.0
 11
374.6613478997048
 21
166.35280527147
 31
0.0
  0
LINE
  5
1C4A2
102
{ACAD_REACTORS
330
1C4A7
102
}
330
18
100
AcDbEntity
  8
仮想線
100
AcDbLine
 10
374.6613478997048
 20
171.05280527147
 30
0.0
 11
374.6613478997048
 21
166.35280527147
 31
0.0
  0
LINE
  5
1C4A3
102
{ACAD_REACTORS
330
1C4A7
102
}
330
18
100
AcDbEntity
  8
仮想線
100
AcDbLine
 10
374.9319582844242
 20
172.3528052714697
 30
0.0
 11
374.9319582844242
 21
171.05280527147
 31
0.0
  0
LINE
  5
1C4A4
102
{ACAD_REACTORS
330
1C4A7
102
}
330
18
100
AcDbEntity
  8
仮想線
100
AcDbLine
 10
375.3319582844242
 20
173.3528052714701
 30
0.0
 11
375.3319582844245
 21
172.3528052714701
 31
0.0
  0
LINE
  5
1C4A5
102
{ACAD_REACTORS
330
1C4A7
102
}
330
18
100
AcDbEntity
  8
仮想線
  6
BYBLOCK
100
AcDbLine
 10
380.4113478997052
 20
177.8528105372188
 30
0.0
 11
340.4113478997054
 21
177.8527894742247
 31
0.0
  0
LINE
  5
1C4A6
102
{ACAD_REACTORS
330
1C4A7
102
}
330
18
100
AcDbEntity
  8
仮想線
100
AcDbLine
 10
380.4113478997052
 20
177.8528105372188
 30
0.0
 11
380.4113478997056
 21
173.352810537218
 31
0.0
  0
CIRCLE
  5
1C509
102
{ACAD_REACTORS
330
1C526
102
}
330
18
100
AcDbEntity
  8
細線
100
AcDbCircle
 10
31.18002389103935
 20
339.4586750038273
 30
0.0
 40
5.0
  0
LINE
  5
1C50B
102
{ACAD_REACTORS
330
1C526
102
}
330
18
100
AcDbEntity
  8
細線
100
AcDbLine
 10
28.39163635288832
 20
340.2058211928598
 30
0.0
 11
29.13878279898531
 21
337.4174334549751
 31
0.0
  0
LINE
  5
1C50C
102
{ACAD_REACTORS
330
1C526
102
}
330
18
100
AcDbEntity
  8
細線
100
AcDbLine
 10
28.39163586992546
 20
340.2058213222693
 30
0.0
 11
30.43287754153498
 21
342.2470627158298
 31
0.0
  0
LINE
  5
1C50F
102
{ACAD_REACTORS
330
1C526
102
}
330
18
100
AcDbEntity
  8
細線
100
AcDbLine
 10
33.96841142919035
 20
338.7115288147946
 30
0.0
 11
31.92716975758071
 21
336.670287421234
 31
0.0
  0
LINE
  5
1C510
102
{ACAD_REACTORS
330
1C526
102
}
330
18
100
AcDbEntity
  8
細線
100
AcDbLine
 10
29.13878241261494
 20
337.4174335585028
 30
0.0
 11
31.92717014395114
 21
336.6702873177063
 31
0.0
  0
LINE
  5
1C511
102
{ACAD_REACTORS
330
1C526
102
}
330
18
100
AcDbEntity
  8
細線
100
AcDbLine
 10
33.22126546605628
 20
341.4999164232698
 30
0.0
 11
33.96841191215321
 21
338.7115286853851
 31
0.0
  0
LINE
  5
1C512
102
{ACAD_REACTORS
330
1C526
102
}
330
18
100
AcDbEntity
  8
細線
100
AcDbLine
 10
30.43287763812753
 20
342.2470626899482
 30
0.0
 11
33.22126536946375
 21
341.4999164491518
 31
0.0
  0
ARC
  5
1C560
330
18
100
AcDbEntity
  8
0
100
AcDbCircle
 10
260.3320418232576
 20
404.8527994879973
 30
0.0
 40
25.0
100
AcDbArc
 50
89.99999999999998
 51
180.0000000000001
  0
ARC
  5
1C561
330
18
100
AcDbEntity
  8
0
100
AcDbCircle
 10
460.3320418232579
 20
404.8527994879972
 30
0.0
 40
25.0
100
AcDbArc
 50
0.0
 51
89.99999999999984
  0
ARC
  5
1C562
330
18
100
AcDbEntity
  8
0
100
AcDbCircle
 10
460.3320418232579
 20
204.8527994879973
 30
0.0
 40
25.0
100
AcDbArc
 50
270.0
 51
0.0
  0
ARC
  5
1C563
330
18
100
AcDbEntity
  8
0
100
AcDbCircle
 10
260.3320418232576
 20
204.8527994879969
 30
0.0
 40
25.0
100
AcDbArc
 50
179.9999999999999
 51
270.0
  0
ARC
  5
1C564
330
18
100
AcDbEntity
  8
0
100
AcDbCircle
 10
-48.68882947168689
 20
404.8527994879978
 30
0.0
 40
25.0
100
AcDbArc
 50
89.99999999999991
 51
180.0000000000002
  0
ARC
  5
1C565
330
18
100
AcDbEntity
  8
0
100
AcDbCircle
 10
151.3111705283136
 20
404.8527994879974
 30
0.0
 40
25.0
100
AcDbArc
 50
0.0
 51
89.99999999999991
  0
ARC
  5
1C566
330
18
100
AcDbEntity
  8
0
100
AcDbCircle
 10
151.3111705283133
 20
204.8527994879977
 30
0.0
 40
25.0
100
AcDbArc
 50
270.0
 51
0.0
  0
ARC
  5
1C567
330
18
100
AcDbEntity
  8
0
100
AcDbCircle
 10
-48.68882947168663
 20
204.8527994879973
 30
0.0
 40
25.0
100
AcDbArc
 50
180.0
 51
270.0
  0
CIRCLE
  5
1C596
330
18
100
AcDbEntity
  8
0
100
AcDbCircle
 10
51.31117052831285
 20
304.8527994879973
 30
0.0
 40
127.0
  0
ARC
  5
1C597
330
18
100
AcDbEntity
  8
破線
100
AcDbCircle
 10
360.3320418232576
 20
304.8527994879973
 30
0.0
 40
127.0
100
AcDbArc
 50
10.18174838833591
 51
79.81825161166394
  0
LINE
  5
1C678
330
18
100
AcDbEntity
  8
0
100
AcDbLine
 10
-88.68805017097974
 20
375.3782246688136
 30
0.0
 11
-82.68805026202654
 21
375.3792699254049
 31
0.0
  0
LINE
  5
1C679
330
18
100
AcDbEntity
  8
0
100
AcDbLine
 10
-88.68778554033658
 20
373.859187288412
 30
0.0
 11
-82.68778563138335
 21
373.8602325450032
 31
0.0
  0
LINE
  5
1C67A
330
18
100
AcDbEntity
  8
0
100
AcDbLine
 10
-82.68700015125569
 20
369.3514059718744
 30
0.0
 11
-88.68700006020866
 21
369.3503607152828
 31
0.0
  0
LINE
  5
1C67B
330
18
100
AcDbEntity
  8
0
100
AcDbLine
 10
-82.68987306919781
 20
385.8425790800818
 30
0.0
 11
-88.68987297815101
 21
385.8415338234905
 31
0.0
  0
LINE
  5
1C67C
330
18
100
AcDbEntity
  8
0
100
AcDbLine
 10
-82.68960843855461
 20
384.3235416996798
 30
0.0
 11
-88.68960834750781
 21
384.3224964430886
 31
0.0
  0
LINE
  5
1C67D
330
18
100
AcDbEntity
  8
0
100
AcDbLine
 10
-82.69065854932568
 20
390.3514056532106
 30
0.0
 11
-88.6906584582789
 21
390.3503603966193
 31
0.0
  0
LINE
  5
1C67F
330
18
100
AcDbEntity
  8
0
100
AcDbLine
 10
-155.9519372585553
 20
381.8630779175236
 30
0.0
 11
-107.0117164353677
 21
381.8638618599676
 31
0.0
  0
LINE
  5
1C682
330
18
100
AcDbEntity
  8
0
100
AcDbLine
 10
-88.69065845827845
 20
390.3503603966193
 30
0.0
 11
-93.18974005741688
 21
385.078147962739
 31
0.0
  0
LINE
  5
1C683
330
18
100
AcDbEntity
  8
0
100
AcDbLine
 10
-89.69045436919804
 20
389.1787576335344
 30
0.0
 11
-89.68720411894038
 21
370.5216150595038
 31
0.0
  0
ARC
  5
1C684
330
18
100
AcDbEntity
  8
0
100
AcDbCircle
 10
-80.71680960989281
 20
390.0506646983393
 30
0.0
 40
9.015903847971632
100
AcDbArc
 50
185.5496147837488
 51
207.8304203210862
  0
LINE
  5
1C685
330
18
100
AcDbEntity
  8
0
100
AcDbLine
 10
-105.2311389520286
 20
377.8638618599676
 30
0.0
 11
-93.1884832607143
 21
377.8638618599676
 31
0.0
  0
LINE
  5
1C686
330
18
100
AcDbEntity
  8
0
100
AcDbLine
 10
-105.231138952029
 20
381.8638618599676
 30
0.0
 11
-93.18918009845246
 21
381.8638618599673
 31
0.0
  0
ARC
  5
1C687
330
18
100
AcDbEntity
  8
0
100
AcDbCircle
 10
-106.3552369964895
 20
380.8638618595673
 30
0.0
 40
1.50452531090732
100
AcDbArc
 50
318.3436407292436
 51
41.6563592707564
  0
ARC
  5
1C688
330
18
100
AcDbEntity
  8
0
100
AcDbCircle
 10
-105.8876183909071
 20
378.863861860368
 30
0.0
 40
1.50452531090732
100
AcDbArc
 50
138.3436407292434
 51
221.6563592707564
  0
ARC
  5
1C689
330
18
100
AcDbEntity
  8
0
100
AcDbCircle
 10
-108.1358144784053
 20
378.863861860368
 30
0.0
 40
1.50452531090732
100
AcDbArc
 50
318.3436407292436
 51
41.6563592707564
  0
ARC
  5
1C68A
330
18
100
AcDbEntity
  8
0
100
AcDbCircle
 10
-104.1070409089909
 20
378.8638618603676
 30
0.0
 40
1.50452531090732
100
AcDbArc
 50
138.3436407292434
 51
221.6563592707564
  0
ARC
  5
1C68B
330
18
100
AcDbEntity
  8
0
100
AcDbCircle
 10
-104.1070409089914
 20
380.8638618595673
 30
0.0
 40
1.50452531090732
100
AcDbArc
 50
138.3436407292434
 51
221.6563592707564
  0
ARC
  5
1C68C
330
18
100
AcDbEntity
  8
0
100
AcDbCircle
 10
-108.1358144784053
 20
380.8638618595677
 30
0.0
 40
1.50452531090732
100
AcDbArc
 50
318.3436407292436
 51
41.6563592707564
  0
LINE
  5
1C68D
330
18
100
AcDbEntity
  8
0
100
AcDbLine
 10
-88.68700006020866
 20
369.3503607152828
 30
0.0
 11
-93.18791832450052
 21
374.6210052642762
 31
0.0
  0
LINE
  5
1C68E
330
18
100
AcDbEntity
  8
0
100
AcDbLine
 10
-93.18974005741688
 20
385.078147962739
 30
0.0
 11
-93.18791832450052
 21
374.6210052642762
 31
0.0
  0
ARC
  5
1C68F
330
18
100
AcDbEntity
  8
0
100
AcDbCircle
 10
-79.18882940340086
 20
379.8520155455542
 30
0.0
 40
10.50000000000042
100
AcDbArc
 50
154.8012161684955
 51
205.2187467620016
  0
LINE
  5
1C690
330
18
100
AcDbEntity
  8
0
100
AcDbLine
 10
-88.68805017097974
 20
375.3782246688138
 30
0.0
 11
-88.68778554033658
 21
373.859187288412
 31
0.0
  0
ARC
  5
1C691
330
18
100
AcDbEntity
  8
0
100
AcDbCircle
 10
-80.71325611545148
 20
369.6528346346855
 30
0.0
 40
9.015903847971632
100
AcDbArc
 50
152.1895426094148
 51
174.4703481467493
  0
LINE
  5
1C692
330
18
100
AcDbEntity
  8
0
100
AcDbLine
 10
-88.68987297815101
 20
385.8415338234905
 30
0.0
 11
-88.68960834750781
 21
384.3224964430886
 31
0.0
  0
LINE
  5
1C693
330
18
100
AcDbEntity
  8
0
100
AcDbLine
 10
-82.69065854932568
 20
390.3514056532106
 30
0.0
 11
-82.68700015125569
 21
369.3514059718744
 31
0.0
  0
LINE
  5
1C694
330
18
100
AcDbEntity
  8
0
100
AcDbLine
 10
-74.68700027265184
 20
369.3527996473294
 30
0.0
 11
-74.69065867072186
 21
390.352799328666
 31
0.0
  0
LINE
  5
1C695
330
18
100
AcDbEntity
  8
0
100
AcDbLine
 10
-77.69065862519801
 20
390.3522767003701
 30
0.0
 11
-77.68700022712803
 21
369.3522770190337
 31
0.0
  0
LINE
  5
1C696
330
18
100
AcDbEntity
  8
0
100
AcDbLine
 10
-79.68717440621094
 20
370.3519285849955
 30
0.0
 11
-79.69048438541697
 21
389.351928296681
 31
0.0
  0
LINE
  5
1C697
330
18
100
AcDbEntity
  8
0
100
AcDbLine
 10
-77.68805033789885
 20
375.3801409725648
 30
0.0
 11
-74.68805038342271
 21
375.3806636008603
 31
0.0
  0
LINE
  5
1C698
330
18
100
AcDbEntity
  8
0
100
AcDbLine
 10
-77.68778570725567
 20
373.8611035921628
 30
0.0
 11
-74.68778575277951
 21
373.8616262204585
 31
0.0
  0
LINE
  5
1C699
330
18
100
AcDbEntity
  8
0
100
AcDbLine
 10
-74.68700027265184
 20
369.3527996473294
 30
0.0
 11
-77.68700022712803
 21
369.3522770190337
 31
0.0
  0
LINE
  5
1C69A
330
18
100
AcDbEntity
  8
0
100
AcDbLine
 10
-74.68987319059397
 20
385.8439727555372
 30
0.0
 11
-77.68987314507012
 21
385.8434501272412
 31
0.0
  0
LINE
  5
1C69B
330
18
100
AcDbEntity
  8
0
100
AcDbLine
 10
-74.68960855995078
 20
384.3249353751351
 30
0.0
 11
-77.68960851442693
 21
384.3244127468395
 31
0.0
  0
LINE
  5
1C69C
330
18
100
AcDbEntity
  8
0
100
AcDbLine
 10
-77.68754027636692
 20
372.4522769719933
 30
0.0
 11
-79.68754024601797
 21
372.4519285531296
 31
0.0
  0
LINE
  5
1C69D
330
18
100
AcDbEntity
  8
0
100
AcDbLine
 10
-77.69011857595909
 20
387.2522767474116
 30
0.0
 11
-79.69011854561017
 21
387.2519283285475
 31
0.0
  0
LINE
  5
1C69E
330
18
100
AcDbEntity
  8
0
100
AcDbLine
 10
-79.68717440621094
 20
370.3519285849955
 30
0.0
 11
-82.68717436068754
 21
370.3514059566999
 31
0.0
  0
LINE
  5
1C69F
330
18
100
AcDbEntity
  8
0
100
AcDbLine
 10
-73.68726160197366
 20
370.8529738339997
 30
0.0
 11
-74.68726158679988
 21
370.8527996245678
 31
0.0
  0
LINE
  5
1C6A0
330
18
100
AcDbEntity
  8
0
100
AcDbLine
 10
-79.69048438541697
 20
389.351928296681
 30
0.0
 11
-82.69048433989359
 21
389.3514056683851
 31
0.0
  0
LINE
  5
1C6A1
330
18
100
AcDbEntity
  8
0
100
AcDbLine
 10
-73.69039737174785
 20
388.8529735608596
 30
0.0
 11
-74.69039735657384
 21
388.8527993514275
 31
0.0
  0
LINE
  5
1C6A2
330
18
100
AcDbEntity
  8
0
100
AcDbLine
 10
-74.69065867072186
 20
390.352799328666
 30
0.0
 11
-77.69065862519801
 21
390.3522767003701
 31
0.0
  0
ARC
  5
1C766
330
18
100
AcDbEntity
  8
細線
100
AcDbCircle
 10
51.59069509702431
 20
428.895999380389
 30
0.0
 40
0.5
100
AcDbArc
 50
207.3463876628145
 51
302.6536123371777
  0
CIRCLE
  5
1C767
330
18
100
AcDbEntity
  8
細線
100
AcDbCircle
 10
51.3111705283136
 20
427.8527994879968
 30
0.0
 40
0.8299999999999998
  0
ARC
  5
1C768
330
18
100
AcDbEntity
  8
細線
100
AcDbCircle
 10
50.26797063592153
 20
427.5732749192861
 30
0.0
 40
0.5
100
AcDbArc
 50
327.3463876628257
 51
62.65361233717938
  0
ARC
  5
1C769
330
18
100
AcDbEntity
  8
細線
100
AcDbCircle
 10
50.54749520463213
 20
428.6164748116782
 30
0.0
 40
0.5
100
AcDbArc
 50
267.3463876628232
 51
2.653612337178548
  0
ARC
  5
1C76A
330
18
100
AcDbEntity
  8
細線
100
AcDbCircle
 10
52.35437042070579
 20
428.1323240567075
 30
0.0
 40
0.5
100
AcDbArc
 50
147.3463876628259
 51
242.6536123371793
  0
ARC
  5
1C76B
330
18
100
AcDbEntity
  8
細線
100
AcDbCircle
 10
51.03164595960288
 20
426.8095995956047
 30
0.0
 40
0.5
100
AcDbArc
 50
27.3463876628146
 51
122.6536123371776
  0
ARC
  5
1C76C
330
18
100
AcDbEntity
  8
細線
100
AcDbCircle
 10
52.07484585199505
 20
427.0891241643152
 30
0.0
 40
0.5
100
AcDbArc
 50
87.34638766282328
 51
182.6536123371784
  0
CIRCLE
  5
1C76D
330
18
100
AcDbEntity
  8
細線
100
AcDbCircle
 10
51.3111705283136
 20
427.8527994879968
 30
0.0
 40
3.5
  0
CIRCLE
  5
1C7A1
330
18
100
AcDbEntity
  8
細線
100
AcDbCircle
 10
-35.66296355763145
 20
391.8269335739427
 30
0.0
 40
3.5
  0
ARC
  5
1C7A2
330
18
100
AcDbEntity
  8
細線
100
AcDbCircle
 10
-36.2029635576315
 20
392.7622410100301
 30
0.0
 40
0.5
100
AcDbArc
 50
252.3463876628145
 51
347.6536123371776
  0
ARC
  5
1C7A3
330
18
100
AcDbEntity
  8
細線
100
AcDbCircle
 10
-36.20296355763136
 20
390.8916261378556
 30
0.0
 40
0.5
100
AcDbArc
 50
12.34638766282598
 51
107.6536123371792
  0
ARC
  5
1C7A4
330
18
100
AcDbEntity
  8
細線
100
AcDbCircle
 10
-35.12296355763152
 20
390.8916261378556
 30
0.0
 40
0.5
100
AcDbArc
 50
72.34638766281459
 51
167.6536123371778
  0
ARC
  5
1C7A5
330
18
100
AcDbEntity
  8
細線
100
AcDbCircle
 10
-34.58296355763138
 20
391.8269335739427
 30
0.0
 40
0.5
100
AcDbArc
 50
132.346387662823
 51
227.6536123371784
  0
CIRCLE
  5
1C7A6
330
18
100
AcDbEntity
  8
細線
100
AcDbCircle
 10
-35.66296355763145
 20
391.8269335739427
 30
0.0
 40
0.8299999999999998
  0
ARC
  5
1C7A7
330
18
100
AcDbEntity
  8
細線
100
AcDbCircle
 10
-36.74296355763134
 20
391.8269335739427
 30
0.0
 40
0.5
100
AcDbArc
 50
312.3463876628231
 51
47.65361233717853
  0
ARC
  5
1C7A8
330
18
100
AcDbEntity
  8
細線
100
AcDbCircle
 10
-35.12296355763143
 20
392.7622410100299
 30
0.0
 40
0.5
100
AcDbArc
 50
192.3463876628258
 51
287.6536123371792
  0
CIRCLE
  5
1C7A9
330
18
100
AcDbEntity
  8
細線
100
AcDbCircle
 10
-71.68882947168644
 20
304.8527994879981
 30
0.0
 40
3.5
  0
ARC
  5
1C7AA
330
18
100
AcDbEntity
  8
細線
100
AcDbCircle
 10
-72.73202936407873
 20
305.1323240567088
 30
0.0
 40
0.5
100
AcDbArc
 50
297.3463876628146
 51
32.65361233717769
  0
ARC
  5
1C7AB
330
18
100
AcDbEntity
  8
細線
100
AcDbCircle
 10
-71.40930490297572
 20
303.8095995956061
 30
0.0
 40
0.5
100
AcDbArc
 50
57.346387662826
 51
152.6536123371793
  0
ARC
  5
1C7AC
330
18
100
AcDbEntity
  8
細線
100
AcDbCircle
 10
-70.64562957929435
 20
304.5732749192873
 30
0.0
 40
0.5
100
AcDbArc
 50
117.3463876628145
 51
212.6536123371775
  0
ARC
  5
1C7AD
330
18
100
AcDbEntity
  8
細線
100
AcDbCircle
 10
-70.92515414800485
 20
305.6164748116795
 30
0.0
 40
0.5
100
AcDbArc
 50
177.3463876628231
 51
272.6536123371785
  0
CIRCLE
  5
1C7AE
330
18
100
AcDbEntity
  8
細線
100
AcDbCircle
 10
-71.68882947168644
 20
304.8527994879981
 30
0.0
 40
0.8299999999999998
  0
ARC
  5
1C7AF
330
18
100
AcDbEntity
  8
細線
100
AcDbCircle
 10
-72.45250479536778
 20
304.0891241643166
 30
0.0
 40
0.5
100
AcDbArc
 50
357.3463876628232
 51
92.65361233717852
  0
ARC
  5
1C7B0
330
18
100
AcDbEntity
  8
細線
100
AcDbCircle
 10
-71.96835404039714
 20
305.8959993803903
 30
0.0
 40
0.5
100
AcDbArc
 50
237.3463876628258
 51
332.6536123371793
  0
CIRCLE
  5
1C7B1
330
18
100
AcDbEntity
  8
細線
100
AcDbCircle
 10
-35.66296355763253
 20
217.8786654020531
 30
0.0
 40
3.5
  0
ARC
  5
1C7B2
330
18
100
AcDbEntity
  8
細線
100
AcDbCircle
 10
-36.59827099371982
 20
217.3386654020529
 30
0.0
 40
0.5
100
AcDbArc
 50
342.3463876628145
 51
77.65361233717769
  0
ARC
  5
1C7B3
330
18
100
AcDbEntity
  8
細線
100
AcDbCircle
 10
-34.72765612154546
 20
217.338665402053
 30
0.0
 40
0.5
100
AcDbArc
 50
102.3463876628259
 51
197.6536123371793
  0
ARC
  5
1C7B4
330
18
100
AcDbEntity
  8
細線
100
AcDbCircle
 10
-34.72765612154546
 20
218.4186654020531
 30
0.0
 40
0.5
100
AcDbArc
 50
162.3463876628145
 51
257.6536123371778
  0
ARC
  5
1C7B5
330
18
100
AcDbEntity
  8
細線
100
AcDbCircle
 10
-35.66296355763247
 20
218.958665402053
 30
0.0
 40
0.5
100
AcDbArc
 50
222.3463876628231
 51
317.6536123371783
  0
CIRCLE
  5
1C7B6
330
18
100
AcDbEntity
  8
細線
100
AcDbCircle
 10
-35.66296355763253
 20
217.8786654020531
 30
0.0
 40
0.8299999999999998
  0
ARC
  5
1C7B7
330
18
100
AcDbEntity
  8
細線
100
AcDbCircle
 10
-35.66296355763247
 20
216.7986654020531
 30
0.0
 40
0.5
100
AcDbArc
 50
42.34638766282324
 51
137.6536123371784
  0
ARC
  5
1C7B8
330
18
100
AcDbEntity
  8
細線
100
AcDbCircle
 10
-36.59827099371972
 20
218.4186654020531
 30
0.0
 40
0.5
100
AcDbArc
 50
282.3463876628258
 51
17.65361233717934
  0
CIRCLE
  5
1C7B9
330
18
100
AcDbEntity
  8
細線
100
AcDbCircle
 10
51.31117052831207
 20
181.8527994879982
 30
0.0
 40
3.5
  0
ARC
  5
1C7BA
330
18
100
AcDbEntity
  8
細線
100
AcDbCircle
 10
51.03164595960136
 20
180.8095995956058
 30
0.0
 40
0.5
100
AcDbArc
 50
27.34638766281458
 51
122.6536123371775
  0
ARC
  5
1C7BB
330
18
100
AcDbEntity
  8
細線
100
AcDbCircle
 10
52.35437042070413
 20
182.1323240567089
 30
0.0
 40
0.5
100
AcDbArc
 50
147.3463876628259
 51
242.6536123371793
  0
ARC
  5
1C7BC
330
18
100
AcDbEntity
  8
細線
100
AcDbCircle
 10
51.5906950970228
 20
182.8959993803902
 30
0.0
 40
0.5
100
AcDbArc
 50
207.3463876628145
 51
302.6536123371777
  0
ARC
  5
1C7BD
330
18
100
AcDbEntity
  8
細線
100
AcDbCircle
 10
50.54749520463062
 20
182.6164748116798
 30
0.0
 40
0.5
100
AcDbArc
 50
267.3463876628232
 51
2.653612337178516
  0
CIRCLE
  5
1C7BE
330
18
100
AcDbEntity
  8
細線
100
AcDbCircle
 10
51.31117052831207
 20
181.8527994879982
 30
0.0
 40
0.8299999999999998
  0
ARC
  5
1C7BF
330
18
100
AcDbEntity
  8
細線
100
AcDbCircle
 10
52.07484585199354
 20
181.0891241643168
 30
0.0
 40
0.5
100
AcDbArc
 50
87.34638766282326
 51
182.6536123371784
  0
ARC
  5
1C7C0
330
18
100
AcDbEntity
  8
細線
100
AcDbCircle
 10
50.26797063591989
 20
181.5732749192875
 30
0.0
 40
0.5
100
AcDbArc
 50
327.3463876628257
 51
62.65361233717936
  0
CIRCLE
  5
1C7C1
330
18
100
AcDbEntity
  8
細線
100
AcDbCircle
 10
138.285304614257
 20
217.878665402052
 30
0.0
 40
3.5
  0
ARC
  5
1C7C2
330
18
100
AcDbEntity
  8
細線
100
AcDbCircle
 10
138.825304614257
 20
216.9433579659648
 30
0.0
 40
0.5
100
AcDbArc
 50
72.34638766281458
 51
167.6536123371777
  0
ARC
  5
1C7C3
330
18
100
AcDbEntity
  8
細線
100
AcDbCircle
 10
138.8253046142569
 20
218.8139728381389
 30
0.0
 40
0.5
100
AcDbArc
 50
192.3463876628258
 51
287.6536123371792
  0
ARC
  5
1C7C4
330
18
100
AcDbEntity
  8
細線
100
AcDbCircle
 10
137.7453046142572
 20
218.8139728381392
 30
0.0
 40
0.5
100
AcDbArc
 50
252.3463876628145
 51
347.6536123371776
  0
ARC
  5
1C7C5
330
18
100
AcDbEntity
  8
細線
100
AcDbCircle
 10
137.2053046142569
 20
217.878665402052
 30
0.0
 40
0.5
100
AcDbArc
 50
312.3463876628231
 51
47.65361233717849
  0
CIRCLE
  5
1C7C6
330
18
100
AcDbEntity
  8
細線
100
AcDbCircle
 10
138.285304614257
 20
217.878665402052
 30
0.0
 40
0.8299999999999998
  0
ARC
  5
1C7C7
330
18
100
AcDbEntity
  8
細線
100
AcDbCircle
 10
139.3653046142569
 20
217.878665402052
 30
0.0
 40
0.5
100
AcDbArc
 50
132.346387662823
 51
227.6536123371784
  0
ARC
  5
1C7C8
330
18
100
AcDbEntity
  8
細線
100
AcDbCircle
 10
137.7453046142569
 20
216.9433579659648
 30
0.0
 40
0.5
100
AcDbArc
 50
12.3463876628259
 51
107.6536123371792
  0
CIRCLE
  5
1C7C9
330
18
100
AcDbEntity
  8
細線
100
AcDbCircle
 10
174.3111705283121
 20
304.8527994879965
 30
0.0
 40
3.5
  0
ARC
  5
1C7CA
330
18
100
AcDbEntity
  8
細線
100
AcDbCircle
 10
175.3543704207044
 20
304.5732749192858
 30
0.0
 40
0.5
100
AcDbArc
 50
117.3463876628145
 51
212.6536123371774
  0
ARC
  5
1C7CB
330
18
100
AcDbEntity
  8
細線
100
AcDbCircle
 10
174.0316459596014
 20
305.8959993803886
 30
0.0
 40
0.5
100
AcDbArc
 50
237.3463876628258
 51
332.6536123371793
  0
ARC
  5
1C7CC
330
18
100
AcDbEntity
  8
細線
100
AcDbCircle
 10
173.2679706359201
 20
305.1323240567073
 30
0.0
 40
0.5
100
AcDbArc
 50
297.3463876628144
 51
32.65361233717774
  0
ARC
  5
1C7CD
330
18
100
AcDbEntity
  8
細線
100
AcDbCircle
 10
173.5474952046305
 20
304.0891241643151
 30
0.0
 40
0.5
100
AcDbArc
 50
357.3463876628232
 51
92.65361233717845
  0
CIRCLE
  5
1C7CE
330
18
100
AcDbEntity
  8
細線
100
AcDbCircle
 10
174.3111705283121
 20
304.8527994879965
 30
0.0
 40
0.8299999999999998
  0
ARC
  5
1C7CF
330
18
100
AcDbEntity
  8
細線
100
AcDbCircle
 10
175.0748458519934
 20
305.616474811678
 30
0.0
 40
0.5
100
AcDbArc
 50
177.3463876628231
 51
272.6536123371785
  0
ARC
  5
1C7D0
330
18
100
AcDbEntity
  8
細線
100
AcDbCircle
 10
174.5906950970228
 20
303.8095995956043
 30
0.0
 40
0.5
100
AcDbArc
 50
57.34638766282586
 51
152.6536123371793
  0
CIRCLE
  5
1C7D1
330
18
100
AcDbEntity
  8
細線
100
AcDbCircle
 10
138.2853046142581
 20
391.8269335739416
 30
0.0
 40
3.5
  0
ARC
  5
1C7D2
330
18
100
AcDbEntity
  8
細線
100
AcDbCircle
 10
139.2206120503455
 20
392.3669335739418
 30
0.0
 40
0.5
100
AcDbArc
 50
162.3463876628145
 51
257.6536123371776
  0
ARC
  5
1C7D3
330
18
100
AcDbEntity
  8
細線
100
AcDbCircle
 10
137.349997178171
 20
392.3669335739416
 30
0.0
 40
0.5
100
AcDbArc
 50
282.3463876628258
 51
17.6536123371793
  0
ARC
  5
1C7D4
330
18
100
AcDbEntity
  8
細線
100
AcDbCircle
 10
137.3499971781712
 20
391.2869335739416
 30
0.0
 40
0.5
100
AcDbArc
 50
342.3463876628145
 51
77.65361233717775
  0
ARC
  5
1C7D5
330
18
100
AcDbEntity
  8
細線
100
AcDbCircle
 10
138.2853046142581
 20
390.7469335739416
 30
0.0
 40
0.5
100
AcDbArc
 50
42.3463876628232
 51
137.6536123371784
  0
CIRCLE
  5
1C7D6
330
18
100
AcDbEntity
  8
細線
100
AcDbCircle
 10
138.2853046142581
 20
391.8269335739416
 30
0.0
 40
0.8299999999999998
  0
ARC
  5
1C7D7
330
18
100
AcDbEntity
  8
細線
100
AcDbCircle
 10
138.2853046142581
 20
392.9069335739416
 30
0.0
 40
0.5
100
AcDbArc
 50
222.3463876628231
 51
317.6536123371783
  0
ARC
  5
1C7D8
330
18
100
AcDbEntity
  8
細線
100
AcDbCircle
 10
139.2206120503455
 20
391.2869335739416
 30
0.0
 40
0.5
100
AcDbArc
 50
102.3463876628257
 51
197.6536123371793
  0
LINE
  5
1C7E7
330
18
100
AcDbEntity
  8
0
100
AcDbLine
 10
176.3111705283133
 20
20.44812401476829
 30
0.0
 11
177.3111705283134
 21
20.44812401476829
 31
0.0
  0
LINE
  5
1C7E8
330
18
100
AcDbEntity
  8
0
100
AcDbLine
 10
177.3111705283134
 20
20.44812401476829
 30
0.0
 11
177.3111705283134
 21
26.74812401476827
 31
0.0
  0
LINE
  5
1C7EC
330
18
100
AcDbEntity
  8
0
100
AcDbLine
 10
28.86122620766926
 20
20.44812401476714
 30
0.0
 11
73.76111484895591
 21
20.4481240147671
 31
0.0
  0
LINE
  5
1C7ED
330
18
100
AcDbEntity
  8
0
100
AcDbLine
 10
28.86122620766926
 20
25.44812401476716
 30
0.0
 11
28.86122620766926
 21
20.44812401476714
 31
0.0
  0
LINE
  5
1C7EE
330
18
100
AcDbEntity
  8
0
100
AcDbLine
 10
73.76111484895591
 20
25.44812401476713
 30
0.0
 11
73.76111484895591
 21
20.4481240147671
 31
0.0
  0
LINE
  5
1C808
330
18
100
AcDbEntity
  8
中心線
 48
0.2
100
AcDbLine
 10
174.3111705283132
 20
94.90665552578377
 30
0.0
 11
174.3111705283132
 21
106.0170905929679
 31
0.0
  0
LINE
  5
1C809
330
18
100
AcDbEntity
  8
ｷｬｯﾌ_ﾎ_ﾙﾄ
100
AcDbLine
 10
177.8111705283134
 20
106.148124014766
 30
0.0
 11
176.7611705283131
 21
106.4481240147662
 31
0.0
  0
LINE
  5
1C80A
330
18
100
AcDbEntity
  8
ｷｬｯﾌ_ﾎ_ﾙﾄ
100
AcDbLine
 10
177.8111705283134
 20
106.148124014766
 30
0.0
 11
177.8111705283134
 21
105.6481240147664
 31
0.0
  0
LINE
  5
1C80B
330
18
100
AcDbEntity
  8
中心線
 48
0.5
100
AcDbLine
 10
174.3111705283132
 20
107.4481240147662
 30
0.0
 11
174.3111705283132
 21
98.64812401476649
 31
0.0
  0
LINE
  5
1C80C
330
18
100
AcDbEntity
  8
ｷｬｯﾌ_ﾎ_ﾙﾄ
100
AcDbLine
 10
170.8111705283134
 20
106.148124014766
 30
0.0
 11
171.8611705283136
 21
106.4481240147662
 31
0.0
  0
LINE
  5
1C80D
330
18
100
AcDbEntity
  8
ｷｬｯﾌ_ﾎ_ﾙﾄ
100
AcDbLine
 10
170.8111705283134
 20
106.148124014766
 30
0.0
 11
170.8111705283134
 21
105.6481240147664
 31
0.0
  0
LINE
  5
1C80E
330
18
100
AcDbEntity
  8
ｷｬｯﾌ_ﾎ_ﾙﾄ
100
AcDbLine
 10
177.8111705283134
 20
105.6481240147664
 30
0.0
 11
170.8111705283134
 21
105.6481240147664
 31
0.0
  0
LINE
  5
1C80F
330
18
100
AcDbEntity
  8
ｷｬｯﾌ_ﾎ_ﾙﾄ
100
AcDbLine
 10
177.8111705283134
 20
106.148124014766
 30
0.0
 11
170.8111705283134
 21
106.148124014766
 31
0.0
  0
LINE
  5
1C810
330
18
100
AcDbEntity
  8
ｷｬｯﾌ_ﾎ_ﾙﾄ
100
AcDbLine
 10
176.7611705283131
 20
106.4481240147662
 30
0.0
 11
171.8611705283136
 21
106.4481240147662
 31
0.0
  0
LINE
  5
1C904
330
18
100
AcDbEntity
  8
中心線
 48
0.2
100
AcDbLine
 10
-71.68882947168658
 20
94.90665552578397
 30
0.0
 11
-71.68882947168651
 21
106.0170905929681
 31
0.0
  0
LINE
  5
1C905
330
18
100
AcDbEntity
  8
ｷｬｯﾌ_ﾎ_ﾙﾄ
100
AcDbLine
 10
-75.18882947168652
 20
105.6481240147667
 30
0.0
 11
-68.18882947168652
 21
105.6481240147667
 31
0.0
  0
LINE
  5
1C906
330
18
100
AcDbEntity
  8
ｷｬｯﾌ_ﾎ_ﾙﾄ
100
AcDbLine
 10
-75.18882947168652
 20
106.1481240147662
 30
0.0
 11
-68.18882947168652
 21
106.1481240147662
 31
0.0
  0
LINE
  5
1C907
330
18
100
AcDbEntity
  8
ｷｬｯﾌ_ﾎ_ﾙﾄ
100
AcDbLine
 10
-74.13882947168634
 20
106.4481240147664
 30
0.0
 11
-69.2388294716867
 21
106.4481240147664
 31
0.0
  0
LINE
  5
1C908
330
18
100
AcDbEntity
  8
ｷｬｯﾌ_ﾎ_ﾙﾄ
100
AcDbLine
 10
-68.18882947168652
 20
106.1481240147662
 30
0.0
 11
-69.2388294716867
 21
106.4481240147664
 31
0.0
  0
LINE
  5
1C909
330
18
100
AcDbEntity
  8
ｷｬｯﾌ_ﾎ_ﾙﾄ
100
AcDbLine
 10
-68.18882947168652
 20
106.1481240147662
 30
0.0
 11
-68.18882947168652
 21
105.6481240147667
 31
0.0
  0
LINE
  5
1C90A
330
18
100
AcDbEntity
  8
中心線
 48
0.5
100
AcDbLine
 10
-71.68882947168651
 20
107.4481240147664
 30
0.0
 11
-71.68882947168658
 21
98.64812401476671
 31
0.0
  0
LINE
  5
1C90B
330
18
100
AcDbEntity
  8
ｷｬｯﾌ_ﾎ_ﾙﾄ
100
AcDbLine
 10
-75.18882947168652
 20
106.1481240147662
 30
0.0
 11
-74.13882947168634
 21
106.4481240147664
 31
0.0
  0
LINE
  5
1C90C
330
18
100
AcDbEntity
  8
ｷｬｯﾌ_ﾎ_ﾙﾄ
100
AcDbLine
 10
-75.18882947168652
 20
106.1481240147662
 30
0.0
 11
-75.18882947168652
 21
105.6481240147667
 31
0.0
  0
CIRCLE
  5
1C981
330
18
100
AcDbEntity
  8
細線
100
AcDbCircle
 10
-1.721838060677639
 20
357.8858080769895
 30
0.0
 40
2.0
  0
CIRCLE
  5
1C982
330
18
100
AcDbEntity
  8
細線
100
AcDbCircle
 10
-1.721838060677639
 20
357.8858080769895
 30
0.0
 40
2.5
  0
CIRCLE
  5
1C983
330
18
100
AcDbEntity
  8
細線
100
AcDbCircle
 10
-21.13326644336722
 20
324.2642278706873
 30
0.0
 40
2.0
  0
CIRCLE
  5
1C984
330
18
100
AcDbEntity
  8
細線
100
AcDbCircle
 10
-21.13326644336722
 20
324.2642278706873
 30
0.0
 40
2.5
  0
CIRCLE
  5
1C985
330
18
100
AcDbEntity
  8
細線
100
AcDbCircle
 10
-21.13326644336754
 20
285.4413711053087
 30
0.0
 40
2.0
  0
CIRCLE
  5
1C986
330
18
100
AcDbEntity
  8
細線
100
AcDbCircle
 10
-21.13326644336754
 20
285.4413711053087
 30
0.0
 40
2.5
  0
CIRCLE
  5
1C987
330
18
100
AcDbEntity
  8
細線
100
AcDbCircle
 10
-1.721838060678549
 20
251.8197908990059
 30
0.0
 40
2.0
  0
CIRCLE
  5
1C988
330
18
100
AcDbEntity
  8
細線
100
AcDbCircle
 10
-1.721838060678549
 20
251.8197908990059
 30
0.0
 40
2.5
  0
CIRCLE
  5
1C989
330
18
100
AcDbEntity
  8
細線
100
AcDbCircle
 10
31.89974214562369
 20
232.4083625163166
 30
0.0
 40
2.0
  0
CIRCLE
  5
1C98A
330
18
100
AcDbEntity
  8
細線
100
AcDbCircle
 10
31.89974214562369
 20
232.4083625163166
 30
0.0
 40
2.5
  0
CIRCLE
  5
1C98B
330
18
100
AcDbEntity
  8
細線
100
AcDbCircle
 10
70.72259891100229
 20
232.4083625163161
 30
0.0
 40
2.0
  0
CIRCLE
  5
1C98C
330
18
100
AcDbEntity
  8
細線
100
AcDbCircle
 10
70.72259891100229
 20
232.4083625163161
 30
0.0
 40
2.5
  0
CIRCLE
  5
1C98D
330
18
100
AcDbEntity
  8
細線
100
AcDbCircle
 10
104.3441791173049
 20
251.8197908990051
 30
0.0
 40
2.0
  0
CIRCLE
  5
1C98E
330
18
100
AcDbEntity
  8
細線
100
AcDbCircle
 10
104.3441791173049
 20
251.8197908990051
 30
0.0
 40
2.5
  0
CIRCLE
  5
1C98F
330
18
100
AcDbEntity
  8
細線
100
AcDbCircle
 10
123.7556074999945
 20
285.4413711053075
 30
0.0
 40
2.0
  0
CIRCLE
  5
1C990
330
18
100
AcDbEntity
  8
細線
100
AcDbCircle
 10
123.7556074999945
 20
285.4413711053075
 30
0.0
 40
2.5
  0
CIRCLE
  5
1C991
330
18
100
AcDbEntity
  8
細線
100
AcDbCircle
 10
123.7556074999947
 20
324.2642278706861
 30
0.0
 40
2.0
  0
CIRCLE
  5
1C992
330
18
100
AcDbEntity
  8
細線
100
AcDbCircle
 10
123.7556074999947
 20
324.2642278706861
 30
0.0
 40
2.5
  0
CIRCLE
  5
1C993
330
18
100
AcDbEntity
  8
細線
100
AcDbCircle
 10
104.3441791173058
 20
357.8858080769888
 30
0.0
 40
2.0
  0
CIRCLE
  5
1C994
330
18
100
AcDbEntity
  8
細線
100
AcDbCircle
 10
104.3441791173058
 20
357.8858080769888
 30
0.0
 40
2.5
  0
CIRCLE
  5
1C995
330
18
100
AcDbEntity
  8
細線
100
AcDbCircle
 10
70.72259891100358
 20
377.2972364596783
 30
0.0
 40
2.0
  0
CIRCLE
  5
1C996
330
18
100
AcDbEntity
  8
細線
100
AcDbCircle
 10
70.72259891100358
 20
377.2972364596783
 30
0.0
 40
2.5
  0
CIRCLE
  5
1C997
330
18
100
AcDbEntity
  8
0
100
AcDbCircle
 10
51.31117052831363
 20
304.8527994879973
 30
0.0
 40
55.0
  0
LINE
  5
1C9A7
102
{ACAD_REACTORS
330
1C9AF
102
}
330
18
100
AcDbEntity
  8
細線
100
AcDbLine
 10
10.43287775405363
 20
307.6060466213966
 30
0.0
 11
13.22126559371125
 21
306.8589005551213
 31
0.0
  0
CIRCLE
  5
1C9A8
102
{ACAD_REACTORS
330
1C9AF
102
}
330
18
100
AcDbEntity
  8
0
100
AcDbCircle
 10
11.18002389103946
 20
304.8176588524496
 30
0.0
 40
5.5
  0
CIRCLE
  5
1C9A9
102
{ACAD_REACTORS
330
1C9AF
102
}
330
18
100
AcDbEntity
  8
細線
100
AcDbCircle
 10
11.18002389103946
 20
304.8176588524496
 30
0.0
 40
5.0
  0
LINE
  5
1C9AA
102
{ACAD_REACTORS
330
1C9AF
102
}
330
18
100
AcDbEntity
  8
細線
100
AcDbLine
 10
11.9271700987359
 20
302.0292711542133
 30
0.0
 11
13.96841158927577
 21
304.0705126447531
 31
0.0
  0
LINE
  5
1C9AB
102
{ACAD_REACTORS
330
1C9AF
102
}
330
18
100
AcDbEntity
  8
細線
100
AcDbLine
 10
13.22126524015792
 20
306.858900201568
 30
0.0
 11
13.96841130643298
 21
304.0705123619103
 31
0.0
  0
LINE
  5
1C9AC
102
{ACAD_REACTORS
330
1C9AF
102
}
330
18
100
AcDbEntity
  8
細線
100
AcDbLine
 10
9.138782188367656
 20
302.7764171497778
 30
0.0
 11
8.391636122092535
 21
305.5648049894354
 31
0.0
  0
LINE
  5
1C9AD
102
{ACAD_REACTORS
330
1C9AF
102
}
330
18
100
AcDbEntity
  8
細線
100
AcDbLine
 10
9.138782541921015
 20
302.7764175033313
 30
0.0
 11
11.92717038157866
 21
302.0292714370561
 31
0.0
  0
LINE
  5
1C9AE
102
{ACAD_REACTORS
330
1C9AF
102
}
330
18
100
AcDbEntity
  8
細線
100
AcDbLine
 10
8.39163619280319
 20
305.5648050601461
 30
0.0
 11
10.43287768334306
 21
307.6060465506859
 31
0.0
  0
LINE
  5
1C9B0
102
{ACAD_REACTORS
330
1C9B8
102
}
330
18
100
AcDbEntity
  8
細線
100
AcDbLine
 10
28.39163617903688
 20
270.9237890505765
 30
0.0
 11
30.43287757259756
 21
272.9650307221861
 31
0.0
  0
CIRCLE
  5
1C9B1
102
{ACAD_REACTORS
330
1C9B8
102
}
330
18
100
AcDbEntity
  8
0
100
AcDbCircle
 10
31.18002389103962
 20
270.1766427010722
 30
0.0
 40
5.5
  0
CIRCLE
  5
1C9B2
102
{ACAD_REACTORS
330
1C9B8
102
}
330
18
100
AcDbEntity
  8
細線
100
AcDbCircle
 10
31.18002389103962
 20
270.1766427010722
 30
0.0
 40
5.0
  0
LINE
  5
1C9B3
102
{ACAD_REACTORS
330
1C9B8
102
}
330
18
100
AcDbEntity
  8
細線
100
AcDbLine
 10
33.96841157716055
 20
269.4294964481604
 30
0.0
 11
33.2212653363641
 21
272.2178841794966
 31
0.0
  0
LINE
  5
1C9B4
102
{ACAD_REACTORS
330
1C9B8
102
}
330
18
100
AcDbEntity
  8
細線
100
AcDbLine
 10
30.43287770200709
 20
272.9650302392231
 30
0.0
 11
33.22126543989178
 21
272.2178837931262
 31
0.0
  0
LINE
  5
1C9B5
102
{ACAD_REACTORS
330
1C9B8
102
}
330
18
100
AcDbEntity
  8
細線
100
AcDbLine
 10
31.92717020948169
 20
267.3882546799583
 30
0.0
 11
29.13878247159712
 21
268.1354011260551
 31
0.0
  0
LINE
  5
1C9B6
102
{ACAD_REACTORS
330
1C9B8
102
}
330
18
100
AcDbEntity
  8
細線
100
AcDbLine
 10
31.92717008007216
 20
267.3882551629211
 30
0.0
 11
33.96841147363289
 21
269.4294968345309
 31
0.0
  0
LINE
  5
1C9B7
102
{ACAD_REACTORS
330
1C9B8
102
}
330
18
100
AcDbEntity
  8
細線
100
AcDbLine
 10
29.13878244571518
 20
268.1354012226478
 30
0.0
 11
28.39163620491881
 21
270.9237889539839
 31
0.0
  0
LINE
  5
1C9B9
102
{ACAD_REACTORS
330
1C9C1
102
}
330
18
100
AcDbEntity
  8
細線
100
AcDbLine
 10
69.13878231602274
 20
268.1354012816299
 30
0.0
 11
68.39163586992578
 21
270.9237890195145
 31
0.0
  0
CIRCLE
  5
1C9BA
102
{ACAD_REACTORS
330
1C9C1
102
}
330
18
100
AcDbEntity
  8
0
100
AcDbCircle
 10
71.18002389103968
 20
270.1766427010725
 30
0.0
 40
5.5
  0
CIRCLE
  5
1C9BB
102
{ACAD_REACTORS
330
1C9C1
102
}
330
18
100
AcDbEntity
  8
細線
100
AcDbCircle
 10
71.18002389103968
 20
270.1766427010725
 30
0.0
 40
5.0
  0
LINE
  5
1C9BC
102
{ACAD_REACTORS
330
1C9C1
102
}
330
18
100
AcDbEntity
  8
細線
100
AcDbLine
 10
73.22126536946408
 20
272.217884146397
 30
0.0
 11
70.43287763812789
 21
272.9650303871934
 31
0.0
  0
LINE
  5
1C9BD
102
{ACAD_REACTORS
330
1C9C1
102
}
330
18
100
AcDbEntity
  8
細線
100
AcDbLine
 10
68.39163635288866
 20
270.9237888901049
 30
0.0
 11
70.43287802449831
 21
272.9650302836655
 31
0.0
  0
LINE
  5
1C9BE
102
{ACAD_REACTORS
330
1C9C1
102
}
330
18
100
AcDbEntity
  8
細線
100
AcDbLine
 10
73.96841191215358
 20
269.4294963826304
 30
0.0
 11
71.92717024054402
 21
267.3882549890695
 31
0.0
  0
LINE
  5
1C9BF
102
{ACAD_REACTORS
330
1C9C1
102
}
330
18
100
AcDbEntity
  8
細線
100
AcDbLine
 10
73.96841142919068
 20
269.4294965120399
 30
0.0
 11
73.2212649830937
 21
272.2178842499245
 31
0.0
  0
LINE
  5
1C9C0
102
{ACAD_REACTORS
330
1C9C1
102
}
330
18
100
AcDbEntity
  8
細線
100
AcDbLine
 10
71.92717014395149
 20
267.3882550149516
 30
0.0
 11
69.13878241261527
 21
268.1354012557481
 31
0.0
  0
LINE
  5
1C9C2
102
{ACAD_REACTORS
330
1C9CA
102
}
330
18
100
AcDbEntity
  8
細線
100
AcDbLine
 10
91.92717002802531
 20
302.0292710835032
 30
0.0
 11
89.13878218836767
 21
302.7764171497783
 31
0.0
  0
CIRCLE
  5
1C9C3
102
{ACAD_REACTORS
330
1C9CA
102
}
330
18
100
AcDbEntity
  8
0
100
AcDbCircle
 10
91.18002389103954
 20
304.81765885245
 30
0.0
 40
5.5
  0
CIRCLE
  5
1C9C4
102
{ACAD_REACTORS
330
1C9CA
102
}
330
18
100
AcDbEntity
  8
細線
100
AcDbCircle
 10
91.18002389103954
 20
304.81765885245
 30
0.0
 40
5.0
  0
LINE
  5
1C9C5
102
{ACAD_REACTORS
330
1C9CA
102
}
330
18
100
AcDbEntity
  8
細線
100
AcDbLine
 10
90.432877683343
 20
307.6060465506863
 30
0.0
 11
88.39163619280324
 21
305.5648050601465
 31
0.0
  0
LINE
  5
1C9C6
102
{ACAD_REACTORS
330
1C9CA
102
}
330
18
100
AcDbEntity
  8
細線
100
AcDbLine
 10
89.13878254192104
 20
302.7764175033317
 30
0.0
 11
88.39163647564598
 21
305.5648053429893
 31
0.0
  0
LINE
  5
1C9C7
102
{ACAD_REACTORS
330
1C9CA
102
}
330
18
100
AcDbEntity
  8
細線
100
AcDbLine
 10
93.22126559371133
 20
306.8589005551217
 30
0.0
 11
93.9684116599864
 21
304.0705127154643
 31
0.0
  0
LINE
  5
1C9C8
102
{ACAD_REACTORS
330
1C9CA
102
}
330
18
100
AcDbEntity
  8
細線
100
AcDbLine
 10
93.22126524015798
 20
306.8589002015683
 30
0.0
 11
90.43287740050024
 21
307.6060462678436
 31
0.0
  0
LINE
  5
1C9C9
102
{ACAD_REACTORS
330
1C9CA
102
}
330
18
100
AcDbEntity
  8
細線
100
AcDbLine
 10
93.96841158927577
 20
304.0705126447537
 30
0.0
 11
91.92717009873595
 21
302.0292711542138
 31
0.0
  0
LINE
  5
1C9CB
102
{ACAD_REACTORS
330
1C9D3
102
}
330
18
100
AcDbEntity
  8
細線
100
AcDbLine
 10
73.9684116030421
 20
338.7115286543232
 30
0.0
 11
71.92717020948144
 21
336.6702869827136
 31
0.0
  0
CIRCLE
  5
1C9CC
102
{ACAD_REACTORS
330
1C9D3
102
}
330
18
100
AcDbEntity
  8
0
100
AcDbCircle
 10
71.18002389103941
 20
339.4586750038275
 30
0.0
 40
5.5
  0
CIRCLE
  5
1C9CD
102
{ACAD_REACTORS
330
1C9D3
102
}
330
18
100
AcDbEntity
  8
細線
100
AcDbCircle
 10
71.18002389103941
 20
339.4586750038275
 30
0.0
 40
5.0
  0
LINE
  5
1C9CE
102
{ACAD_REACTORS
330
1C9D3
102
}
330
18
100
AcDbEntity
  8
細線
100
AcDbLine
 10
68.3916362049184
 20
340.2058212567391
 30
0.0
 11
69.13878244571485
 21
337.4174335254031
 31
0.0
  0
LINE
  5
1C9CF
102
{ACAD_REACTORS
330
1C9D3
102
}
330
18
100
AcDbEntity
  8
細線
100
AcDbLine
 10
71.9271700800719
 20
336.6702874656763
 30
0.0
 11
69.13878234218724
 21
337.4174339117735
 31
0.0
  0
LINE
  5
1C9D0
102
{ACAD_REACTORS
330
1C9D3
102
}
330
18
100
AcDbEntity
  8
細線
100
AcDbLine
 10
70.43287757259729
 20
342.2470630249415
 30
0.0
 11
73.22126531048191
 21
341.4999165788443
 31
0.0
  0
LINE
  5
1C9D1
102
{ACAD_REACTORS
330
1C9D3
102
}
330
18
100
AcDbEntity
  8
細線
100
AcDbLine
 10
70.43287770200682
 20
342.2470625419784
 30
0.0
 11
68.39163630844611
 21
340.2058208703688
 31
0.0
  0
LINE
  5
1C9D2
102
{ACAD_REACTORS
330
1C9D3
102
}
330
18
100
AcDbEntity
  8
細線
100
AcDbLine
 10
73.22126533636378
 20
341.4999164822518
 30
0.0
 11
73.96841157716021
 21
338.7115287509157
 31
0.0
  0
CIRCLE
  5
1CA09
330
18
100
AcDbEntity
  8
0
100
AcDbCircle
 10
360.3320418232576
 20
304.8527994879973
 30
0.0
 40
34.39999999999999
  0
ARC
  5
1CA0A
330
18
100
AcDbEntity
  8
0
100
AcDbCircle
 10
360.3320418232576
 20
304.8527994879977
 30
0.0
 40
126.9999999999999
100
AcDbArc
 50
349.8182516116642
 51
10.18174838833578
  0
ARC
  5
1CA0B
330
18
100
AcDbEntity
  8
破線
100
AcDbCircle
 10
360.3320418232576
 20
304.8527994879973
 30
0.0
 40
127.0
100
AcDbArc
 50
100.1817483883357
 51
169.8182516116633
  0
ARC
  5
1CA0C
330
18
100
AcDbEntity
  8
破線
100
AcDbCircle
 10
360.3320418232576
 20
304.8527994879973
 30
0.0
 40
127.0
100
AcDbArc
 50
190.1817483883364
 51
259.8182516116643
  0
ARC
  5
1CA0D
330
18
100
AcDbEntity
  8
破線
100
AcDbCircle
 10
360.3320418232576
 20
304.8527994879973
 30
0.0
 40
127.0
100
AcDbArc
 50
280.1817483883358
 51
349.8182516116638
  0
ARC
  5
1CA0E
330
18
100
AcDbEntity
  8
0
100
AcDbCircle
 10
360.3320418232576
 20
304.8527994879976
 30
0.0
 40
126.9999999999999
100
AcDbArc
 50
79.81825161166426
 51
100.1817483883357
  0
ARC
  5
1CA0F
330
18
100
AcDbEntity
  8
0
100
AcDbCircle
 10
360.3320418232578
 20
304.8527994879977
 30
0.0
 40
126.9999999999999
100
AcDbArc
 50
169.8182516116641
 51
190.1817483883356
  0
ARC
  5
1CA10
330
18
100
AcDbEntity
  8
0
100
AcDbCircle
 10
360.3320418232576
 20
304.8527994879977
 30
0.0
 40
126.9999999999999
100
AcDbArc
 50
259.818251611664
 51
280.1817483883356
  0
ARC
  5
1CA9E
330
18
100
AcDbEntity
  8
0
100
AcDbCircle
 10
229.8442907265883
 20
254.5300662238985
 30
0.0
 40
10.50000000000042
100
AcDbArc
 50
154.8012161684953
 51
205.2187467620091
  0
LINE
  5
1CA9F
330
18
100
AcDbEntity
  8
0
100
AcDbLine
 10
215.843380072572
 20
259.7561986410834
 30
0.0
 11
215.8452018054886
 21
249.2990559426206
 31
0.0
  0
ARC
  5
1CAA0
330
18
100
AcDbEntity
  8
0
100
AcDbCircle
 10
202.6365507310023
 20
253.4862147986439
 30
0.0
 40
1.579751577084588
100
AcDbArc
 50
318.3536221944966
 51
41.66634073600354
  0
ARC
  5
1CAA1
330
18
100
AcDbEntity
  8
0
100
AcDbCircle
 10
204.9971565879985
 20
253.4866260384555
 30
0.0
 40
1.579751577084588
100
AcDbArc
 50
138.3536221944964
 51
221.6663407360035
  0
LINE
  5
1CAA2
330
18
100
AcDbEntity
  8
0
100
AcDbLine
 10
229.3459457237783
 20
245.0299792633401
 30
0.0
 11
229.3426357445721
 21
264.0299789750254
 31
0.0
  0
LINE
  5
1CAA3
330
18
100
AcDbEntity
  8
0
100
AcDbLine
 10
234.3461198573371
 20
244.0308503256741
 30
0.0
 11
234.3424614592672
 21
265.0308500070102
 31
0.0
  0
LINE
  5
1CAA4
330
18
100
AcDbEntity
  8
0
100
AcDbLine
 10
231.3424615047911
 20
265.0303273787146
 30
0.0
 11
231.3461199028612
 21
244.0303276973784
 31
0.0
  0
LINE
  5
1CAA5
330
18
100
AcDbEntity
  8
0
100
AcDbLine
 10
226.3424615806635
 20
265.0294563315549
 30
0.0
 11
226.3461199787334
 21
244.0294566502188
 31
0.0
  0
LINE
  5
1CAA6
330
18
100
AcDbEntity
  8
0
100
AcDbLine
 10
219.342665760791
 20
263.8568083118788
 30
0.0
 11
219.3459160110488
 21
245.1996657378483
 31
0.0
  0
LINE
  5
1CAA7
330
18
100
AcDbEntity
  8
0
100
AcDbLine
 10
220.3450699590093
 20
250.056275347158
 30
0.0
 11
226.3450698679626
 21
250.0573206037496
 31
0.0
  0
LINE
  5
1CAA8
330
18
100
AcDbEntity
  8
0
100
AcDbLine
 10
220.3453345896523
 20
248.5372379667563
 30
0.0
 11
226.3453344986057
 21
248.5382832233478
 31
0.0
  0
LINE
  5
1CAA9
330
18
100
AcDbEntity
  8
0
100
AcDbLine
 10
226.3461199787334
 20
244.0294566502188
 30
0.0
 11
220.3461200697805
 21
244.0284113936274
 31
0.0
  0
LINE
  5
1CAAA
330
18
100
AcDbEntity
  8
0
100
AcDbLine
 10
203.8170365794039
 20
252.4364204344829
 30
0.0
 11
215.8577779776849
 21
252.4385180452334
 31
0.0
  0
LINE
  5
1CAAB
330
18
100
AcDbEntity
  8
0
100
AcDbLine
 10
220.3450699590093
 20
250.0562753471583
 30
0.0
 11
220.3453345896523
 21
248.5372379667563
 31
0.0
  0
LINE
  5
1CAAC
330
18
100
AcDbEntity
  8
0
100
AcDbLine
 10
220.3461200697805
 20
244.0284113936274
 30
0.0
 11
215.8452018054886
 21
249.2990559426206
 31
0.0
  0
ARC
  5
1CAAD
330
18
100
AcDbEntity
  8
0
100
AcDbCircle
 10
228.3198640145377
 20
244.33088531303
 30
0.0
 40
9.015903847971632
100
AcDbArc
 50
152.1895426094193
 51
174.4703481467429
  0
LINE
  5
1CAAE
330
18
100
AcDbEntity
  8
0
100
AcDbLine
 10
231.3450697920901
 20
250.0581916509092
 30
0.0
 11
234.3450697465665
 21
250.0587142792049
 31
0.0
  0
LINE
  5
1CAAF
330
18
100
AcDbEntity
  8
0
100
AcDbLine
 10
231.3453344227334
 20
248.5391542705074
 30
0.0
 11
234.3453343772095
 21
248.5396768988031
 31
0.0
  0
LINE
  5
1CAB0
330
18
100
AcDbEntity
  8
0
100
AcDbLine
 10
234.3461198573371
 20
244.0308503256741
 30
0.0
 11
231.3461199028612
 21
244.0303276973784
 31
0.0
  0
LINE
  5
1CAB1
330
18
100
AcDbEntity
  8
0
100
AcDbLine
 10
231.3455798536223
 20
247.1303276503379
 30
0.0
 11
229.3455798839711
 21
247.129979231474
 31
0.0
  0
LINE
  5
1CAB2
330
18
100
AcDbEntity
  8
0
100
AcDbLine
 10
229.3459457237783
 20
245.0299792633401
 30
0.0
 11
226.3459457693016
 21
245.0294566350443
 31
0.0
  0
LINE
  5
1CAB3
330
18
100
AcDbEntity
  8
0
100
AcDbLine
 10
235.3458585280155
 20
245.5310245123443
 30
0.0
 11
234.3458585431893
 21
245.5308503029124
 31
0.0
  0
LINE
  5
1CAB4
330
18
100
AcDbEntity
  8
0
100
AcDbLine
 10
226.3424615806635
 20
265.0294563315549
 30
0.0
 11
220.3424616717103
 21
265.0284110749637
 31
0.0
  0
LINE
  5
1CAB5
330
18
100
AcDbEntity
  8
0
100
AcDbLine
 10
226.3432470607913
 20
260.5206297584263
 30
0.0
 11
220.3432471518381
 21
260.5195845018349
 31
0.0
  0
LINE
  5
1CAB6
330
18
100
AcDbEntity
  8
0
100
AcDbLine
 10
226.3435116914345
 20
259.0015923780244
 30
0.0
 11
220.3435117824813
 21
259.0005471214329
 31
0.0
  0
LINE
  5
1CAB7
330
18
100
AcDbEntity
  8
0
100
AcDbLine
 10
203.8163048997905
 20
256.6364203707501
 30
0.0
 11
215.8570462980708
 21
256.6385179815005
 31
0.0
  0
ARC
  5
1CAB8
330
18
100
AcDbEntity
  8
0
100
AcDbCircle
 10
204.9967907481923
 20
255.5866260065891
 30
0.0
 40
1.579751577084588
100
AcDbArc
 50
138.3536221944964
 51
221.6663407360035
  0
LINE
  5
1CAB9
330
18
100
AcDbEntity
  8
0
100
AcDbLine
 10
220.3424616717108
 20
265.0284110749637
 30
0.0
 11
215.843380072572
 21
259.7561986410834
 31
0.0
  0
ARC
  5
1CABA
330
18
100
AcDbEntity
  8
0
100
AcDbCircle
 10
228.3163105200963
 20
264.7287153766835
 30
0.0
 40
9.015903847971632
100
AcDbArc
 50
185.5496147837551
 51
207.8304203210791
  0
LINE
  5
1CABB
330
18
100
AcDbEntity
  8
0
100
AcDbLine
 10
220.3432471518381
 20
260.5195845018349
 30
0.0
 11
220.3435117824813
 21
259.0005471214331
 31
0.0
  0
LINE
  5
1CABC
330
18
100
AcDbEntity
  8
0
100
AcDbLine
 10
234.3432469393952
 20
260.5220234338815
 30
0.0
 11
231.3432469849189
 21
260.5215008055858
 31
0.0
  0
LINE
  5
1CABD
330
18
100
AcDbEntity
  8
0
100
AcDbLine
 10
234.3435115700381
 20
259.0029860534795
 30
0.0
 11
231.3435116155621
 21
259.0024634251839
 31
0.0
  0
LINE
  5
1CABE
330
18
100
AcDbEntity
  8
0
100
AcDbLine
 10
231.34300155403
 20
261.9303274257561
 30
0.0
 11
229.343001584379
 21
261.9299790068922
 31
0.0
  0
LINE
  5
1CABF
330
18
100
AcDbEntity
  8
0
100
AcDbLine
 10
229.3426357445721
 20
264.0299789750254
 30
0.0
 11
226.3426357900954
 21
264.0294563467296
 31
0.0
  0
LINE
  5
1CAC0
330
18
100
AcDbEntity
  8
0
100
AcDbLine
 10
235.3427227582411
 20
263.5310242392039
 30
0.0
 11
234.3427227734153
 21
263.530850029772
 31
0.0
  0
LINE
  5
1CAC1
330
18
100
AcDbEntity
  8
0
100
AcDbLine
 10
234.3424614592672
 20
265.0308500070102
 30
0.0
 11
231.3424615047911
 21
265.0303273787146
 31
0.0
  0
CIRCLE
  5
1CACC
330
18
100
AcDbEntity
  8
0
100
AcDbCircle
 10
-48.68882947168689
 20
404.8527994879978
 30
0.0
 40
7.0
  0
CIRCLE
  5
1CACD
330
18
100
AcDbEntity
  8
0
100
AcDbCircle
 10
152.129496385293
 20
404.8527994879973
 30
0.0
 40
7.0
  0
CIRCLE
  5
1CACE
330
18
100
AcDbEntity
  8
0
100
AcDbCircle
 10
-49.09799240017656
 20
204.4436365595076
 30
0.0
 40
7.0
  0
CIRCLE
  5
1CACF
330
18
100
AcDbEntity
  8
0
100
AcDbCircle
 10
151.7203334568035
 20
204.4436365595074
 30
0.0
 40
7.0
  0
CIRCLE
  5
1CAD0
330
18
100
AcDbEntity
  8
0
100
AcDbCircle
 10
260.3320418232584
 20
404.852799487998
 30
0.0
 40
7.0
  0
CIRCLE
  5
1CAD1
330
18
100
AcDbEntity
  8
0
100
AcDbCircle
 10
461.1503676802383
 20
404.8527994879974
 30
0.0
 40
7.0
  0
CIRCLE
  5
1CAD2
330
18
100
AcDbEntity
  8
0
100
AcDbCircle
 10
460.7412047517486
 20
204.4436365595074
 30
0.0
 40
7.0
  0
CIRCLE
  5
1CAD3
330
18
100
AcDbEntity
  8
0
100
AcDbCircle
 10
259.9228788947687
 20
204.4436365595078
 30
0.0
 40
7.0
  0
LINE
  5
1CB4C
330
18
100
AcDbEntity
  8
中心線
100
AcDbLine
 10
-96.98588086803283
 20
379.8520155455542
 30
0.0
 11
-66.14749631174345
 21
379.8520155455542
 31
0.0
  0
LINE
  5
1CD63
330
18
100
AcDbEntity
  8
破線
100
AcDbLine
 10
121.3111705283133
 20
6.948124014767216
 30
0.0
 11
51.31117052831339
 21
6.948124014767245
 31
0.0
  0
LINE
  5
1CD65
330
18
100
AcDbEntity
  8
破線
100
AcDbLine
 10
121.3111705283133
 20
6.948124014767188
 30
0.0
 11
121.3111705283133
 21
5.448124014767216
 31
0.0
  0
LINE
  5
1CD66
330
18
100
AcDbEntity
  8
破線
100
AcDbLine
 10
-18.6888294716866
 20
6.948124014768538
 30
0.0
 11
51.31117052831339
 21
6.948124014767245
 31
0.0
  0
LINE
  5
1CD67
330
18
100
AcDbEntity
  8
破線
100
AcDbLine
 10
-18.6888294716866
 20
6.948124014768509
 30
0.0
 11
-18.6888294716866
 21
5.448124014768538
 31
0.0
  0
LINE
  5
1CEE1
330
18
100
AcDbEntity
  8
0
100
AcDbLine
 10
-155.6064363075003
 20
377.863077917524
 30
0.0
 11
-107.0117164353681
 21
377.8638618599676
 31
0.0
  0
CIRCLE
  5
1CFB3
102
{ACAD_REACTORS
330
1CFBB
102
}
330
18
100
AcDbEntity
  8
細線
100
AcDbCircle
 10
360.3263800166993
 20
369.8527992414123
 30
0.0
 40
3.5
  0
ARC
  5
1CFB4
102
{ACAD_REACTORS
330
1CFBB
102
}
330
18
100
AcDbEntity
  8
細線
100
AcDbCircle
 10
361.0900553403808
 20
369.0891239177307
 30
0.0
 40
0.5
100
AcDbArc
 50
87.34638766282328
 51
182.6536123371784
  0
ARC
  5
1CFB5
102
{ACAD_REACTORS
330
1CFBB
102
}
330
18
100
AcDbEntity
  8
細線
100
AcDbCircle
 10
360.0468554479886
 20
368.8095993490201
 30
0.0
 40
0.5
100
AcDbArc
 50
27.3463876628146
 51
122.6536123371776
  0
ARC
  5
1CFB6
102
{ACAD_REACTORS
330
1CFBB
102
}
330
18
100
AcDbEntity
  8
細線
100
AcDbCircle
 10
361.3695799090915
 20
370.132323810123
 30
0.0
 40
0.5
100
AcDbArc
 50
147.3463876628259
 51
242.6536123371793
  0
ARC
  5
1CFB7
102
{ACAD_REACTORS
330
1CFBB
102
}
330
18
100
AcDbEntity
  8
細線
100
AcDbCircle
 10
359.5627046930179
 20
370.6164745650935
 30
0.0
 40
0.5
100
AcDbArc
 50
267.3463876628232
 51
2.653612337178548
  0
ARC
  5
1CFB8
102
{ACAD_REACTORS
330
1CFBB
102
}
330
18
100
AcDbEntity
  8
細線
100
AcDbCircle
 10
359.2831801243073
 20
369.5732746727013
 30
0.0
 40
0.5
100
AcDbArc
 50
327.3463876628257
 51
62.65361233717938
  0
CIRCLE
  5
1CFB9
102
{ACAD_REACTORS
330
1CFBB
102
}
330
18
100
AcDbEntity
  8
細線
100
AcDbCircle
 10
360.3263800166993
 20
369.8527992414123
 30
0.0
 40
0.8299999999999998
  0
ARC
  5
1CFBA
102
{ACAD_REACTORS
330
1CFBB
102
}
330
18
100
AcDbEntity
  8
細線
100
AcDbCircle
 10
360.6059045854101
 20
370.8959991338044
 30
0.0
 40
0.5
100
AcDbArc
 50
207.3463876628145
 51
302.6536123371777
  0
CIRCLE
  5
1CFBC
102
{ACAD_REACTORS
330
1CFC4
102
}
330
18
100
AcDbEntity
  8
細線
100
AcDbCircle
 10
295.3320418232578
 20
304.8527994879973
 30
0.0
 40
3.5
  0
ARC
  5
1CFBD
102
{ACAD_REACTORS
330
1CFC4
102
}
330
18
100
AcDbEntity
  8
細線
100
AcDbCircle
 10
295.6115663919685
 20
305.8959993803896
 30
0.0
 40
0.5
100
AcDbArc
 50
207.3463876628145
 51
302.6536123371777
  0
CIRCLE
  5
1CFBE
102
{ACAD_REACTORS
330
1CFC4
102
}
330
18
100
AcDbEntity
  8
細線
100
AcDbCircle
 10
295.3320418232578
 20
304.8527994879973
 30
0.0
 40
0.8299999999999998
  0
ARC
  5
1CFBF
102
{ACAD_REACTORS
330
1CFC4
102
}
330
18
100
AcDbEntity
  8
細線
100
AcDbCircle
 10
294.2888419308658
 20
304.5732749192866
 30
0.0
 40
0.5
100
AcDbArc
 50
327.3463876628257
 51
62.65361233717938
  0
ARC
  5
1CFC0
102
{ACAD_REACTORS
330
1CFC4
102
}
330
18
100
AcDbEntity
  8
細線
100
AcDbCircle
 10
294.5683664995763
 20
305.6164748116787
 30
0.0
 40
0.5
100
AcDbArc
 50
267.3463876628232
 51
2.653612337178548
  0
ARC
  5
1CFC1
102
{ACAD_REACTORS
330
1CFC4
102
}
330
18
100
AcDbEntity
  8
細線
100
AcDbCircle
 10
296.3752417156501
 20
305.132324056708
 30
0.0
 40
0.5
100
AcDbArc
 50
147.3463876628259
 51
242.6536123371793
  0
ARC
  5
1CFC2
102
{ACAD_REACTORS
330
1CFC4
102
}
330
18
100
AcDbEntity
  8
細線
100
AcDbCircle
 10
295.0525172545471
 20
303.8095995956052
 30
0.0
 40
0.5
100
AcDbArc
 50
27.3463876628146
 51
122.6536123371776
  0
ARC
  5
1CFC3
102
{ACAD_REACTORS
330
1CFC4
102
}
330
18
100
AcDbEntity
  8
細線
100
AcDbCircle
 10
296.0957171469392
 20
304.0891241643157
 30
0.0
 40
0.5
100
AcDbArc
 50
87.34638766282328
 51
182.6536123371784
  0
CIRCLE
  5
1CFC5
102
{ACAD_REACTORS
330
1CFCD
102
}
330
18
100
AcDbEntity
  8
細線
100
AcDbCircle
 10
360.3320418232581
 20
239.8527994879976
 30
0.0
 40
3.5
  0
ARC
  5
1CFC6
102
{ACAD_REACTORS
330
1CFCD
102
}
330
18
100
AcDbEntity
  8
細線
100
AcDbCircle
 10
359.288841930866
 20
239.5732749192867
 30
0.0
 40
0.5
100
AcDbArc
 50
327.3463876628257
 51
62.65361233717938
  0
ARC
  5
1CFC7
102
{ACAD_REACTORS
330
1CFCD
102
}
330
18
100
AcDbEntity
  8
細線
100
AcDbCircle
 10
359.5683664995766
 20
240.6164748116789
 30
0.0
 40
0.5
100
AcDbArc
 50
267.3463876628232
 51
2.653612337178548
  0
ARC
  5
1CFC8
102
{ACAD_REACTORS
330
1CFCD
102
}
330
18
100
AcDbEntity
  8
細線
100
AcDbCircle
 10
361.3752417156502
 20
240.1323240567081
 30
0.0
 40
0.5
100
AcDbArc
 50
147.3463876628259
 51
242.6536123371793
  0
CIRCLE
  5
1CFC9
102
{ACAD_REACTORS
330
1CFCD
102
}
330
18
100
AcDbEntity
  8
細線
100
AcDbCircle
 10
360.3320418232581
 20
239.8527994879976
 30
0.0
 40
0.8299999999999998
  0
ARC
  5
1CFCA
102
{ACAD_REACTORS
330
1CFCD
102
}
330
18
100
AcDbEntity
  8
細線
100
AcDbCircle
 10
361.0957171469393
 20
239.089124164316
 30
0.0
 40
0.5
100
AcDbArc
 50
87.34638766282328
 51
182.6536123371784
  0
ARC
  5
1CFCB
102
{ACAD_REACTORS
330
1CFCD
102
}
330
18
100
AcDbEntity
  8
細線
100
AcDbCircle
 10
360.0525172545473
 20
238.8095995956055
 30
0.0
 40
0.5
100
AcDbArc
 50
27.3463876628146
 51
122.6536123371776
  0
ARC
  5
1CFCC
102
{ACAD_REACTORS
330
1CFCD
102
}
330
18
100
AcDbEntity
  8
細線
100
AcDbCircle
 10
360.6115663919688
 20
240.8959993803899
 30
0.0
 40
0.5
100
AcDbArc
 50
207.3463876628145
 51
302.6536123371777
  0
CIRCLE
  5
1CFCE
102
{ACAD_REACTORS
330
1CFD6
102
}
330
18
100
AcDbEntity
  8
細線
100
AcDbCircle
 10
425.3320418232578
 20
304.8527994879973
 30
0.0
 40
3.5
  0
ARC
  5
1CFCF
102
{ACAD_REACTORS
330
1CFD6
102
}
330
18
100
AcDbEntity
  8
細線
100
AcDbCircle
 10
425.6115663919685
 20
305.8959993803897
 30
0.0
 40
0.5
100
AcDbArc
 50
207.3463876628145
 51
302.6536123371777
  0
CIRCLE
  5
1CFD0
102
{ACAD_REACTORS
330
1CFD6
102
}
330
18
100
AcDbEntity
  8
細線
100
AcDbCircle
 10
425.3320418232578
 20
304.8527994879973
 30
0.0
 40
0.8299999999999998
  0
ARC
  5
1CFD1
102
{ACAD_REACTORS
330
1CFD6
102
}
330
18
100
AcDbEntity
  8
細線
100
AcDbCircle
 10
424.2888419308657
 20
304.5732749192866
 30
0.0
 40
0.5
100
AcDbArc
 50
327.3463876628257
 51
62.65361233717938
  0
ARC
  5
1CFD2
102
{ACAD_REACTORS
330
1CFD6
102
}
330
18
100
AcDbEntity
  8
細線
100
AcDbCircle
 10
424.5683664995762
 20
305.6164748116788
 30
0.0
 40
0.5
100
AcDbArc
 50
267.3463876628232
 51
2.653612337178548
  0
ARC
  5
1CFD3
102
{ACAD_REACTORS
330
1CFD6
102
}
330
18
100
AcDbEntity
  8
細線
100
AcDbCircle
 10
426.37524171565
 20
305.1323240567081
 30
0.0
 40
0.5
100
AcDbArc
 50
147.3463876628259
 51
242.6536123371793
  0
ARC
  5
1CFD4
102
{ACAD_REACTORS
330
1CFD6
102
}
330
18
100
AcDbEntity
  8
細線
100
AcDbCircle
 10
425.052517254547
 20
303.8095995956053
 30
0.0
 40
0.5
100
AcDbArc
 50
27.3463876628146
 51
122.6536123371776
  0
ARC
  5
1CFD5
102
{ACAD_REACTORS
330
1CFD6
102
}
330
18
100
AcDbEntity
  8
細線
100
AcDbCircle
 10
426.0957171469392
 20
304.0891241643159
 30
0.0
 40
0.5
100
AcDbArc
 50
87.34638766282328
 51
182.6536123371784
  0
LINE
  5
1D118
330
18
100
AcDbEntity
  8
0
100
AcDbLine
 10
-246.2108768862711
 20
365.6270094925111
 30
0.0
 11
-246.2108768862711
 21
369.0770094925113
 31
0.0
  0
LINE
  5
1D119
330
18
100
AcDbEntity
  8
0
100
AcDbLine
 10
-174.5805029008451
 20
367.7227481830541
 30
0.0
 11
-161.3933271971554
 21
358.6991689245148
 31
0.0
  0
LINE
  5
1D11A
330
18
100
AcDbEntity
  8
0
100
AcDbLine
 10
-185.1108317847954
 20
364.4120155455573
 30
0.0
 11
-185.1108317847954
 21
370.2920155455573
 31
0.0
  0
LINE
  5
1D11B
330
18
100
AcDbEntity
  8
0
100
AcDbLine
 10
-200.1108317847954
 20
364.4120155455573
 30
0.0
 11
-200.1108317847954
 21
370.2920155455573
 31
0.0
  0
LINE
  5
1D11C
330
18
100
AcDbEntity
  8
0
100
AcDbLine
 10
-200.1108317847954
 20
366.0608054998954
 30
0.0
 11
-222.5108317847955
 21
362.2763306140506
 31
0.0
  0
LINE
  5
1D11D
330
18
100
AcDbEntity
  8
0
100
AcDbLine
 10
-236.7108768862705
 20
360.5520094925116
 30
0.0
 11
-236.7108768862705
 21
374.1520094925111
 31
0.0
  0
LINE
  5
1D11E
330
18
100
AcDbEntity
  8
0
100
AcDbLine
 10
-222.510831784796
 20
359.5520155455541
 30
0.0
 11
-222.5108317847949
 21
375.1520155455545
 31
0.0
  0
LINE
  5
1D11F
330
18
100
AcDbEntity
  8
0
100
AcDbLine
 10
-246.2108768862711
 20
365.6270094925111
 30
0.0
 11
-236.7108768862705
 21
365.6270094925115
 31
0.0
  0
LINE
  5
1D120
330
18
100
AcDbEntity
  8
0
100
AcDbLine
 10
-246.2108768862711
 20
364.9770094925112
 30
0.0
 11
-236.7108768862705
 21
364.9770094925112
 31
0.0
  0
LINE
  5
1D121
330
18
100
AcDbEntity
  8
0
100
AcDbLine
 10
-246.2108768862711
 20
361.5270094925111
 30
0.0
 11
-236.7108768862705
 21
361.5270094925111
 31
0.0
  0
LINE
  5
1D122
330
18
100
AcDbEntity
  8
0
100
AcDbLine
 10
-246.2108768862706
 20
361.5270094925111
 30
0.0
 11
-246.2108768862711
 21
364.9770094925119
 31
0.0
  0
LINE
  5
1D123
330
18
100
AcDbEntity
  8
0
100
AcDbLine
 10
-222.5108317847949
 20
359.5520155455541
 30
0.0
 11
-223.6108317847945
 21
359.5520155455541
 31
0.0
  0
LINE
  5
1D124
330
18
100
AcDbEntity
  8
0
100
AcDbLine
 10
-223.6108317847957
 20
360.5520094925116
 30
0.0
 11
-236.7108768862705
 21
360.5520094925116
 31
0.0
  0
LINE
  5
1D125
330
18
100
AcDbEntity
  8
0
100
AcDbLine
 10
-223.6108317847953
 20
359.5520155455541
 30
0.0
 11
-223.6108317847957
 21
360.5520094925116
 31
0.0
  0
LINE
  5
1D126
330
18
100
AcDbEntity
  8
0
100
AcDbLine
 10
-200.1108317847954
 20
364.4120155455573
 30
0.0
 11
-185.1108317847954
 21
364.4120155455571
 31
0.0
  0
ARC
  5
1D127
330
18
100
AcDbEntity
  8
0
100
AcDbCircle
 10
-180.2250438457269
 20
355.2585805549274
 30
0.0
 40
10.0
100
AcDbArc
 50
55.64485341677208
 51
89.99999999999836
  0
LINE
  5
1D128
330
18
100
AcDbEntity
  8
0
100
AcDbLine
 10
-185.1108317847954
 20
365.2585805549275
 30
0.0
 11
-180.2250438457268
 21
365.2585805549275
 31
0.0
  0
ARC
  5
1D129
330
18
100
AcDbEntity
  8
0
100
AcDbCircle
 10
-155.7461577602087
 20
366.9520155455549
 30
0.0
 40
10.0
100
AcDbArc
 50
235.6173623158394
 51
270.0
  0
LINE
  5
1D12A
330
18
100
AcDbEntity
  8
0
100
AcDbLine
 10
-222.5108317847955
 20
367.3520155455573
 30
0.0
 11
-200.1108317847954
 21
367.3520155455573
 31
0.0
  0
LINE
  5
1D12B
330
18
100
AcDbEntity
  8
0
100
AcDbLine
 10
-200.1108317847954
 20
368.6432255912194
 30
0.0
 11
-222.5108317847955
 21
372.4277004770641
 31
0.0
  0
LINE
  5
1D12C
330
18
100
AcDbEntity
  8
0
100
AcDbLine
 10
-241.4708768862708
 20
377.5520094925112
 30
0.0
 11
-242.4423054576994
 21
376.5805809210827
 31
0.0
  0
LINE
  5
1D12D
330
18
100
AcDbEntity
  8
0
100
AcDbLine
 10
-242.4423054576994
 20
375.3177237782253
 30
0.0
 11
-241.4708768862708
 21
374.3462952067968
 31
0.0
  0
LINE
  5
1D12E
330
18
100
AcDbEntity
  8
0
100
AcDbLine
 10
-246.2108768862711
 20
373.1770094925112
 30
0.0
 11
-236.7108768862705
 21
373.1770094925112
 31
0.0
  0
LINE
  5
1D12F
330
18
100
AcDbEntity
  8
0
100
AcDbLine
 10
-246.2108768862711
 20
369.727009492511
 30
0.0
 11
-236.7108768862705
 21
369.727009492511
 31
0.0
  0
LINE
  5
1D130
330
18
100
AcDbEntity
  8
0
100
AcDbLine
 10
-246.2108768862711
 20
369.0770094925113
 30
0.0
 11
-236.7108768862705
 21
369.0770094925113
 31
0.0
  0
LINE
  5
1D131
330
18
100
AcDbEntity
  8
0
100
AcDbLine
 10
-246.2108768862711
 20
369.727009492511
 30
0.0
 11
-246.2108768862711
 21
373.1770094925112
 31
0.0
  0
LINE
  5
1D132
330
18
100
AcDbEntity
  8
0
100
AcDbLine
 10
-242.4423054576994
 20
375.3177237782253
 30
0.0
 11
-242.4423054576994
 21
376.5805809210827
 31
0.0
  0
LINE
  5
1D133
330
18
100
AcDbEntity
  8
0
100
AcDbLine
 10
-222.5108317847949
 20
375.1520155455545
 30
0.0
 11
-223.6108317847945
 21
375.1520155455545
 31
0.0
  0
LINE
  5
1D134
330
18
100
AcDbEntity
  8
0
100
AcDbLine
 10
-229.23087688627
 20
376.5805809210827
 30
0.0
 11
-229.2308768862706
 21
377.9697237782253
 31
0.0
  0
LINE
  5
1D135
330
18
100
AcDbEntity
  8
0
100
AcDbLine
 10
-240.0137340291278
 20
376.5805809210827
 30
0.0
 11
-240.0137340291278
 21
377.5520094925112
 31
0.0
  0
LINE
  5
1D136
330
18
100
AcDbEntity
  8
0
100
AcDbLine
 10
-236.7108768862705
 20
374.1520094925111
 30
0.0
 11
-236.7108768862705
 21
377.9697237782253
 31
0.0
  0
LINE
  5
1D137
330
18
100
AcDbEntity
  8
0
100
AcDbLine
 10
-223.6108317847945
 20
374.1520094925111
 30
0.0
 11
-236.7108768862705
 21
374.1520094925111
 31
0.0
  0
LINE
  5
1D138
330
18
100
AcDbEntity
  8
0
100
AcDbLine
 10
-234.6969345725663
 20
375.61676747288
 30
0.0
 11
-229.23087688627
 21
376.5805809210827
 31
0.0
  0
LINE
  5
1D139
330
18
100
AcDbEntity
  8
0
100
AcDbLine
 10
-240.0137340291278
 20
376.5805809210827
 30
0.0
 11
-236.7108768862705
 21
376.5805809210827
 31
0.0
  0
LINE
  5
1D13A
330
18
100
AcDbEntity
  8
0
100
AcDbLine
 10
-235.0983054576988
 20
374.6377237782251
 30
0.0
 11
-235.0983054576993
 21
375.1384322785596
 31
0.0
  0
ARC
  5
1D13B
330
18
100
AcDbEntity
  8
0
100
AcDbCircle
 10
-234.6125911719848
 20
374.6377237782251
 30
0.0
 40
0.4857142857142857
100
AcDbArc
 50
180.000000000013
 51
270.0
  0
ARC
  5
1D13C
330
18
100
AcDbEntity
  8
0
100
AcDbCircle
 10
-234.612591171985
 20
375.1384322785601
 30
0.0
 40
0.4857142857142857
100
AcDbArc
 50
100.0000000000033
 51
180.000000000013
  0
LINE
  5
1D13D
330
18
100
AcDbEntity
  8
0
100
AcDbLine
 10
-240.1108768862711
 20
375.4148666353683
 30
0.0
 11
-236.7108768862705
 21
375.4148666353683
 31
0.0
  0
LINE
  5
1D13E
330
18
100
AcDbEntity
  8
0
100
AcDbLine
 10
-240.0137340291278
 20
374.3462952067968
 30
0.0
 11
-240.1108768862711
 21
375.4148666353683
 31
0.0
  0
LINE
  5
1D13F
330
18
100
AcDbEntity
  8
0
100
AcDbLine
 10
-241.4708768862708
 20
374.3462952067968
 30
0.0
 11
-240.013734029128
 21
374.3462952067968
 31
0.0
  0
LINE
  5
1D140
330
18
100
AcDbEntity
  8
0
100
AcDbLine
 10
-223.6108317847945
 20
374.1520094925111
 30
0.0
 11
-223.6108317847945
 21
375.1520155455545
 31
0.0
  0
LINE
  5
1D141
330
18
100
AcDbEntity
  8
0
100
AcDbLine
 10
-239.5960197434134
 20
377.9697237782253
 30
0.0
 11
-229.230876886271
 21
377.9697237782253
 31
0.0
  0
LINE
  5
1D142
330
18
100
AcDbEntity
  8
0
100
AcDbLine
 10
-241.4708768862708
 20
377.5520094925112
 30
0.0
 11
-230.2023054576991
 21
377.5520094925116
 31
0.0
  0
LINE
  5
1D143
330
18
100
AcDbEntity
  8
0
100
AcDbLine
 10
-240.0137340291278
 20
377.5520094925112
 30
0.0
 11
-239.5960197434134
 21
377.9697237782253
 31
0.0
  0
LINE
  5
1D144
330
18
100
AcDbEntity
  8
0
100
AcDbLine
 10
-230.2023054576991
 20
377.5520094925116
 30
0.0
 11
-230.2023054576991
 21
377.9697237782253
 31
0.0
  0
LINE
  5
1D145
330
18
100
AcDbEntity
  8
0
100
AcDbLine
 10
-174.0553017880533
 20
367.363369194373
 30
0.0
 11
-161.250420659778
 21
376.1181030920007
 31
0.0
  0
LINE
  5
1D146
330
18
100
AcDbEntity
  8
0
100
AcDbLine
 10
-174.5785471541694
 20
371.2210417703563
 30
0.0
 11
-161.6049286912016
 21
380.1119377091811
 31
0.0
  0
LINE
  5
1D147
330
18
100
AcDbEntity
  8
0
100
AcDbLine
 10
-200.1108317847954
 20
370.2920155455573
 30
0.0
 11
-185.1108317847954
 21
370.2920155455573
 31
0.0
  0
ARC
  5
1D148
330
18
100
AcDbEntity
  8
0
100
AcDbCircle
 10
-180.227672337792
 20
359.469901562014
 30
0.0
 40
10.0
100
AcDbArc
 50
55.61736231583942
 51
90.0
  0
ARC
  5
1D149
330
18
100
AcDbEntity
  8
0
100
AcDbCircle
 10
-180.2315385868161
 20
379.4699015620137
 30
0.0
 40
10.0
100
AcDbArc
 50
269.9999999999981
 51
304.423066929448
  0
LINE
  5
1D14A
330
18
100
AcDbEntity
  8
0
100
AcDbLine
 10
-185.1108317847954
 20
369.4699015620141
 30
0.0
 11
-180.2315385868163
 21
369.469901562014
 31
0.0
  0
LINE
  5
1D14B
330
18
100
AcDbEntity
  8
0
100
AcDbLine
 10
-185.1108317847954
 20
369.4699015620141
 30
0.0
 11
-180.227672337792
 21
369.469901562014
 31
0.0
  0
ARC
  5
1D14C
330
18
100
AcDbEntity
  8
0
100
AcDbCircle
 10
-155.6064363075003
 20
367.863077917524
 30
0.0
 40
10.0
100
AcDbArc
 50
90.0
 51
124.3605280011052
  0
ARC
  5
1D14D
330
18
100
AcDbEntity
  8
0
100
AcDbCircle
 10
-155.951937258555
 20
371.8630779175235
 30
0.0
 40
10.0
100
AcDbArc
 50
90.00000000000083
 51
124.4230669294472
  0
LINE
  5
1D14E
330
18
100
AcDbEntity
  8
0
100
AcDbLine
 10
-174.5818348588726
 20
363.5141357955328
 30
0.0
 11
-161.3897098945509
 21
354.4964603049493
 31
0.0
  0
ARC
  5
1D14F
330
18
100
AcDbEntity
  8
0
100
AcDbCircle
 10
-155.7465009076964
 20
362.7520155455546
 30
0.0
 40
10.0
100
AcDbArc
 50
235.644853416772
 51
270.0
  0
LINE
  5
1D18C
330
18
100
AcDbEntity
  8
中心線
100
AcDbLine
 10
-99.25059408495192
 20
354.8527994879977
 30
0.0
 11
-68.16816292585861
 21
354.8527994879977
 31
0.0
  0
LINE
  5
1D18D
330
18
100
AcDbEntity
  8
中心線
100
AcDbLine
 10
-96.53293692152285
 20
229.8527994879977
 30
0.0
 11
-68.16816292585838
 21
229.8527994879977
 31
0.0
  0
LINE
  5
1D18E
330
18
100
AcDbEntity
  8
中心線
100
AcDbLine
 10
151.7111705283104
 20
30.44812401477942
 30
0.0
 11
151.711170528314
 21
0.4481240147784718
 31
0.0
  0
LINE
  5
1D236
330
18
100
AcDbEntity
  8
中心線
100
AcDbLine
 10
212.5001834891941
 20
229.527627291852
 30
0.0
 11
240.8649574848586
 21
229.527627291852
 31
0.0
  0
LINE
  5
1D237
330
18
100
AcDbEntity
  8
中心線
100
AcDbLine
 10
212.5001834891941
 20
254.527627291852
 30
0.0
 11
240.8649574848586
 21
254.527627291852
 31
0.0
  0
LINE
  5
1D238
330
18
100
AcDbEntity
  8
中心線
100
AcDbLine
 10
212.4804908006157
 20
379.967936825195
 30
0.0
 11
240.8452647962801
 21
379.967936825195
 31
0.0
  0
LINE
  5
1D43C
330
18
100
AcDbEntity
  8
0
100
AcDbLine
 10
-69.45672971080909
 20
38.94812401476499
 30
0.0
 11
-69.45672971080909
 21
31.74812401476505
 31
0.0
  0
LINE
  5
1D43D
330
18
100
AcDbEntity
  8
0
100
AcDbLine
 10
-75.07106769068428
 20
38.94812401476497
 30
0.0
 11
-75.07106769068428
 21
31.74812401476504
 31
0.0
  0
LINE
  5
1D43E
330
18
100
AcDbEntity
  8
0
100
AcDbLine
 10
-69.45672971080916
 20
38.94812401476497
 30
0.0
 11
-75.07106769068428
 21
38.94812401476497
 31
0.0
  0
LINE
  5
1D43F
330
18
100
AcDbEntity
  8
0
100
AcDbLine
 10
-69.45672971080909
 20
31.74812401476505
 30
0.0
 11
-75.07106769068423
 21
31.74812401476504
 31
0.0
  0
CIRCLE
  5
1D60D
330
18
100
AcDbEntity
  8
0
100
AcDbCircle
 10
51.3111705283136
 20
304.8527994879977
 30
0.0
 40
32.50000000000002
  0
CIRCLE
  5
1D60E
330
18
100
AcDbEntity
  8
0
100
AcDbCircle
 10
360.3320418232576
 20
304.8527994879973
 30
0.0
 40
70.0000000000002
  0
LINE
  5
1D60F
330
18
100
AcDbEntity
  8
破線
100
AcDbLine
 10
106.3111705283136
 20
107.9481238973452
 30
0.0
 11
106.3111705283136
 21
109.9481238973452
 31
0.0
  0
LINE
  5
1D610
330
18
100
AcDbEntity
  8
破線
100
AcDbLine
 10
-3.688829471686361
 20
107.9481238973452
 30
0.0
 11
-3.688829471686361
 21
109.9481238973452
 31
0.0
  0
LINE
  5
1D611
330
18
100
AcDbEntity
  8
破線
100
AcDbLine
 10
-3.688829471686361
 20
107.9481238973452
 30
0.0
 11
106.3111705283136
 21
107.9481238973452
 31
0.0
  0
VIEWPORT
  5
23
330
15
100
AcDbEntity
 67
     1
  8
0
100
AcDbViewport
 10
200.0089637719428
 20
143.994597057143
 30
0.0
 40
443.5397062380877
 41
290.2901067405424
 68
     1
 69
     1
1001
ACAD
1000
MVIEW
1002
{
1070
    16
1010
0.0
1020
0.0
1030
0.0
1010
0.0
1020
0.0
1030
1.0
1040
0.0
1040
290.2901067405424
1040
200.0089637719428
1040
143.994597057143
1040
50.0
1040
0.0
1040
0.0
1070
     0
1070
   100
1070
     1
1070
     0
1070
     0
1070
     0
1070
     0
1070
     0
1040
0.0
1040
0.0
1040
0.0
1040
10.0
1040
10.0
1040
10.0
1040
10.0
1070
     0
1002
{
1002
}
1002
}
  0
VIEWPORT
  5
2E
330
15
100
AcDbEntity
 67
     1
  8
M_VIEW
100
AcDbViewport
 10
200.0
 20
144.0
 30
0.0
 40
400.0
 41
288.0
 68
     2
 69
     2
1001
ACAD
1000
MVIEW
1002
{
1070
    16
1010
0.0
1020
0.0
1030
0.0
1010
0.0
1020
0.0
1030
1.0
1040
0.0
1040
576.0000015253999
1040
107.6701421572529
1040
180.4858439946884
1040
50.0
1040
0.0
1040
0.0
1070
     0
1070
   100
1070
     1
1070
     0
1070
     0
1070
     0
1070
     0
1070
     0
1040
0.0
1040
0.0
1040
0.0
1040
10.0
1040
10.0
1040
10.0
1040
10.0
1070
     0
1002
{
1002
}
1002
}
  0
INSERT
  5
115F
330
15
100
AcDbEntity
 67
     1
  8
FRAME025
100
AcDbBlockReference
  2
機械A4横_LBP
 10
82.74908858651452
 20
152.030959079227
 30
0.0
  0
TEXT
  5
AA6A
330
15
100
AcDbEntity
 67
     1
  8
文字
  6
BYBLOCK
 62
     0
100
AcDbText
 10
32.81885892396519
 20
73.01882819621747
 30
0.0
 40
3.2
  1

 50
90.0
 41
0.625
  7
MSｺ_ｼｯｸ
100
AcDbText
  0
TEXT
  5
AA6C
330
15
100
AcDbEntity
 67
     1
  8
文字
  6
BYBLOCK
 62
     0
100
AcDbText
 10
37.25020936743055
 20
73.01882819621747
 30
0.0
 40
3.2
  1

 50
90.0
 41
0.625
  7
MSｺ_ｼｯｸ
100
AcDbText
  0
TEXT
  5
FCA5
330
15
100
AcDbEntity
 67
     1
  8
FRAME020
  6
CONTINUOUS
100
AcDbText
 10
126.6213117262079
 20
29.63926951973459
 30
0.0
 40
2.5
  1

 41
0.625
  7
MSｺ_ｼｯｸ
100
AcDbText
  0
TEXT
  5
12229
330
15
100
AcDbEntity
 67
     1
  8
0
100
AcDbText
 10
324.703280378293
 20
10.63168299257869
 30
0.0
 40
6.0
  1
ＳＥ－３１１９３
 41
1.1
100
AcDbText
  0
MTEXT
  5
1D601
330
15
100
AcDbEntity
 67
     1
  8
寸法線
100
AcDbMText
 10
237.0263772443641
 20
27.0692313696577
 30
0.0
 40
6.0
 41
155.3418484922604
 71
     1
 72
     5
  1
{\C7;τDISCﾓｰﾀ D250-100-F NMR-FEFBA2C-122A}
1001
ACAD
1000
MTEXTBEGIN
1070
    73
1070
     1
1070
    44
1040
1.0
1070
    74
1070
     0
1000
MTEXTEND
  0
ENDSEC
  0
SECTION
  2
OBJECTS
  0
DICTIONARY
  5
C
330
0
100
AcDbDictionary
  3
ACAD_GROUP
350
D
  3
ACAD_LAYOUT
350
DB2
  3
ACAD_MLINESTYLE
350
1B
  3
ACAD_PLOTSETTINGS
350
DB3
  3
ACAD_PLOTSTYLENAME
350
FB5B
  3
ACADDIM
350
1D587
  3
ACDBHEADERROUNDTRIPXREC
350
1D636
  3
ACDBVARIABLEDICTIONARY
350
106A6
  3
DWGPROPS
350
15EC9
1001
ACAD
1000
TREAT_AS_HARD
1070
     0
  0
DICTIONARY
  5
EFC6
330
18
100
AcDbDictionary
280
     1
  3
ACAD_LAYOUTSELFREF
360
1D658
  0
DICTIONARY
  5
EFC4
330
15
100
AcDbDictionary
280
     1
  3
ACAD_LAYOUTSELFREF
360
1D657
  0
DICTIONARY
  5
D
102
{ACAD_REACTORS
330
C
102
}
330
C
100
AcDbDictionary
  3
*A1
350
AC8A
  3
*A10
350
FCB8
  3
*A11
350
FC91
  3
*A12
350
1C4B4
  3
*A13
350
1C4A7
  3
*A14
350
1A2C3
  3
*A15
350
1A48D
  3
*A16
350
106B3
  3
*A17
350
ACBD
  3
*A18
350
FB6C
  3
*A19
350
1BF14
  3
*A2
350
FC95
  3
*A20
350
1C9C1
  3
*A21
350
1A4D9
  3
*A22
350
1B6E0
  3
*A23
350
AC9A
  3
*A24
350
1BF08
  3
*A25
350
1C9CA
  3
*A26
350
1C3ED
  3
*A27
350
FC9B
  3
*A28
350
1CFBB
  3
*A29
350
1BC2A
  3
*A3
350
1CFCD
  3
*A30
350
1CFD6
  3
*A31
350
1C09F
  3
*A32
350
1C4AC
  3
*A33
350
ACA1
  3
*A34
350
1C469
  3
*A35
350
1C488
  3
*A36
350
FB6B
  3
*A37
350
1BC08
  3
*A38
350
1A48C
  3
*A39
350
1A9FC
  3
*A4
350
1C541
  3
*A40
350
1C4BF
  3
*A41
350
1C9B8
  3
*A42
350
1BF10
  3
*A43
350
1C09E
  3
*A44
350
1CFC4
  3
*A45
350
1BC47
  3
*A46
350
106C7
  3
*A47
350
1BC29
  3
*A48
350
1BC07
  3
*A49
350
1C538
  3
*A5
350
ACB4
  3
*A50
350
ACA2
  3
*A51
350
1BF0C
  3
*A52
350
106C6
  3
*A53
350
FC9A
  3
*A54
350
1C44A
  3
*A55
350
106A5
  3
*A56
350
1C9AF
  3
*A57
350
FBFF
  3
*A58
350
1C52F
  3
*A59
350
1C526
  3
*A6
350
1C9D3
  3
*A7
350
ACAB
  3
*A8
350
1B6E1
  3
*A9
350
1C4B0
1001
ACAD
1000
TREAT_AS_HARD
1070
     0
  0
DICTIONARY
  5
DB2
102
{ACAD_REACTORS
330
C
102
}
330
C
100
AcDbDictionary
1001
ACAD
1000
TREAT_AS_HARD
1070
     0
  0
DICTIONARY
  5
1B
102
{ACAD_REACTORS
330
C
102
}
330
C
100
AcDbDictionary
  3
STANDARD
350
1C
1001
ACAD
1000
TREAT_AS_HARD
1070
     0
  0
DICTIONARY
  5
DB3
102
{ACAD_REACTORS
330
C
102
}
330
C
100
AcDbDictionary
1001
ACAD
1000
TREAT_AS_HARD
1070
     0
  0
ACDBDICTIONARYWDFLT
  5
FB5B
102
{ACAD_REACTORS
330
C
102
}
330
C
100
AcDbDictionary
281
     1
  3
Normal
350
FB5C
100
AcDbDictionaryWithDefault
340
FB5C
  0
XRECORD
  5
1D587
102
{ACAD_REACTORS
330
C
102
}
330
C
100
AcDbXrecord
 90
   990106
  3

 60
     0
 61
     0
 62
     4
 63
     4
 64
     1
 65
     0
 66
     0
 67
     3
 68
     1
 69
     0
 70
     0
 71
     0
 72
     0
 40
0.0
170
     2
340
1D590
  0
DICTIONARY
  5
1D636
102
{ACAD_REACTORS
330
C
102
}
330
C
100
AcDbDictionary
  3
CEPSNTYPE
350
1D640
  3
DIMSTYLEDATA
350
1D644
  3
FINGERPRINTGUID
350
1D641
  3
HYPERLINKBASE
350
1D639
  3
INSUNITS
350
1D63F
  3
LAYOUTDICT
350
1D63B
  3
LWETCUNION
350
1D63E
  3
PLOTSETDICT
350
1D63C
  3
PLOTSTYLNAMDICT
350
1D63D
  3
PSVPSCALE
350
1D643
  3
PUCSBASE
350
1D647
  3
PUCSORGBACK
350
1D64D
  3
PUCSORGBOTTOM
350
1D649
  3
PUCSORGFRONT
350
1D64C
  3
PUCSORGLEFT
350
1D64A
  3
PUCSORGRIGHT
350
1D64B
  3
PUCSORGTOP
350
1D648
  3
PUCSORTHOREF
350
1D645
  3
PUCSORTHOVIEW
350
1D646
  3
STYLESHEET
350
1D63A
  3
TSTACKALIGN
350
1D637
  3
TSTACKSIZE
350
1D638
  3
UCSBASE
350
1D650
  3
UCSORGBACK
350
1D656
  3
UCSORGBOTTOM
350
1D652
  3
UCSORGFRONT
350
1D655
  3
UCSORGLEFT
350
1D653
  3
UCSORGRIGHT
350
1D654
  3
UCSORGTOP
350
1D651
  3
UCSORTHOREF
350
1D64E
  3
UCSORTHOVIEW
350
1D64F
  3
VERSIONGUID
350
1D642
  0
DICTIONARY
  5
106A6
102
{ACAD_REACTORS
330
C
102
}
330
C
100
AcDbDictionary
  3
SORTENTS
350
106A7
  0
XRECORD
  5
15EC9
102
{ACAD_REACTORS
330
C
102
}
330
C
100
AcDbXrecord
  1
DWGPROPS COOKIE
  2

  3

  4

  6

  7

  8

  9

300
=
301
=
302
=
303
=
304
=
305
=
306
=
307
=
308
=
309
=
 40
12.65185717592592
 41
2451224.660162384
 42
2452395.660827315
  1

 90
        0
  0
XRECORD
  5
1D658
102
{ACAD_REACTORS
330
EFC6
102
}
330
EFC6
100
AcDbXrecord
340
18
  0
XRECORD
  5
1D657
102
{ACAD_REACTORS
330
EFC4
102
}
330
EFC4
100
AcDbXrecord
340
15
  0
GROUP
  5
AC8A
102
{ACAD_REACTORS
330
D
102
}
330
D
100
AcDbGroup
300

 70
     1
 71
     1
  0
GROUP
  5
FCB8
102
{ACAD_REACTORS
330
D
102
}
330
D
100
AcDbGroup
300

 70
     1
 71
     1
  0
GROUP
  5
FC91
102
{ACAD_REACTORS
330
D
102
}
330
D
100
AcDbGroup
300

 70
     1
 71
     1
  0
GROUP
  5
1C4B4
102
{ACAD_REACTORS
330
D
102
}
330
D
100
AcDbGroup
300

 70
     1
 71
     1
  0
GROUP
  5
1C4A7
102
{ACAD_REACTORS
330
D
102
}
330
D
100
AcDbGroup
300

 70
     1
 71
     1
340
1C489
340
1C48A
340
1C48B
340
1C48C
340
1C48D
340
1C48E
340
1C48F
340
1C490
340
1C491
340
1C492
340
1C493
340
1C494
340
1C495
340
1C496
340
1C497
340
1C498
340
1C499
340
1C49A
340
1C49B
340
1C49C
340
1C49D
340
1C49E
340
1C49F
340
1C4A0
340
1C4A1
340
1C4A2
340
1C4A3
340
1C4A4
340
1C4A5
340
1C4A6
  0
GROUP
  5
1A2C3
102
{ACAD_REACTORS
330
D
102
}
330
D
100
AcDbGroup
300

 70
     1
 71
     1
  0
GROUP
  5
1A48D
102
{ACAD_REACTORS
330
D
102
}
330
D
100
AcDbGroup
300

 70
     1
 71
     1
  0
GROUP
  5
106B3
102
{ACAD_REACTORS
330
D
102
}
330
D
100
AcDbGroup
300

 70
     1
 71
     1
  0
GROUP
  5
ACBD
102
{ACAD_REACTORS
330
D
102
}
330
D
100
AcDbGroup
300

 70
     1
 71
     1
  0
GROUP
  5
FB6C
102
{ACAD_REACTORS
330
D
102
}
330
D
100
AcDbGroup
300

 70
     1
 71
     1
  0
GROUP
  5
1BF14
102
{ACAD_REACTORS
330
D
102
}
330
D
100
AcDbGroup
300

 70
     1
 71
     1
  0
GROUP
  5
FC95
102
{ACAD_REACTORS
330
D
102
}
330
D
100
AcDbGroup
300

 70
     1
 71
     1
  0
GROUP
  5
1C9C1
102
{ACAD_REACTORS
330
D
102
}
330
D
100
AcDbGroup
300

 70
     1
 71
     1
340
1C9C0
340
1C9BD
340
1C9BB
340
1C9BA
340
1C9BE
340
1C9BC
340
1C9BF
340
1C9B9
  0
GROUP
  5
1A4D9
102
{ACAD_REACTORS
330
D
102
}
330
D
100
AcDbGroup
300

 70
     1
 71
     1
  0
GROUP
  5
1B6E0
102
{ACAD_REACTORS
330
D
102
}
330
D
100
AcDbGroup
300

 70
     1
 71
     1
  0
GROUP
  5
AC9A
102
{ACAD_REACTORS
330
D
102
}
330
D
100
AcDbGroup
300

 70
     1
 71
     1
  0
GROUP
  5
1BF08
102
{ACAD_REACTORS
330
D
102
}
330
D
100
AcDbGroup
300

 70
     1
 71
     1
  0
GROUP
  5
1C9CA
102
{ACAD_REACTORS
330
D
102
}
330
D
100
AcDbGroup
300

 70
     1
 71
     1
340
1C9C9
340
1C9C6
340
1C9C4
340
1C9C3
340
1C9C7
340
1C9C5
340
1C9C8
340
1C9C2
  0
GROUP
  5
1C3ED
102
{ACAD_REACTORS
330
D
102
}
330
D
100
AcDbGroup
300

 70
     1
 71
     1
  0
GROUP
  5
FC9B
102
{ACAD_REACTORS
330
D
102
}
330
D
100
AcDbGroup
300

 70
     1
 71
     1
  0
GROUP
  5
1CFBB
102
{ACAD_REACTORS
330
D
102
}
330
D
100
AcDbGroup
300

 70
     1
 71
     1
340
1CFB3
340
1CFBA
340
1CFB9
340
1CFB8
340
1CFB7
340
1CFB6
340
1CFB5
340
1CFB4
  0
GROUP
  5
1BC2A
102
{ACAD_REACTORS
330
D
102
}
330
D
100
AcDbGroup
300

 70
     1
 71
     1
  0
GROUP
  5
1CFCD
102
{ACAD_REACTORS
330
D
102
}
330
D
100
AcDbGroup
300

 70
     1
 71
     1
340
1CFC5
340
1CFCC
340
1CFC9
340
1CFC6
340
1CFC7
340
1CFC8
340
1CFCB
340
1CFCA
  0
GROUP
  5
1CFD6
102
{ACAD_REACTORS
330
D
102
}
330
D
100
AcDbGroup
300

 70
     1
 71
     1
340
1CFCE
340
1CFCF
340
1CFD0
340
1CFD1
340
1CFD2
340
1CFD3
340
1CFD4
340
1CFD5
  0
GROUP
  5
1C09F
102
{ACAD_REACTORS
330
D
102
}
330
D
100
AcDbGroup
300

 70
     1
 71
     1
  0
GROUP
  5
1C4AC
102
{ACAD_REACTORS
330
D
102
}
330
D
100
AcDbGroup
300

 70
     1
 71
     1
  0
GROUP
  5
ACA1
102
{ACAD_REACTORS
330
D
102
}
330
D
100
AcDbGroup
300

 70
     1
 71
     1
  0
GROUP
  5
1C469
102
{ACAD_REACTORS
330
D
102
}
330
D
100
AcDbGroup
300

 70
     1
 71
     1
340
1C44B
340
1C44C
340
1C44D
340
1C44E
340
1C44F
340
1C450
340
1C451
340
1C452
340
1C453
340
1C454
340
1C455
340
1C456
340
1C457
340
1C458
340
1C459
340
1C45A
340
1C45B
340
1C45C
340
1C45D
340
1C45E
340
1C45F
340
1C460
340
1C461
340
1C462
340
1C463
340
1C464
340
1C465
340
1C466
340
1C467
340
1C468
  0
GROUP
  5
1C488
102
{ACAD_REACTORS
330
D
102
}
330
D
100
AcDbGroup
300

 70
     1
 71
     1
340
1C46B
340
1C46C
340
1C46D
340
1C46A
340
1C46E
340
1C46F
340
1C470
340
1C471
340
1C472
340
1C473
340
1C474
340
1C475
340
1C476
340
1C477
340
1C478
340
1C479
340
1C47A
340
1C47B
340
1C47C
340
1C47D
340
1C47E
340
1C47F
340
1C480
340
1C481
340
1C482
340
1C483
340
1C484
340
1C485
340
1C486
340
1C487
  0
GROUP
  5
FB6B
102
{ACAD_REACTORS
330
D
102
}
330
D
100
AcDbGroup
300

 70
     1
 71
     1
  0
GROUP
  5
1BC08
102
{ACAD_REACTORS
330
D
102
}
330
D
100
AcDbGroup
300

 70
     1
 71
     1
  0
GROUP
  5
1A48C
102
{ACAD_REACTORS
330
D
102
}
330
D
100
AcDbGroup
300

 70
     1
 71
     1
  0
GROUP
  5
1A9FC
102
{ACAD_REACTORS
330
D
102
}
330
D
100
AcDbGroup
300

 70
     1
 71
     1
  0
GROUP
  5
1C541
102
{ACAD_REACTORS
330
D
102
}
330
D
100
AcDbGroup
300

 70
     1
 71
     1
  0
GROUP
  5
1C4BF
102
{ACAD_REACTORS
330
D
102
}
330
D
100
AcDbGroup
300

 70
     1
 71
     1
  0
GROUP
  5
1C9B8
102
{ACAD_REACTORS
330
D
102
}
330
D
100
AcDbGroup
300

 70
     1
 71
     1
340
1C9B7
340
1C9B4
340
1C9B2
340
1C9B1
340
1C9B5
340
1C9B3
340
1C9B6
340
1C9B0
  0
GROUP
  5
1BF10
102
{ACAD_REACTORS
330
D
102
}
330
D
100
AcDbGroup
300

 70
     1
 71
     1
  0
GROUP
  5
1C09E
102
{ACAD_REACTORS
330
D
102
}
330
D
100
AcDbGroup
300

 70
     1
 71
     1
  0
GROUP
  5
1CFC4
102
{ACAD_REACTORS
330
D
102
}
330
D
100
AcDbGroup
300

 70
     1
 71
     1
340
1CFBC
340
1CFBD
340
1CFBE
340
1CFBF
340
1CFC0
340
1CFC1
340
1CFC2
340
1CFC3
  0
GROUP
  5
1BC47
102
{ACAD_REACTORS
330
D
102
}
330
D
100
AcDbGroup
300

 70
     1
 71
     1
  0
GROUP
  5
106C7
102
{ACAD_REACTORS
330
D
102
}
330
D
100
AcDbGroup
300

 70
     1
 71
     1
  0
GROUP
  5
1BC29
102
{ACAD_REACTORS
330
D
102
}
330
D
100
AcDbGroup
300

 70
     1
 71
     1
  0
GROUP
  5
1BC07
102
{ACAD_REACTORS
330
D
102
}
330
D
100
AcDbGroup
300

 70
     1
 71
     1
  0
GROUP
  5
1C538
102
{ACAD_REACTORS
330
D
102
}
330
D
100
AcDbGroup
300

 70
     1
 71
     1
  0
GROUP
  5
ACB4
102
{ACAD_REACTORS
330
D
102
}
330
D
100
AcDbGroup
300

 70
     1
 71
     1
  0
GROUP
  5
ACA2
102
{ACAD_REACTORS
330
D
102
}
330
D
100
AcDbGroup
300

 70
     1
 71
     1
  0
GROUP
  5
1BF0C
102
{ACAD_REACTORS
330
D
102
}
330
D
100
AcDbGroup
300

 70
     1
 71
     1
  0
GROUP
  5
106C6
102
{ACAD_REACTORS
330
D
102
}
330
D
100
AcDbGroup
300

 70
     1
 71
     1
  0
GROUP
  5
FC9A
102
{ACAD_REACTORS
330
D
102
}
330
D
100
AcDbGroup
300

 70
     1
 71
     1
  0
GROUP
  5
1C44A
102
{ACAD_REACTORS
330
D
102
}
330
D
100
AcDbGroup
300

 70
     1
 71
     1
340
1C3D0
340
1C3D6
340
1C3D4
340
1C3D3
340
1C3EC
340
1C3E1
340
1C3DB
340
1C3E0
340
1C3DA
340
1C3D5
340
1C3D9
340
1C3D8
340
1C3D7
340
1C3DD
340
1C3DC
340
1C3EB
340
1C3E7
340
1C3E4
340
1C3D1
340
1C3E9
340
1C3E6
340
1C3DF
340
1C3DE
340
1C3D2
340
1C3E5
340
1C3E8
340
1C3E3
340
1C3E2
340
1C3CF
340
1C3EA
  0
GROUP
  5
106A5
102
{ACAD_REACTORS
330
D
102
}
330
D
100
AcDbGroup
300

 70
     1
 71
     1
  0
GROUP
  5
1C9AF
102
{ACAD_REACTORS
330
D
102
}
330
D
100
AcDbGroup
300

 70
     1
 71
     1
340
1C9AE
340
1C9AB
340
1C9A9
340
1C9A8
340
1C9AC
340
1C9AA
340
1C9AD
340
1C9A7
  0
GROUP
  5
FBFF
102
{ACAD_REACTORS
330
D
102
}
330
D
100
AcDbGroup
300

 70
     1
 71
     1
  0
GROUP
  5
1C52F
102
{ACAD_REACTORS
330
D
102
}
330
D
100
AcDbGroup
300

 70
     1
 71
     1
  0
GROUP
  5
1C526
102
{ACAD_REACTORS
330
D
102
}
330
D
100
AcDbGroup
300

 70
     1
 71
     1
340
1C512
340
1C50F
340
1C509
340
15988
340
1C50C
340
1C510
340
1C50B
340
1C511
  0
GROUP
  5
1C9D3
102
{ACAD_REACTORS
330
D
102
}
330
D
100
AcDbGroup
300

 70
     1
 71
     1
340
1C9D2
340
1C9CF
340
1C9CD
340
1C9CC
340
1C9D0
340
1C9CE
340
1C9D1
340
1C9CB
  0
GROUP
  5
ACAB
102
{ACAD_REACTORS
330
D
102
}
330
D
100
AcDbGroup
300

 70
     1
 71
     1
  0
GROUP
  5
1B6E1
102
{ACAD_REACTORS
330
D
102
}
330
D
100
AcDbGroup
300

 70
     1
 71
     1
  0
GROUP
  5
1C4B0
102
{ACAD_REACTORS
330
D
102
}
330
D
100
AcDbGroup
300

 70
     1
 71
     1
  0
MLINESTYLE
  5
1C
102
{ACAD_REACTORS
330
1B
102
}
330
1B
100
AcDbMlineStyle
  2
STANDARD
 70
     0
  3

 62
   256
 51
90.0
 52
90.0
 71
     2
 49
0.5
 62
   256
  6
BYLAYER
 49
-0.5
 62
   256
  6
BYLAYER
  0
ACDBPLACEHOLDER
  5
FB5C
102
{ACAD_REACTORS
330
FB5B
102
}
330
FB5B
100
AcDbPlaceHolder
280
     0
  0
XRECORD
  5
1D640
102
{ACAD_REACTORS
330
1D636
102
}
330
1D636
100
AcDbXrecord
 90
        0
  0
XRECORD
  5
1D644
102
{ACAD_REACTORS
330
1D636
102
}
330
1D636
100
AcDbXrecord
1000
DSTYLE
1002
{
1070
    79
 70
     2
1070
   179
 70
     2
1070
   341
340
1215D
1070
   342
340
1215D
1070
   343
340
1215D
1070
   344
340
15351
1070
   371
 70
    13
1070
   372
 70
    13
1002
}
  0
XRECORD
  5
1D641
102
{ACAD_REACTORS
330
1D636
102
}
330
1D636
100
AcDbXrecord
  1
{D14EE3FF-941A-415A-9907-344E0A80D794}
  0
XRECORD
  5
1D639
102
{ACAD_REACTORS
330
1D636
102
}
330
1D636
100
AcDbXrecord
  1

  0
XRECORD
  5
1D63F
102
{ACAD_REACTORS
330
1D636
102
}
330
1D636
100
AcDbXrecord
 90
        0
  0
XRECORD
  5
1D63B
102
{ACAD_REACTORS
330
1D636
102
}
330
1D636
100
AcDbXrecord
340
DB2
  0
XRECORD
  5
1D63E
102
{ACAD_REACTORS
330
1D636
102
}
330
1D636
100
AcDbXrecord
 90
    10269
  0
XRECORD
  5
1D63C
102
{ACAD_REACTORS
330
1D636
102
}
330
1D636
100
AcDbXrecord
340
DB3
  0
XRECORD
  5
1D63D
102
{ACAD_REACTORS
330
1D636
102
}
330
1D636
100
AcDbXrecord
340
FB5B
  0
XRECORD
  5
1D643
102
{ACAD_REACTORS
330
1D636
102
}
330
1D636
100
AcDbXrecord
 40
0.0
  0
XRECORD
  5
1D647
102
{ACAD_REACTORS
330
1D636
102
}
330
1D636
100
AcDbXrecord
340
0
  0
XRECORD
  5
1D64D
102
{ACAD_REACTORS
330
1D636
102
}
330
1D636
100
AcDbXrecord
 10
0.0
 20
0.0
 30
0.0
  0
XRECORD
  5
1D649
102
{ACAD_REACTORS
330
1D636
102
}
330
1D636
100
AcDbXrecord
 10
0.0
 20
0.0
 30
0.0
  0
XRECORD
  5
1D64C
102
{ACAD_REACTORS
330
1D636
102
}
330
1D636
100
AcDbXrecord
 10
0.0
 20
0.0
 30
0.0
  0
XRECORD
  5
1D64A
102
{ACAD_REACTORS
330
1D636
102
}
330
1D636
100
AcDbXrecord
 10
0.0
 20
0.0
 30
0.0
  0
XRECORD
  5
1D64B
102
{ACAD_REACTORS
330
1D636
102
}
330
1D636
100
AcDbXrecord
 10
0.0
 20
0.0
 30
0.0
  0
XRECORD
  5
1D648
102
{ACAD_REACTORS
330
1D636
102
}
330
1D636
100
AcDbXrecord
 10
0.0
 20
0.0
 30
0.0
  0
XRECORD
  5
1D645
102
{ACAD_REACTORS
330
1D636
102
}
330
1D636
100
AcDbXrecord
340
0
  0
XRECORD
  5
1D646
102
{ACAD_REACTORS
330
1D636
102
}
330
1D636
100
AcDbXrecord
 70
     0
  0
XRECORD
  5
1D63A
102
{ACAD_REACTORS
330
1D636
102
}
330
1D636
100
AcDbXrecord
  1

  0
XRECORD
  5
1D637
102
{ACAD_REACTORS
330
1D636
102
}
330
1D636
100
AcDbXrecord
 90
        1
  0
XRECORD
  5
1D638
102
{ACAD_REACTORS
330
1D636
102
}
330
1D636
100
AcDbXrecord
 90
       70
  0
XRECORD
  5
1D650
102
{ACAD_REACTORS
330
1D636
102
}
330
1D636
100
AcDbXrecord
340
0
  0
XRECORD
  5
1D656
102
{ACAD_REACTORS
330
1D636
102
}
330
1D636
100
AcDbXrecord
 10
0.0
 20
0.0
 30
0.0
  0
XRECORD
  5
1D652
102
{ACAD_REACTORS
330
1D636
102
}
330
1D636
100
AcDbXrecord
 10
0.0
 20
0.0
 30
0.0
  0
XRECORD
  5
1D655
102
{ACAD_REACTORS
330
1D636
102
}
330
1D636
100
AcDbXrecord
 10
0.0
 20
0.0
 30
0.0
  0
XRECORD
  5
1D653
102
{ACAD_REACTORS
330
1D636
102
}
330
1D636
100
AcDbXrecord
 10
0.0
 20
0.0
 30
0.0
  0
XRECORD
  5
1D654
102
{ACAD_REACTORS
330
1D636
102
}
330
1D636
100
AcDbXrecord
 10
0.0
 20
0.0
 30
0.0
  0
XRECORD
  5
1D651
102
{ACAD_REACTORS
330
1D636
102
}
330
1D636
100
AcDbXrecord
 10
0.0
 20
0.0
 30
0.0
  0
XRECORD
  5
1D64E
102
{ACAD_REACTORS
330
1D636
102
}
330
1D636
100
AcDbXrecord
340
0
  0
XRECORD
  5
1D64F
102
{ACAD_REACTORS
330
1D636
102
}
330
1D636
100
AcDbXrecord
 70
     0
  0
XRECORD
  5
1D642
102
{ACAD_REACTORS
330
1D636
102
}
330
1D636
100
AcDbXrecord
  1
{BBDF6A70-6638-4360-8F74-683A56860156}
  0
DICTIONARYVAR
  5
106A7
102
{ACAD_REACTORS
330
106A6
102
}
330
106A6
100
DictionaryVariables
280
     0
  1
96
  0
ENDSEC
  0
EOF
