  0
SECTION
  2
HEADER
  9
$ACADVER
  1
AC1014
  9
$ACADMAINTVER
 70
     9
  9
$DWGCODEPAGE
  3
ANSI_932
  9
$INSBASE
 10
0.0
 20
0.0
 30
0.0
  9
$EXTMIN
 10
65.55755524038864
 20
11.08433050106728
 30
0.0
  9
$EXTMAX
 10
758.1109227830896
 20
355.722111569838
 30
0.0
  9
$LIMMIN
 10
0.0
 20
0.0
  9
$LIMMAX
 10
420.0
 20
297.0
  9
$ORTHOMODE
 70
     0
  9
$REGENMODE
 70
     1
  9
$FILLMODE
 70
     1
  9
$QTEXTMODE
 70
     0
  9
$MIRRTEXT
 70
     0
  9
$DRAGMODE
 70
     2
  9
$LTSCALE
 40
20.0
  9
$OSMODE
 70
    37
  9
$ATTMODE
 70
     1
  9
$TEXTSIZE
 40
2.5
  9
$TRACEWID
 40
1.0
  9
$TEXTSTYLE
  7
STANDARD
  9
$CLAYER
  8
細線
  9
$CELTYPE
  6
BYLAYER
  9
$CECOLOR
 62
   256
  9
$CELTSCALE
 40
1.0
  9
$DELOBJ
 70
     1
  9
$DISPSILH
 70
     0
  9
$DIMSCALE
 40
2.0
  9
$DIMASZ
 40
2.0
  9
$DIMEXO
 40
0.0
  9
$DIMDLI
 40
5.0
  9
$DIMRND
 40
0.0005
  9
$DIMDLE
 40
0.0
  9
$DIMEXE
 40
1.0
  9
$DIMTP
 40
0.0
  9
$DIMTM
 40
0.000000001
  9
$DIMTXT
 40
3.2
  9
$DIMCEN
 40
0.0
  9
$DIMTSZ
 40
0.0
  9
$DIMTOL
 70
     0
  9
$DIMLIM
 70
     0
  9
$DIMTIH
 70
     0
  9
$DIMTOH
 70
     0
  9
$DIMSE1
 70
     0
  9
$DIMSE2
 70
     0
  9
$DIMTAD
 70
     1
  9
$DIMZIN
 70
     9
  9
$DIMBLK
  1
OPEN30
  9
$DIMASO
 70
     1
  9
$DIMSHO
 70
     1
  9
$DIMPOST
  1

  9
$DIMAPOST
  1

  9
$DIMALT
 70
     0
  9
$DIMALTD
 70
     4
  9
$DIMALTF
 40
0.0394
  9
$DIMLFAC
 40
1.0
  9
$DIMTOFL
 70
     1
  9
$DIMTVP
 40
0.0
  9
$DIMTIX
 70
     0
  9
$DIMSOXD
 70
     0
  9
$DIMSAH
 70
     0
  9
$DIMBLK1
  1

  9
$DIMBLK2
  1

  9
$DIMSTYLE
  2
STANDARD
  9
$DIMCLRD
 70
     4
  9
$DIMCLRE
 70
     4
  9
$DIMCLRT
 70
     2
  9
$DIMTFAC
 40
1.0
  9
$DIMGAP
 40
0.75
  9
$DIMJUST
 70
     0
  9
$DIMSD1
 70
     0
  9
$DIMSD2
 70
     0
  9
$DIMTOLJ
 70
     1
  9
$DIMTZIN
 70
     9
  9
$DIMALTZ
 70
     0
  9
$DIMALTTZ
 70
     0
  9
$DIMFIT
 70
     5
  9
$DIMUPT
 70
     0
  9
$DIMUNIT
 70
     2
  9
$DIMDEC
 70
     2
  9
$DIMTDEC
 70
     2
  9
$DIMALTU
 70
     8
  9
$DIMALTTD
 70
     4
  9
$DIMTXSTY
  7
STANDARD
  9
$DIMAUNIT
 70
     0
  9
$LUNITS
 70
     2
  9
$LUPREC
 70
     4
  9
$SKETCHINC
 40
1.0
  9
$FILLETRAD
 40
0.0
  9
$AUNITS
 70
     0
  9
$AUPREC
 70
     0
  9
$MENU
  1
.
  9
$ELEVATION
 40
0.0
  9
$PELEVATION
 40
0.0
  9
$THICKNESS
 40
0.0
  9
$LIMCHECK
 70
     0
  9
$BLIPMODE
 70
     0
  9
$CHAMFERA
 40
0.5
  9
$CHAMFERB
 40
0.5
  9
$CHAMFERC
 40
20.0
  9
$CHAMFERD
 40
0.0
  9
$SKPOLY
 70
     0
  9
$TDCREATE
 40
2451224.660162384
  9
$TDUPDATE
 40
2455573.643304757
  9
$TDINDWG
 40
15.1231080787
  9
$TDUSRTIMER
 40
15.1231075347
  9
$USRTIMER
 70
     1
  9
$ANGBASE
 50
0.0
  9
$ANGDIR
 70
     0
  9
$PDMODE
 70
     0
  9
$PDSIZE
 40
0.0
  9
$PLINEWID
 40
0.0
  9
$COORDS
 70
     0
  9
$SPLFRAME
 70
     0
  9
$SPLINETYPE
 70
     6
  9
$SPLINESEGS
 70
     8
  9
$ATTDIA
 70
     0
  9
$ATTREQ
 70
     1
  9
$HANDLING
 70
-16383
  9
$HANDSEED
  5
189D8
  9
$SURFTAB1
 70
     6
  9
$SURFTAB2
 70
     6
  9
$SURFTYPE
 70
     6
  9
$SURFU
 70
     6
  9
$SURFV
 70
     6
  9
$UCSNAME
  2

  9
$UCSORG
 10
0.0
 20
0.0
 30
0.0
  9
$UCSXDIR
 10
1.0
 20
0.0
 30
0.0
  9
$UCSYDIR
 10
0.0
 20
1.0
 30
0.0
  9
$PUCSNAME
  2

  9
$PUCSORG
 10
0.0
 20
0.0
 30
0.0
  9
$PUCSXDIR
 10
1.0
 20
0.0
 30
0.0
  9
$PUCSYDIR
 10
0.0
 20
1.0
 30
0.0
  9
$USERI1
 70
     0
  9
$USERI2
 70
     0
  9
$USERI3
 70
     0
  9
$USERI4
 70
     0
  9
$USERI5
 70
     0
  9
$USERR1
 40
0.0
  9
$USERR2
 40
0.0
  9
$USERR3
 40
0.0
  9
$USERR4
 40
0.0
  9
$USERR5
 40
0.0
  9
$WORLDVIEW
 70
     1
  9
$SHADEDGE
 70
     3
  9
$SHADEDIF
 70
    70
  9
$TILEMODE
 70
     0
  9
$MAXACTVP
 70
    48
  9
$PINSBASE
 10
0.0
 20
0.0
 30
0.0
  9
$PLIMCHECK
 70
     0
  9
$PEXTMIN
 10
0.0
 20
0.0
 30
0.0
  9
$PEXTMAX
 10
400.0
 20
288.0
 30
0.0
  9
$PLIMMIN
 10
-7.920883388244322
 20
-4.331585120883386
  9
$PLIMMAX
 10
418.1701216008359
 20
296.9388119024251
  9
$UNITMODE
 70
     0
  9
$VISRETAIN
 70
     1
  9
$PLINEGEN
 70
     0
  9
$PSLTSCALE
 70
     0
  9
$TREEDEPTH
 70
  3020
  9
$PICKSTYLE
 70
     0
  9
$CMLSTYLE
  2
STANDARD
  9
$CMLJUST
 70
     0
  9
$CMLSCALE
 40
20.0
  9
$PROXYGRAPHICS
 70
     1
  9
$MEASUREMENT
 70
     0
  0
ENDSEC
  0
SECTION
  2
CLASSES
  0
CLASS
  1
HATCH
  2
AcDbHatch
  3
AutoCAD 2000
 90
        0
280
     0
281
     1
  0
CLASS
  1
LWPOLYLINE
  2
AcDbPolyline
  3
AutoCAD 2000
 90
        0
280
     0
281
     1
  0
CLASS
  1
ACDBDICTIONARYWDFLT
  2
AcDbDictionaryWithDefault
  3
AutoCAD 2000
 90
        0
280
     0
281
     0
  0
CLASS
  1
ACDBPLACEHOLDER
  2
AcDbPlaceHolder
  3
AutoCAD 2000
 90
        0
280
     0
281
     0
  0
CLASS
  1
LAYOUT
  2
AcDbLayout
  3
AutoCAD 2000
 90
        0
280
     0
281
     0
  0
CLASS
  1
LONG_TRANSACTION
  2
AcDbLongTransaction
  3
AutoCAD 2000
 90
        0
280
     0
281
     0
  0
CLASS
  1
LWPOLYLINE
  2
AcDbPolyline
  3
AutoCAD 2000
 90
        0
280
     0
281
     1
  0
CLASS
  1
HATCH
  2
AcDbHatch
  3
AutoCAD 2000
 90
        0
280
     0
281
     1
  0
CLASS
  1
XRECORD
  2
AcDbXrecord
  3
AutoCAD 2000
 90
        0
280
     0
281
     0
  0
CLASS
  1
DICTIONARYVAR
  2
AcDbDictionaryVar
  3
AutoCAD 2000
 90
        0
280
     0
281
     0
  0
CLASS
  1
LONG_TRANSACTION
  2
AcDbLongTransaction
  3
AutoCAD 2000
 90
        0
280
     0
281
     0
  0
CLASS
  1
LWPOLYLINE
  2
AcDbPolyline
  3
AutoCAD 2000
 90
        0
280
     0
281
     1
  0
CLASS
  1
HATCH
  2
AcDbHatch
  3
AutoCAD 2000
 90
        0
280
     0
281
     1
  0
CLASS
  1
XRECORD
  2
AcDbXrecord
  3
AutoCAD 2000
 90
        0
280
     0
281
     0
  0
ENDSEC
  0
SECTION
  2
TABLES
  0
TABLE
  2
VPORT
  5
8
330
0
100
AcDbSymbolTable
 70
     2
  0
VPORT
  5
18991
330
8
100
AcDbSymbolTableRecord
100
AcDbViewportTableRecord
  2
*ACTIVE
 70
     0
 10
0.0
 20
0.0
 11
1.0
 21
1.0
 12
411.8183680775009
 22
183.4139956387882
 13
0.0
 23
0.0
 14
10.0
 24
10.0
 15
10.0
 25
10.0
 16
0.0
 26
0.0
 36
1.0
 17
0.0
 27
0.0
 37
0.0
 40
455.558054300503
 41
1.527918781725888
 42
50.0
 43
0.0
 44
0.0
 50
0.0
 51
0.0
 71
     0
 72
   100
 73
     1
 74
     0
 75
     0
 76
     0
 77
     0
 78
     0
  0
ENDTAB
  0
TABLE
  2
LTYPE
  5
5
330
0
100
AcDbSymbolTable
 70
     7
  0
LTYPE
  5
12
330
5
100
AcDbSymbolTableRecord
100
AcDbLinetypeTableRecord
  2
BYBLOCK
 70
     0
  3

 72
    65
 73
     0
 40
0.0
  0
LTYPE
  5
13
330
5
100
AcDbSymbolTableRecord
100
AcDbLinetypeTableRecord
  2
BYLAYER
 70
     0
  3

 72
    65
 73
     0
 40
0.0
  0
LTYPE
  5
14
330
5
100
AcDbSymbolTableRecord
100
AcDbLinetypeTableRecord
  2
CONTINUOUS
 70
     0
  3
Solid line
 72
    65
 73
     0
 40
0.0
  0
LTYPE
  5
126C
330
5
100
AcDbSymbolTableRecord
100
AcDbLinetypeTableRecord
  2
CENTER
 70
     0
  3
____ _ ____ _ ____ _ ____ _ ____ _ ____ _ ____
 72
    65
 73
     4
 40
2.0
 49
1.25
 74
     0
 49
-0.25
 74
     0
 49
0.25
 74
     0
 49
-0.25
 74
     0
  0
LTYPE
  5
126E
330
5
100
AcDbSymbolTableRecord
100
AcDbLinetypeTableRecord
  2
DASHDOT
 70
     0
  3
__ . __ . __ . __ . __ . __ . __ . __ . __ . __
 72
    65
 73
     4
 40
1.0
 49
0.5
 74
     0
 49
-0.25
 74
     0
 49
0.0
 74
     0
 49
-0.25
 74
     0
  0
LTYPE
  5
122DB
330
5
100
AcDbSymbolTableRecord
100
AcDbLinetypeTableRecord
  2
CENTER2
 70
     0
  3
Center (.5x) ___ _ ___ _ ___ _ ___ _ ___ _ ___
 72
    65
 73
     4
 40
1.125
 49
0.75
 74
     0
 49
-0.125
 74
     0
 49
0.125
 74
     0
 49
-0.125
 74
     0
  0
LTYPE
  5
152E7
330
5
100
AcDbSymbolTableRecord
100
AcDbLinetypeTableRecord
  2
HIDDEN2
 70
     0
  3
Hidden (.5x) _ _ _ _ _ _ _ _ _ _ _ _ _ _ _ _ _
 72
    65
 73
     2
 40
0.1875
 49
0.125
 74
     0
 49
-0.0625
 74
     0
  0
ENDTAB
  0
TABLE
  2
LAYER
  5
2
102
{ACAD_XDICTIONARY
360
187F4
102
}
330
0
100
AcDbSymbolTable
 70
    18
  0
LAYER
  5
E
330
2
100
AcDbSymbolTableRecord
100
AcDbLayerTableRecord
  2
0
 70
     2
 62
     7
  6
CONTINUOUS
  0
LAYER
  5
2C
330
2
100
AcDbSymbolTableRecord
100
AcDbLayerTableRecord
  2
M_VIEW
 70
     4
 62
    -1
  6
CONTINUOUS
  0
LAYER
  5
30
330
2
100
AcDbSymbolTableRecord
100
AcDbLayerTableRecord
  2
FRAME025
 70
     0
 62
     7
  6
CONTINUOUS
  0
LAYER
  5
12B
330
2
100
AcDbSymbolTableRecord
100
AcDbLayerTableRecord
  2
DEFPOINTS
 70
     4
 62
    -7
  6
CONTINUOUS
  0
LAYER
  5
651
330
2
100
AcDbSymbolTableRecord
100
AcDbLayerTableRecord
  2
FRAME020
 70
     0
 62
     7
  6
CONTINUOUS
  0
LAYER
  5
1271
330
2
100
AcDbSymbolTableRecord
100
AcDbLayerTableRecord
  2
A
 70
     0
 62
     7
  6
CONTINUOUS
  0
LAYER
  5
A9BB
330
2
100
AcDbSymbolTableRecord
100
AcDbLayerTableRecord
  2
文字
 70
     0
 62
     7
  6
CONTINUOUS
  0
LAYER
  5
122DD
330
2
100
AcDbSymbolTableRecord
100
AcDbLayerTableRecord
  2
細線
 70
     0
 62
     7
  6
CONTINUOUS
  0
LAYER
  5
122DF
330
2
100
AcDbSymbolTableRecord
100
AcDbLayerTableRecord
  2
CENTER
 70
     0
 62
     1
  6
CENTER
  0
LAYER
  5
122E1
330
2
100
AcDbSymbolTableRecord
100
AcDbLayerTableRecord
  2
中心線
 70
     0
 62
     7
  6
CENTER2
  0
LAYER
  5
152E8
330
2
100
AcDbSymbolTableRecord
100
AcDbLayerTableRecord
  2
破線
 70
     0
 62
     7
  6
HIDDEN2
  0
LAYER
  5
173BA
330
2
100
AcDbSymbolTableRecord
100
AcDbLayerTableRecord
  2
ｷｬｯﾌ_ﾎ_ﾙﾄ
 70
     0
 62
     7
  6
CONTINUOUS
  0
ENDTAB
  0
TABLE
  2
STYLE
  5
3
330
0
100
AcDbSymbolTable
 70
     6
  0
STYLE
  5
F
330
3
100
AcDbSymbolTableRecord
100
AcDbTextStyleTableRecord
  2
STANDARD
 70
     0
 40
0.0
 41
1.0
 50
0.0
 71
     0
 42
2.5
  3
isocp.shx
  4
bigfont.shx
  0
STYLE
  5
35
330
3
100
AcDbSymbolTableRecord
100
AcDbTextStyleTableRecord
  2
MSｺ_ｼｯｸ
 70
     0
 40
0.0
 41
1.0
 50
0.0
 71
     0
 42
5.0
  3
MS Gothic.ttf
  4

1001
ACAD
1000
MS Gothic
1071
    32817
  0
STYLE
  5
1275
330
3
100
AcDbSymbolTableRecord
100
AcDbTextStyleTableRecord
  2
BIGFONT
 70
     0
 40
2.0
 41
1.0
 50
0.0
 71
     0
 42
2.0
  3
txt.shx
  4
bigfont.shx
  0
ENDTAB
  0
TABLE
  2
VIEW
  5
6
330
0
100
AcDbSymbolTable
 70
     0
  0
ENDTAB
  0
TABLE
  2
UCS
  5
7
330
0
100
AcDbSymbolTable
 70
     0
  0
ENDTAB
  0
TABLE
  2
APPID
  5
9
330
0
100
AcDbSymbolTable
 70
     3
  0
APPID
  5
10
330
9
100
AcDbSymbolTableRecord
100
AcDbRegAppTableRecord
  2
ACAD
 70
     0
  0
APPID
  5
F013
330
9
100
AcDbSymbolTableRecord
100
AcDbRegAppTableRecord
  2
CONTENTBLOCKDESCRIPTION
 70
     0
  0
APPID
  5
F014
330
9
100
AcDbSymbolTableRecord
100
AcDbRegAppTableRecord
  2
CONTENTBLOCKICON
 70
     0
  0
ENDTAB
  0
TABLE
  2
DIMSTYLE
  5
A
330
0
100
AcDbSymbolTable
 70
     3
  0
DIMSTYLE
105
1D
330
A
100
AcDbSymbolTableRecord
100
AcDbDimStyleTableRecord
  2
STANDARD
 70
     0
  3

  4

  5

  6

  7

 40
1.0
 41
0.18
 42
0.0625
 43
0.38
 44
0.18
 45
0.0
 46
0.0
 47
0.0
 48
0.0
140
0.18
141
0.09
142
0.0
143
25.4
144
1.0
145
0.0
146
1.0
147
0.09
 71
     0
 72
     0
 73
     1
 74
     1
 75
     0
 76
     0
 77
     0
 78
     0
170
     0
171
     2
172
     0
173
     0
174
     0
175
     0
176
     0
177
     0
178
     0
270
     2
271
     4
272
     4
273
     2
274
     2
340
F
275
     0
280
     0
281
     0
282
     0
283
     1
284
     0
285
     0
286
     0
287
     3
288
     0
  0
ENDTAB
  0
TABLE
  2
BLOCK_RECORD
  5
1
330
0
100
AcDbSymbolTable
 70
    36
  0
BLOCK_RECORD
  5
18
102
{ACAD_XDICTIONARY
360
EFC6
102
}
330
1
100
AcDbSymbolTableRecord
100
AcDbBlockTableRecord
  2
*MODEL_SPACE
  0
BLOCK_RECORD
  5
15
102
{ACAD_XDICTIONARY
360
EFC4
102
}
330
1
100
AcDbSymbolTableRecord
100
AcDbBlockTableRecord
  2
*PAPER_SPACE
  0
BLOCK_RECORD
  5
115C
330
1
100
AcDbSymbolTableRecord
100
AcDbBlockTableRecord
  2
機械A4横_LBP
  0
BLOCK_RECORD
  5
1215D
330
1
100
AcDbSymbolTableRecord
100
AcDbBlockTableRecord
  2
_OPEN30
  0
ENDTAB
  0
ENDSEC
  0
SECTION
  2
BLOCKS
  0
BLOCK
  5
19
330
18
100
AcDbEntity
  8
0
100
AcDbBlockBegin
  2
*MODEL_SPACE
 70
     0
 10
0.0
 20
0.0
 30
0.0
  3
*MODEL_SPACE
  1

  0
ENDBLK
  5
1A
330
18
100
AcDbEntity
  8
0
100
AcDbBlockEnd
  0
BLOCK
  5
16
330
15
100
AcDbEntity
 67
     1
  8
0
100
AcDbBlockBegin
  2
*PAPER_SPACE
 70
     0
 10
0.0
 20
0.0
 30
0.0
  3
*PAPER_SPACE
  1

  0
ENDBLK
  5
17
330
15
100
AcDbEntity
 67
     1
  8
0
100
AcDbBlockEnd
  0
BLOCK
  5
115D
330
115C
100
AcDbEntity
  8
0
100
AcDbBlockBegin
  2
機械A4横_LBP
 70
     0
 10
0.0
 20
0.0
 30
0.0
  3
機械A4横_LBP
  1

  0
ENDBLK
  5
115E
330
115C
100
AcDbEntity
  8
0
100
AcDbBlockEnd
  0
BLOCK
  5
12161
330
1215D
100
AcDbEntity
  8
0
100
AcDbBlockBegin
  2
_OPEN30
 70
     0
 10
0.0
 20
0.0
 30
0.0
  3
_OPEN30
  1

  0
LINE
  5
1215E
330
1215D
100
AcDbEntity
  8
0
  6
BYBLOCK
 62
     0
100
AcDbLine
 10
-1.0
 20
0.26794919
 30
0.0
 11
0.0
 21
0.0
 31
0.0
  0
LINE
  5
1215F
330
1215D
100
AcDbEntity
  8
0
  6
BYBLOCK
 62
     0
100
AcDbLine
 10
0.0
 20
0.0
 30
0.0
 11
-1.0
 21
-0.26794919
 31
0.0
  0
LINE
  5
12160
330
1215D
100
AcDbEntity
  8
0
  6
BYBLOCK
 62
     0
100
AcDbLine
 10
0.0
 20
0.0
 30
0.0
 11
-1.0
 21
0.0
 31
0.0
  0
ENDBLK
  5
12162
330
1215D
100
AcDbEntity
  8
0
100
AcDbBlockEnd
  0
ENDSEC
  0
SECTION
  2
ENTITIES
  0
INSERT
  5
1160
330
18
100
AcDbEntity
  8
FRAME025
100
AcDbBlockReference
  2
機械A4横_LBP
 10
98.00059629174576
 20
104.43790435724
 30
0.0
  0
MTEXT
  5
1405
330
18
100
AcDbEntity
  8
0
  6
DASHDOT
100
AcDbMText
 10
195.6827264100239
 20
420.5785054452221
 30
0.0
 40
1.0
 41
2.0
 71
     1
 72
     5
  1

  7
BIGFONT
1001
ACAD
1000
MTEXTBEGIN
1070
    73
1070
     1
1070
    44
1040
1.0
1070
    74
1070
     0
1000
MTEXTEND
1000
MTEXTBEGIN
1070
    73
1070
     1
1070
    44
1040
1.0
1070
    74
1070
     0
1000
MTEXTEND
  0
MTEXT
  5
1406
330
18
100
AcDbEntity
  8
0
  6
CENTER
100
AcDbMText
 10
433.3606673541956
 20
313.7890106174461
 30
0.0
 40
2.0
 41
15.6417
 71
     1
 72
     5
  1

  7
BIGFONT
1001
ACAD
1000
MTEXTBEGIN
1070
    73
1070
     1
1070
    44
1040
1.0
1070
    74
1070
     0
1000
MTEXTEND
1000
MTEXTBEGIN
1070
    73
1070
     1
1070
    44
1040
1.0
1070
    74
1070
     0
1000
MTEXTEND
  0
MTEXT
  5
1407
330
18
100
AcDbEntity
  8
0
100
AcDbMText
 10
107.7723901704324
 20
212.8564838730205
 30
0.0
 40
2.0
 41
0.0
 71
     1
 72
     5
  1

1001
ACAD
1000
MTEXTBEGIN
1070
    73
1070
     1
1070
    44
1040
1.0
1070
    74
1070
     0
1000
MTEXTEND
1000
MTEXTBEGIN
1070
    73
1070
     1
1070
    44
1040
1.0
1070
    74
1070
     0
1000
MTEXTEND
  0
MTEXT
  5
1408
330
18
100
AcDbEntity
  8
0
100
AcDbMText
 10
152.1718819235825
 20
244.48796746601
 30
0.0
 40
2.0
 41
10.1453
 71
     1
 72
     5
  1

 11
-0.0000000000000002
 21
-1.0
 31
0.0
1001
ACAD
1000
MTEXTBEGIN
1070
    73
1070
     1
1070
    44
1040
1.0
1070
    74
1070
     0
1000
MTEXTEND
1000
MTEXTBEGIN
1070
    73
1070
     1
1070
    44
1040
1.0
1070
    74
1070
     0
1000
MTEXTEND
  0
MTEXT
  5
142F
330
18
100
AcDbEntity
  8
0
  6
BYBLOCK
100
AcDbMText
 10
187.9513799082503
 20
319.2674780082993
 30
0.0
 40
2.0
 41
0.0
 71
     7
 72
     5
  1

 11
0.0000000000000001
 21
1.0
 31
0.0
1001
ACAD
1000
MTEXTBEGIN
1070
    73
1070
     1
1070
    44
1040
1.0
1070
    74
1070
     0
1000
MTEXTEND
1000
MTEXTBEGIN
1070
    73
1070
     1
1070
    44
1040
1.0
1070
    74
1070
     0
1000
MTEXTEND
  0
MTEXT
  5
1430
330
18
100
AcDbEntity
  8
0
  6
BYBLOCK
100
AcDbMText
 10
152.4859915450974
 20
330.0607863667166
 30
0.0
 40
2.0
 41
0.0
 71
     4
 72
     5
  1

 11
-0.0000000000000002
 21
-1.0
 31
0.0
1001
ACAD
1000
MTEXTBEGIN
1070
    73
1070
     1
1070
    44
1040
1.0
1070
    74
1070
     0
1000
MTEXTEND
1000
MTEXTBEGIN
1070
    73
1070
     1
1070
    44
1040
1.0
1070
    74
1070
     0
1000
MTEXTEND
  0
MTEXT
  5
1532
330
18
100
AcDbEntity
  8
0
  6
DASHDOT
100
AcDbMText
 10
195.6828134149741
 20
420.5785054452221
 30
0.0
 40
1.0
 41
2.0
 71
     1
 72
     5
  1

  7
BIGFONT
1001
ACAD
1000
MTEXTBEGIN
1070
    73
1070
     1
1070
    44
1040
1.0
1070
    74
1070
     0
1000
MTEXTEND
1000
MTEXTBEGIN
1070
    73
1070
     1
1070
    44
1040
1.0
1070
    74
1070
     0
1000
MTEXTEND
  0
MTEXT
  5
1533
330
18
100
AcDbEntity
  8
0
  6
CENTER
100
AcDbMText
 10
433.3607543591459
 20
313.7890106174461
 30
0.0
 40
2.0
 41
15.6417
 71
     1
 72
     5
  1

  7
BIGFONT
1001
ACAD
1000
MTEXTBEGIN
1070
    73
1070
     1
1070
    44
1040
1.0
1070
    74
1070
     0
1000
MTEXTEND
1000
MTEXTBEGIN
1070
    73
1070
     1
1070
    44
1040
1.0
1070
    74
1070
     0
1000
MTEXTEND
  0
MTEXT
  5
1534
330
18
100
AcDbEntity
  8
0
100
AcDbMText
 10
107.7724771753828
 20
212.8564838730205
 30
0.0
 40
2.0
 41
0.0
 71
     1
 72
     5
  1

1001
ACAD
1000
MTEXTBEGIN
1070
    73
1070
     1
1070
    44
1040
1.0
1070
    74
1070
     0
1000
MTEXTEND
1000
MTEXTBEGIN
1070
    73
1070
     1
1070
    44
1040
1.0
1070
    74
1070
     0
1000
MTEXTEND
  0
MTEXT
  5
1535
330
18
100
AcDbEntity
  8
0
100
AcDbMText
 10
152.1719689285329
 20
244.48796746601
 30
0.0
 40
2.0
 41
10.1453
 71
     1
 72
     5
  1

 11
-0.0000000000000002
 21
-1.0
 31
0.0
1001
ACAD
1000
MTEXTBEGIN
1070
    73
1070
     1
1070
    44
1040
1.0
1070
    74
1070
     0
1000
MTEXTEND
1000
MTEXTBEGIN
1070
    73
1070
     1
1070
    44
1040
1.0
1070
    74
1070
     0
1000
MTEXTEND
  0
MTEXT
  5
155C
330
18
100
AcDbEntity
  8
0
  6
BYBLOCK
100
AcDbMText
 10
187.9514669132005
 20
319.2674780082993
 30
0.0
 40
2.0
 41
0.0
 71
     7
 72
     5
  1

 11
0.0000000000000001
 21
1.0
 31
0.0
1001
ACAD
1000
MTEXTBEGIN
1070
    73
1070
     1
1070
    44
1040
1.0
1070
    74
1070
     0
1000
MTEXTEND
1000
MTEXTBEGIN
1070
    73
1070
     1
1070
    44
1040
1.0
1070
    74
1070
     0
1000
MTEXTEND
  0
MTEXT
  5
155D
330
18
100
AcDbEntity
  8
0
  6
BYBLOCK
100
AcDbMText
 10
152.4860785500478
 20
330.0607863667166
 30
0.0
 40
2.0
 41
0.0
 71
     4
 72
     5
  1

 11
-0.0000000000000002
 21
-1.0
 31
0.0
1001
ACAD
1000
MTEXTBEGIN
1070
    73
1070
     1
1070
    44
1040
1.0
1070
    74
1070
     0
1000
MTEXTEND
1000
MTEXTBEGIN
1070
    73
1070
     1
1070
    44
1040
1.0
1070
    74
1070
     0
1000
MTEXTEND
  0
TEXT
  5
2279
330
18
100
AcDbEntity
  8
A
100
AcDbText
 10
-5.818810373203803
 20
312.0637567728283
 30
0.0
 40
3.524999999999999
  1
�    
100
AcDbText
  0
TEXT
  5
2283
330
18
100
AcDbEntity
  8
A
100
AcDbText
 10
-153.7439103235753
 20
-117.903263345534
 30
0.0
 40
2.5
  1

 41
0.5
  7
MSｺ_ｼｯｸ
100
AcDbText
  0
TEXT
  5
2293
330
18
100
AcDbEntity
  8
A
100
AcDbText
 10
-145.9189103235753
 20
-117.903263345534
 30
0.0
 40
2.5
  1

  7
MSｺ_ｼｯｸ
100
AcDbText
  0
LINE
  5
13B02
330
18
100
AcDbEntity
  8
破線
100
AcDbLine
 10
369.303264180937
 20
165.4460664683583
 30
0.0
 11
426.303264180937
 21
165.4460664683583
 31
0.0
  0
LINE
  5
13B03
330
18
100
AcDbEntity
  8
破線
100
AcDbLine
 10
369.303264180937
 20
200.4460664683583
 30
0.0
 11
426.303264180937
 21
200.4460664683586
 31
0.0
  0
LINE
  5
13B07
330
18
100
AcDbEntity
  8
0
100
AcDbLine
 10
375.3032641809348
 20
271.8460664683576
 30
0.0
 11
407.8032641809371
 21
271.8460664683578
 31
0.0
  0
LINE
  5
13B08
330
18
100
AcDbEntity
  8
中心線
100
AcDbLine
 10
364.8925597987446
 20
182.9460664683583
 30
0.0
 11
456.8710553921357
 21
182.9460664683583
 31
0.0
  0
LINE
  5
13B09
330
18
100
AcDbEntity
  8
0
100
AcDbLine
 10
375.3032626069952
 20
94.04606646835707
 30
0.0
 11
407.8032641809371
 21
94.04606646835786
 31
0.0
  0
LINE
  5
13BAD
330
18
100
AcDbEntity
  8
0
100
AcDbLine
 10
372.3032641809361
 20
128.9460664683582
 30
0.0
 11
372.3032641809403
 21
182.9460664683578
 31
0.0
  0
LINE
  5
13BAF
330
18
100
AcDbEntity
  8
0
100
AcDbLine
 10
374.8032641809368
 20
94.04606646835722
 30
0.0
 11
374.8032641809366
 21
182.9460664683575
 31
0.0
  0
LINE
  5
13BB0
330
18
100
AcDbEntity
  8
0
100
AcDbLine
 10
373.6032641809369
 20
94.04606561001093
 30
0.0
 11
373.603264180938
 21
182.9460664683578
 31
0.0
  0
LINE
  5
13BB5
330
18
100
AcDbEntity
  8
0
100
AcDbLine
 10
373.6032641809369
 20
94.04606646835722
 30
0.0
 11
374.8032641809366
 21
94.04606646835722
 31
0.0
  0
LINE
  5
13BB6
330
18
100
AcDbEntity
  8
0
100
AcDbLine
 10
372.3032641809368
 20
128.9460664683582
 30
0.0
 11
373.6032641809373
 21
128.9460664683585
 31
0.0
  0
LINE
  5
13BC2
330
18
100
AcDbEntity
  8
0
100
AcDbLine
 10
369.8032641809368
 20
134.9503159005416
 30
0.0
 11
372.3032641809368
 21
134.9503159005416
 31
0.0
  0
LINE
  5
13BCA
330
18
100
AcDbEntity
  8
0
100
AcDbLine
 10
374.8032641809366
 20
271.3460664683572
 30
0.0
 11
375.3032641809368
 21
271.8460664683572
 31
0.0
  0
LINE
  5
13BCC
330
18
100
AcDbEntity
  8
0
100
AcDbLine
 10
374.8032641809366
 20
182.9460664683578
 30
0.0
 11
374.8032641809369
 21
271.8460664683579
 31
0.0
  0
LINE
  5
13BCD
330
18
100
AcDbEntity
  8
0
100
AcDbLine
 10
373.6032641809369
 20
182.9460664683575
 30
0.0
 11
373.6032641809369
 21
271.8460664683576
 31
0.0
  0
LINE
  5
13BCF
330
18
100
AcDbEntity
  8
0
100
AcDbLine
 10
372.3032641809368
 20
236.9460664683582
 30
0.0
 11
372.3032641809368
 21
182.9460664683578
 31
0.0
  0
LINE
  5
13BDA
330
18
100
AcDbEntity
  8
0
100
AcDbLine
 10
372.3032641809368
 20
236.9460664683582
 30
0.0
 11
373.6032641809369
 21
236.9460664683582
 31
0.0
  0
LINE
  5
13BDD
330
18
100
AcDbEntity
  8
0
100
AcDbLine
 10
369.8032641809368
 20
230.9518264491305
 30
0.0
 11
372.3032641809368
 21
230.9518264491305
 31
0.0
  0
LINE
  5
13BE1
330
18
100
AcDbEntity
  8
0
100
AcDbLine
 10
373.6032641809369
 20
271.8460664683576
 30
0.0
 11
374.8032641809369
 21
271.8460664683579
 31
0.0
  0
LINE
  5
13BEB
330
18
100
AcDbEntity
  8
中心線
100
AcDbLine
 10
663.1109227830895
 20
87.94606646835836
 30
0.0
 11
663.1109227830895
 21
277.9460664683583
 31
0.0
  0
LINE
  5
13C1B
330
18
100
AcDbEntity
  8
0
100
AcDbLine
 10
426.303264180937
 20
271.3460666111114
 30
0.0
 11
426.303264180937
 21
94.54606632560517
 31
0.0
  0
LINE
  5
13C1F
330
18
100
AcDbEntity
  8
0
100
AcDbLine
 10
438.303264180937
 20
154.9182024233582
 30
0.0
 11
444.3032641809367
 21
154.9182024233582
 31
0.0
  0
LINE
  5
13C20
330
18
100
AcDbEntity
  8
0
100
AcDbLine
 10
438.303264180937
 20
156.4372398268108
 30
0.0
 11
444.3032641809367
 21
156.4372398268108
 31
0.0
  0
LINE
  5
13C21
330
18
100
AcDbEntity
  8
0
100
AcDbLine
 10
438.303264180937
 20
160.9460664683586
 30
0.0
 11
444.3032641809367
 21
160.9460664683586
 31
0.0
  0
LINE
  5
13C22
330
18
100
AcDbEntity
  8
0
100
AcDbLine
 10
438.303264180937
 20
139.9460664683585
 30
0.0
 11
444.3032641809366
 21
139.9460664683585
 31
0.0
  0
LINE
  5
13C23
330
18
100
AcDbEntity
  8
0
100
AcDbLine
 10
444.3032641809367
 20
144.4548931099066
 30
0.0
 11
438.303264180937
 21
144.4548931099066
 31
0.0
  0
LINE
  5
13C24
330
18
100
AcDbEntity
  8
0
100
AcDbLine
 10
444.3032641809367
 20
145.9739305133589
 30
0.0
 11
438.303264180937
 21
145.9739305133589
 31
0.0
  0
LINE
  5
13C26
330
18
100
AcDbEntity
  8
0
100
AcDbLine
 10
435.3032641809368
 20
159.9460664683586
 30
0.0
 11
438.303264180937
 21
159.9460664683586
 31
0.0
  0
LINE
  5
13C27
330
18
100
AcDbEntity
  8
0
100
AcDbLine
 10
435.3032641809368
 20
140.9460664683585
 30
0.0
 11
438.303264180937
 21
140.9460664683585
 31
0.0
  0
LINE
  5
13C28
330
18
100
AcDbEntity
  8
0
100
AcDbLine
 10
433.303264180937
 20
157.8460664683588
 30
0.0
 11
435.3032641809368
 21
157.8460664683588
 31
0.0
  0
LINE
  5
13C29
330
18
100
AcDbEntity
  8
0
100
AcDbLine
 10
430.3032641809373
 20
160.9460664683586
 30
0.0
 11
433.303264180937
 21
160.9460664683586
 31
0.0
  0
LINE
  5
13C2A
330
18
100
AcDbEntity
  8
0
100
AcDbLine
 10
429.303264180937
 20
159.4460664683585
 30
0.0
 11
430.3032641809373
 21
159.4460664683585
 31
0.0
  0
LINE
  5
13C2B
330
18
100
AcDbEntity
  8
0
100
AcDbLine
 10
430.3032641809373
 20
154.9182024233582
 30
0.0
 11
433.303264180937
 21
154.9182024233582
 31
0.0
  0
LINE
  5
13C2C
330
18
100
AcDbEntity
  8
0
100
AcDbLine
 10
430.3032641809373
 20
156.4372398268108
 30
0.0
 11
433.303264180937
 21
156.4372398268108
 31
0.0
  0
LINE
  5
13C2D
330
18
100
AcDbEntity
  8
0
100
AcDbLine
 10
430.3032641809373
 20
139.9460664683585
 30
0.0
 11
433.303264180937
 21
139.9460664683585
 31
0.0
  0
LINE
  5
13C2E
330
18
100
AcDbEntity
  8
0
100
AcDbLine
 10
433.303264180937
 20
144.4548931099066
 30
0.0
 11
430.3032641809373
 21
144.4548931099066
 31
0.0
  0
LINE
  5
13C2F
330
18
100
AcDbEntity
  8
0
100
AcDbLine
 10
433.303264180937
 20
143.0460664683589
 30
0.0
 11
435.3032641809368
 21
143.0460664683589
 31
0.0
  0
LINE
  5
13C30
330
18
100
AcDbEntity
  8
0
100
AcDbLine
 10
429.303264180937
 20
141.4460664683585
 30
0.0
 11
430.3032641809377
 21
141.4460664683585
 31
0.0
  0
LINE
  5
13C31
330
18
100
AcDbEntity
  8
0
100
AcDbLine
 10
433.303264180937
 20
145.9739305133589
 30
0.0
 11
430.3032641809373
 21
145.9739305133589
 31
0.0
  0
LINE
  5
13C32
330
18
100
AcDbEntity
  8
0
100
AcDbLine
 10
433.303264180937
 20
160.9460664683586
 30
0.0
 11
433.303264180937
 21
139.9460664683585
 31
0.0
  0
LINE
  5
13C33
330
18
100
AcDbEntity
  8
0
100
AcDbLine
 10
435.3032641809368
 20
140.9460664683585
 30
0.0
 11
435.3032641809368
 21
159.9460664683586
 31
0.0
  0
LINE
  5
13C34
330
18
100
AcDbEntity
  8
0
100
AcDbLine
 10
430.3032641809373
 20
139.9460664683585
 30
0.0
 11
430.3032641809373
 21
160.9460664683586
 31
0.0
  0
LINE
  5
13C35
330
18
100
AcDbEntity
  8
0
100
AcDbLine
 10
438.303264180937
 20
160.9460664683586
 30
0.0
 11
438.303264180937
 21
139.9460664683585
 31
0.0
  0
LINE
  5
13C38
330
18
100
AcDbEntity
  8
0
100
AcDbLine
 10
444.3032641809367
 20
156.4372398268108
 30
0.0
 11
444.3032641809367
 21
154.9182024233582
 31
0.0
  0
LINE
  5
13C39
330
18
100
AcDbEntity
  8
0
100
AcDbLine
 10
444.3032641809366
 20
160.9460664683586
 30
0.0
 11
448.8032641809367
 21
155.6746378969307
 31
0.0
  0
ARC
  5
13C3A
330
18
100
AcDbEntity
  8
0
100
AcDbCircle
 10
436.3294676633671
 20
160.6449816549484
 30
0.0
 40
9.015903847971632
100
AcDbArc
 50
332.1795611441608
 51
354.4603666814936
  0
LINE
  5
13C3B
330
18
100
AcDbEntity
  8
0
100
AcDbLine
 10
444.3032641809367
 20
145.9739305133589
 30
0.0
 11
444.3032641809367
 21
144.4548931099066
 31
0.0
  0
LINE
  5
13C3C
330
18
100
AcDbEntity
  8
0
100
AcDbLine
 10
444.3032641809366
 20
139.9460664683585
 30
0.0
 11
448.8032641809367
 21
145.2174950397863
 31
0.0
  0
ARC
  5
13C3D
330
18
100
AcDbEntity
  8
0
100
AcDbCircle
 10
436.3294676633671
 20
140.2471512817687
 30
0.0
 40
9.015903847971632
100
AcDbArc
 50
5.539633318506221
 51
27.82043885583909
  0
LINE
  5
13C3E
330
18
100
AcDbEntity
  8
0
100
AcDbLine
 10
445.3032641809368
 20
159.7746378969295
 30
0.0
 11
445.303264180937
 21
141.1174950397871
 31
0.0
  0
LINE
  5
13C3F
330
18
100
AcDbEntity
  8
0
100
AcDbLine
 10
448.8032641809367
 20
155.6746378969307
 30
0.0
 11
448.8032641809367
 21
145.2174950397863
 31
0.0
  0
ARC
  5
13C40
330
18
100
AcDbEntity
  8
0
100
AcDbCircle
 10
434.8032641809362
 20
150.4460664683583
 30
0.0
 40
10.50000000000042
100
AcDbArc
 50
334.7912347032378
 51
25.20876529676207
  0
LINE
  5
13C62
330
18
100
AcDbEntity
  8
0
100
AcDbLine
 10
438.303264180937
 20
219.918202423358
 30
0.0
 11
444.3032641809367
 21
219.918202423358
 31
0.0
  0
LINE
  5
13C63
330
18
100
AcDbEntity
  8
0
100
AcDbLine
 10
438.303264180937
 20
221.4372398268106
 30
0.0
 11
444.3032641809367
 21
221.4372398268106
 31
0.0
  0
LINE
  5
13C64
330
18
100
AcDbEntity
  8
0
100
AcDbLine
 10
438.303264180937
 20
225.9460664683583
 30
0.0
 11
444.3032641809367
 21
225.9460664683583
 31
0.0
  0
LINE
  5
13C65
330
18
100
AcDbEntity
  8
0
100
AcDbLine
 10
438.303264180937
 20
204.9460664683583
 30
0.0
 11
444.3032641809366
 21
204.9460664683583
 31
0.0
  0
LINE
  5
13C66
330
18
100
AcDbEntity
  8
0
100
AcDbLine
 10
444.3032641809367
 20
210.9739305133586
 30
0.0
 11
438.303264180937
 21
210.9739305133586
 31
0.0
  0
LINE
  5
13C67
330
18
100
AcDbEntity
  8
0
100
AcDbLine
 10
444.3032641809367
 20
209.4548931099063
 30
0.0
 11
438.303264180937
 21
209.4548931099063
 31
0.0
  0
LINE
  5
13C69
330
18
100
AcDbEntity
  8
0
100
AcDbLine
 10
435.3032641809368
 20
224.9460664683583
 30
0.0
 11
438.303264180937
 21
224.9460664683583
 31
0.0
  0
LINE
  5
13C6A
330
18
100
AcDbEntity
  8
0
100
AcDbLine
 10
435.3032641809368
 20
205.9460664683583
 30
0.0
 11
438.303264180937
 21
205.9460664683583
 31
0.0
  0
LINE
  5
13C6B
330
18
100
AcDbEntity
  8
0
100
AcDbLine
 10
430.3032641809373
 20
219.918202423358
 30
0.0
 11
433.303264180937
 21
219.918202423358
 31
0.0
  0
LINE
  5
13C6C
330
18
100
AcDbEntity
  8
0
100
AcDbLine
 10
430.3032641809373
 20
221.4372398268106
 30
0.0
 11
433.303264180937
 21
221.4372398268106
 31
0.0
  0
LINE
  5
13C6D
330
18
100
AcDbEntity
  8
0
100
AcDbLine
 10
433.303264180937
 20
222.846066468358
 30
0.0
 11
435.3032641809368
 21
222.846066468358
 31
0.0
  0
LINE
  5
13C6E
330
18
100
AcDbEntity
  8
0
100
AcDbLine
 10
430.3032641809373
 20
225.9460664683583
 30
0.0
 11
433.303264180937
 21
225.9460664683583
 31
0.0
  0
LINE
  5
13C6F
330
18
100
AcDbEntity
  8
0
100
AcDbLine
 10
429.303264180937
 20
224.4460664683582
 30
0.0
 11
430.3032641809373
 21
224.4460664683582
 31
0.0
  0
LINE
  5
13C70
330
18
100
AcDbEntity
  8
0
100
AcDbLine
 10
433.303264180937
 20
209.4548931099063
 30
0.0
 11
430.3032641809373
 21
209.4548931099063
 31
0.0
  0
LINE
  5
13C71
330
18
100
AcDbEntity
  8
0
100
AcDbLine
 10
433.303264180937
 20
208.0460664683578
 30
0.0
 11
435.3032641809368
 21
208.0460664683578
 31
0.0
  0
LINE
  5
13C72
330
18
100
AcDbEntity
  8
0
100
AcDbLine
 10
433.303264180937
 20
210.9739305133586
 30
0.0
 11
430.3032641809373
 21
210.9739305133586
 31
0.0
  0
LINE
  5
13C73
330
18
100
AcDbEntity
  8
0
100
AcDbLine
 10
430.3032641809373
 20
204.9460664683583
 30
0.0
 11
433.303264180937
 21
204.9460664683583
 31
0.0
  0
LINE
  5
13C74
330
18
100
AcDbEntity
  8
0
100
AcDbLine
 10
429.303264180937
 20
206.4460664683583
 30
0.0
 11
430.3032641809377
 21
206.4460664683583
 31
0.0
  0
LINE
  5
13C75
330
18
100
AcDbEntity
  8
0
100
AcDbLine
 10
433.303264180937
 20
225.9460664683583
 30
0.0
 11
433.303264180937
 21
204.9460664683583
 31
0.0
  0
LINE
  5
13C76
330
18
100
AcDbEntity
  8
0
100
AcDbLine
 10
435.3032641809368
 20
224.9460664683583
 30
0.0
 11
435.3032641809368
 21
205.9460664683583
 31
0.0
  0
LINE
  5
13C77
330
18
100
AcDbEntity
  8
0
100
AcDbLine
 10
430.3032641809373
 20
204.9460664683583
 30
0.0
 11
430.3032641809373
 21
225.9460664683583
 31
0.0
  0
LINE
  5
13C78
330
18
100
AcDbEntity
  8
0
100
AcDbLine
 10
438.303264180937
 20
225.9460664683583
 30
0.0
 11
438.303264180937
 21
204.9460664683583
 31
0.0
  0
LINE
  5
13C7B
330
18
100
AcDbEntity
  8
0
100
AcDbLine
 10
444.3032641809366
 20
225.9460664683583
 30
0.0
 11
448.8032641809367
 21
220.6746378969305
 31
0.0
  0
LINE
  5
13C7C
330
18
100
AcDbEntity
  8
0
100
AcDbLine
 10
444.3032641809367
 20
221.4372398268106
 30
0.0
 11
444.3032641809367
 21
219.918202423358
 31
0.0
  0
ARC
  5
13C7D
330
18
100
AcDbEntity
  8
0
100
AcDbCircle
 10
436.3294676633671
 20
225.6449816549482
 30
0.0
 40
9.015903847971632
100
AcDbArc
 50
332.1795611441608
 51
354.4603666814936
  0
LINE
  5
13C7E
330
18
100
AcDbEntity
  8
0
100
AcDbLine
 10
444.3032641809367
 20
210.9739305133586
 30
0.0
 11
444.3032641809367
 21
209.4548931099063
 31
0.0
  0
LINE
  5
13C7F
330
18
100
AcDbEntity
  8
0
100
AcDbLine
 10
444.3032641809366
 20
204.9460664683583
 30
0.0
 11
448.8032641809367
 21
210.2174950397861
 31
0.0
  0
ARC
  5
13C80
330
18
100
AcDbEntity
  8
0
100
AcDbCircle
 10
436.3294676633671
 20
205.2471512817684
 30
0.0
 40
9.015903847971632
100
AcDbArc
 50
5.539633318506221
 51
27.82043885583909
  0
LINE
  5
13C81
330
18
100
AcDbEntity
  8
0
100
AcDbLine
 10
445.3032641809368
 20
224.7746378969295
 30
0.0
 11
445.303264180937
 21
206.1174950397869
 31
0.0
  0
LINE
  5
13C82
330
18
100
AcDbEntity
  8
0
100
AcDbLine
 10
448.8032641809367
 20
220.6746378969305
 30
0.0
 11
448.8032641809367
 21
210.2174950397861
 31
0.0
  0
ARC
  5
13C83
330
18
100
AcDbEntity
  8
0
100
AcDbCircle
 10
434.8032641809362
 20
215.4460664683579
 30
0.0
 40
10.50000000000042
100
AcDbArc
 50
334.7912347032378
 51
25.20876529676207
  0
CIRCLE
  5
13CE8
330
18
100
AcDbEntity
  8
細線
100
AcDbCircle
 10
704.3609227830898
 20
111.4989706561421
 30
0.0
 40
3.0
  0
LINE
  5
13CE9
330
18
100
AcDbEntity
  8
CENTER
100
AcDbLine
 10
701.8430892961065
 20
115.8599861805952
 30
0.0
 11
706.8879794629887
 21
107.1219800929508
 31
0.0
  0
CIRCLE
  5
13CEA
330
18
100
AcDbEntity
  8
0
100
AcDbCircle
 10
704.3609227830898
 20
111.4989706561421
 30
0.0
 40
2.399999999999999
  0
CIRCLE
  5
13CED
330
18
100
AcDbEntity
  8
細線
100
AcDbCircle
 10
695.6390145341223
 20
104.4163062048991
 30
0.0
 40
3.5
  0
LWPOLYLINE
  5
13CEE
330
18
100
AcDbEntity
  8
細線
100
AcDbPolyline
 90
        6
 70
     1
 43
0.0
 10
697.3562474053267
 20
104.1902282084647
 10
696.3018416815764
 20
102.8160999160053
 10
694.5846088103722
 20
103.0421779124385
 10
693.9217816629175
 20
104.6423842013323
 10
694.9761873866678
 20
106.016512493792
 10
696.6934202578722
 20
105.790434497359
  0
LINE
  5
13D13
330
18
100
AcDbEntity
  8
CENTER
100
AcDbLine
 10
624.3787562700726
 20
115.8599861805952
 30
0.0
 11
619.3338661031904
 21
107.1219800929508
 31
0.0
  0
CIRCLE
  5
13D14
330
18
100
AcDbEntity
  8
0
100
AcDbCircle
 10
621.8609227830892
 20
111.4989706561421
 30
0.0
 40
2.399999999999999
  0
CIRCLE
  5
13D15
330
18
100
AcDbEntity
  8
細線
100
AcDbCircle
 10
621.8609227830892
 20
111.4989706561421
 30
0.0
 40
3.0
  0
CIRCLE
  5
13D18
330
18
100
AcDbEntity
  8
細線
100
AcDbCircle
 10
630.5828310320566
 20
104.4163062048999
 30
0.0
 40
3.5
  0
LWPOLYLINE
  5
13D19
330
18
100
AcDbEntity
  8
細線
100
AcDbPolyline
 90
        6
 70
     1
 43
0.0
 10
631.6372367558062
 20
103.0421779124385
 10
629.9200038846022
 20
102.8160999160057
 10
628.865598160852
 20
104.1902282084655
 10
629.5284253083066
 20
105.7904344973599
 10
631.2456581795106
 20
106.0165124937924
 10
632.3000639032609
 20
104.6423842013324
  0
LINE
  5
13D1E
330
18
100
AcDbEntity
  8
中心線
100
AcDbLine
 10
568.1109227830895
 20
182.9460664683583
 30
0.0
 11
758.1109227830896
 21
182.9460664683583
 31
0.0
  0
CIRCLE
  5
13D1F
330
18
100
AcDbEntity
  8
細線
100
AcDbCircle
 10
741.6406830465477
 20
150.4179747173258
 30
0.0
 40
3.5
  0
LWPOLYLINE
  5
13D20
330
18
100
AcDbEntity
  8
細線
100
AcDbPolyline
 90
        6
 70
     1
 43
0.0
 10
743.0148113390089
 20
151.4723804410749
 10
743.2408893354415
 20
149.7551475698708
 10
741.8667610429817
 20
148.7007418461204
 10
740.2665547540875
 20
149.3635689935753
 10
740.0404767576547
 20
151.0808018647793
 10
741.4146050501146
 20
152.1352075885296
  0
CIRCLE
  5
13D26
330
18
100
AcDbEntity
  8
0
100
AcDbCircle
 10
745.6109227830896
 20
182.9460664683583
 30
0.0
 40
2.399999999999999
  0
CIRCLE
  5
13D27
330
18
100
AcDbEntity
  8
細線
100
AcDbCircle
 10
745.6109227830896
 20
182.9460664683583
 30
0.0
 40
3.0
  0
CIRCLE
  5
13D28
330
18
100
AcDbEntity
  8
細線
100
AcDbCircle
 10
741.6406830465485
 20
215.4741582193905
 30
0.0
 40
3.5
  0
LWPOLYLINE
  5
13D2A
330
18
100
AcDbEntity
  8
細線
100
AcDbPolyline
 90
        6
 70
     1
 43
0.0
 10
741.8667610429833
 20
217.1913910905948
 10
743.2408893354421
 20
216.1369853668444
 10
743.0148113390092
 20
214.4197524956406
 10
741.4146050501154
 20
213.7569253481859
 10
740.0404767576558
 20
214.8113310719362
 10
740.2665547540889
 20
216.5285639431401
  0
LINE
  5
13D2F
330
18
100
AcDbEntity
  8
CENTER
100
AcDbLine
 10
701.8430892961064
 20
250.0321467561211
 30
0.0
 11
706.8879794629886
 21
258.7701528437658
 31
0.0
  0
CIRCLE
  5
13D30
330
18
100
AcDbEntity
  8
細線
100
AcDbCircle
 10
704.3609227830894
 20
254.3931622805744
 30
0.0
 40
3.0
  0
CIRCLE
  5
13D31
330
18
100
AcDbEntity
  8
0
100
AcDbCircle
 10
704.3609227830894
 20
254.3931622805744
 30
0.0
 40
2.399999999999999
  0
CIRCLE
  5
13D38
330
18
100
AcDbEntity
  8
細線
100
AcDbCircle
 10
584.5811625196303
 20
150.4179747173251
 30
0.0
 40
3.5
  0
LWPOLYLINE
  5
13D39
330
18
100
AcDbEntity
  8
細線
100
AcDbPolyline
 90
        6
 70
     1
 43
0.0
 10
584.3550845231957
 20
148.7007418461204
 10
582.9809562307366
 20
149.755147569871
 10
583.2070342271697
 20
151.4723804410753
 10
584.8072405160634
 20
152.1352075885301
 10
586.1813688085232
 20
151.0808018647799
 10
585.9552908120901
 20
149.3635689935754
  0
CIRCLE
  5
13D3D
330
18
100
AcDbEntity
  8
0
100
AcDbCircle
 10
580.6109227830895
 20
182.9460664683583
 30
0.0
 40
2.399999999999999
  0
CIRCLE
  5
13D3E
330
18
100
AcDbEntity
  8
細線
100
AcDbCircle
 10
580.6109227830895
 20
182.9460664683583
 30
0.0
 40
3.0
  0
CIRCLE
  5
13D47
330
18
100
AcDbEntity
  8
細線
100
AcDbCircle
 10
584.5811625196309
 20
215.4741582193909
 30
0.0
 40
3.5
  0
LWPOLYLINE
  5
13D4A
330
18
100
AcDbEntity
  8
細線
100
AcDbPolyline
 90
        6
 70
     1
 43
0.0
 10
583.2070342271697
 20
214.4197524956416
 10
582.9809562307372
 20
216.1369853668456
 10
584.3550845231971
 20
217.1913910905959
 10
585.9552908120909
 20
216.5285639431413
 10
586.1813688085237
 20
214.8113310719371
 10
584.8072405160634
 20
213.756925348187
  0
LINE
  5
13D4B
330
18
100
AcDbEntity
  8
CENTER
100
AcDbLine
 10
624.3787562700726
 20
250.0321467561213
 30
0.0
 11
619.3338661031906
 21
258.7701528437658
 31
0.0
  0
CIRCLE
  5
13D4C
330
18
100
AcDbEntity
  8
0
100
AcDbCircle
 10
621.8609227830897
 20
254.3931622805746
 30
0.0
 40
2.399999999999999
  0
CIRCLE
  5
13D4D
330
18
100
AcDbEntity
  8
細線
100
AcDbCircle
 10
621.8609227830897
 20
254.3931622805746
 30
0.0
 40
3.0
  0
CIRCLE
  5
13D4E
330
18
100
AcDbEntity
  8
細線
100
AcDbCircle
 10
695.6390145341217
 20
261.4758267318175
 30
0.0
 40
3.5
  0
LWPOLYLINE
  5
13D4F
330
18
100
AcDbEntity
  8
細線
100
AcDbPolyline
 90
        6
 70
     1
 43
0.0
 10
694.5846088103727
 20
262.8499550242784
 10
696.3018416815771
 20
263.0760330207108
 10
697.3562474053271
 20
261.701904728251
 10
696.6934202578725
 20
260.1016984393568
 10
694.9761873866682
 20
259.875620442924
 10
693.9217816629182
 20
261.2497487353844
  0
LWPOLYLINE
  5
13D52
330
18
100
AcDbEntity
  8
細線
100
AcDbPolyline
 90
        6
 70
     1
 43
0.0
 10
628.8655981608522
 20
261.7019047282519
 10
629.9200038846029
 20
263.0760330207113
 10
631.6372367558073
 20
262.8499550242782
 10
632.3000639032617
 20
261.2497487353844
 10
631.2456581795117
 20
259.8756204429245
 10
629.528425308307
 20
260.1016984393576
  0
CIRCLE
  5
13D53
330
18
100
AcDbEntity
  8
細線
100
AcDbCircle
 10
630.5828310320572
 20
261.4758267318175
 30
0.0
 40
3.5
  0
LINE
  5
13E95
330
18
100
AcDbEntity
  8
0
100
AcDbLine
 10
369.3032641809368
 20
230.4518264491305
 30
0.0
 11
369.3032641809368
 21
182.9460664683578
 31
0.0
  0
LINE
  5
13E96
330
18
100
AcDbEntity
  8
0
100
AcDbLine
 10
369.3032641809368
 20
135.4503159005413
 30
0.0
 11
369.3032641809368
 21
182.9460664683583
 31
0.0
  0
LINE
  5
1400B
330
18
100
AcDbEntity
  8
0
100
AcDbLine
 10
429.3032641809371
 20
237.4460664683583
 30
0.0
 11
429.3032641809368
 21
128.4460664683582
 31
0.0
  0
LINE
  5
1400C
330
18
100
AcDbEntity
  8
0
100
AcDbLine
 10
426.303264180937
 20
237.9460664683583
 30
0.0
 11
428.8032641809371
 21
237.9460664683583
 31
0.0
  0
LINE
  5
1400D
330
18
100
AcDbEntity
  8
0
100
AcDbLine
 10
426.3032641809369
 20
127.9460664683582
 30
0.0
 11
428.8032641809368
 21
127.9460664683582
 31
0.0
  0
LINE
  5
14CDB
330
18
100
AcDbEntity
  8
0
100
AcDbLine
 10
429.3032641809368
 20
128.4460664683582
 30
0.0
 11
428.8032641809368
 21
127.9460664683582
 31
0.0
  0
LINE
  5
14CDC
330
18
100
AcDbEntity
  8
0
100
AcDbLine
 10
428.8032641809371
 20
237.9460664683583
 30
0.0
 11
429.3032641809371
 21
237.4460664683583
 31
0.0
  0
LINE
  5
14CDD
330
18
100
AcDbEntity
  8
0
100
AcDbLine
 10
369.8032641809368
 20
230.9518264491305
 30
0.0
 11
369.3032641809368
 21
230.4518264491305
 31
0.0
  0
LINE
  5
14CDE
330
18
100
AcDbEntity
  8
0
100
AcDbLine
 10
369.3032641809368
 20
135.4503159005413
 30
0.0
 11
369.8032641809368
 21
134.9503159005416
 31
0.0
  0
TEXT
  5
15B3B
330
18
100
AcDbEntity
  8
A
100
AcDbText
 10
357.6978829036068
 20
1128.21472599652
 30
0.0
 40
2.5
  1

  7
MSｺ_ｼｯｸ
100
AcDbText
  0
TEXT
  5
15B3C
330
18
100
AcDbEntity
  8
A
100
AcDbText
 10
349.8728829036068
 20
1128.21472599652
 30
0.0
 40
2.5
  1

 41
0.5
  7
MSｺ_ｼｯｸ
100
AcDbText
  0
TEXT
  5
15B3D
330
18
100
AcDbEntity
  8
A
100
AcDbText
 10
497.7979828539783
 20
1558.181746114883
 30
0.0
 40
3.524999999999999
  1
�    
100
AcDbText
  0
MTEXT
  5
15B3E
330
18
100
AcDbEntity
  8
0
  6
BYBLOCK
100
AcDbMText
 10
656.1028717772297
 20
1576.178775708772
 30
0.0
 40
2.0
 41
0.0
 71
     4
 72
     5
  1

 11
-0.0000000000000002
 21
-1.0
 31
0.0
1001
ACAD
1000
MTEXTBEGIN
1070
    73
1070
     1
1070
    44
1040
1.0
1070
    74
1070
     0
1000
MTEXTEND
1000
MTEXTBEGIN
1070
    73
1070
     1
1070
    44
1040
1.0
1070
    74
1070
     0
1000
MTEXTEND
  0
MTEXT
  5
15B3F
330
18
100
AcDbEntity
  8
0
  6
BYBLOCK
100
AcDbMText
 10
691.5682601403826
 20
1565.385467350353
 30
0.0
 40
2.0
 41
0.0
 71
     7
 72
     5
  1

 11
0.0000000000000001
 21
1.0
 31
0.0
1001
ACAD
1000
MTEXTBEGIN
1070
    73
1070
     1
1070
    44
1040
1.0
1070
    74
1070
     0
1000
MTEXTEND
1000
MTEXTBEGIN
1070
    73
1070
     1
1070
    44
1040
1.0
1070
    74
1070
     0
1000
MTEXTEND
  0
MTEXT
  5
15B40
330
18
100
AcDbEntity
  8
0
100
AcDbMText
 10
655.788762155715
 20
1490.605956808065
 30
0.0
 40
2.0
 41
10.1453
 71
     1
 72
     5
  1

 11
-0.0000000000000002
 21
-1.0
 31
0.0
1001
ACAD
1000
MTEXTBEGIN
1070
    73
1070
     1
1070
    44
1040
1.0
1070
    74
1070
     0
1000
MTEXTEND
1000
MTEXTBEGIN
1070
    73
1070
     1
1070
    44
1040
1.0
1070
    74
1070
     0
1000
MTEXTEND
  0
MTEXT
  5
15B41
330
18
100
AcDbEntity
  8
0
100
AcDbMText
 10
611.389270402565
 20
1458.974473215076
 30
0.0
 40
2.0
 41
0.0
 71
     1
 72
     5
  1

1001
ACAD
1000
MTEXTBEGIN
1070
    73
1070
     1
1070
    44
1040
1.0
1070
    74
1070
     0
1000
MTEXTEND
1000
MTEXTBEGIN
1070
    73
1070
     1
1070
    44
1040
1.0
1070
    74
1070
     0
1000
MTEXTEND
  0
MTEXT
  5
15B42
330
18
100
AcDbEntity
  8
0
  6
CENTER
100
AcDbMText
 10
936.977547586328
 20
1559.906999959501
 30
0.0
 40
2.0
 41
15.6417
 71
     1
 72
     5
  1

  7
BIGFONT
1001
ACAD
1000
MTEXTBEGIN
1070
    73
1070
     1
1070
    44
1040
1.0
1070
    74
1070
     0
1000
MTEXTEND
1000
MTEXTBEGIN
1070
    73
1070
     1
1070
    44
1040
1.0
1070
    74
1070
     0
1000
MTEXTEND
  0
MTEXT
  5
15B43
330
18
100
AcDbEntity
  8
0
  6
DASHDOT
100
AcDbMText
 10
699.299606642156
 20
1666.696494787275
 30
0.0
 40
1.0
 41
2.0
 71
     1
 72
     5
  1

  7
BIGFONT
1001
ACAD
1000
MTEXTBEGIN
1070
    73
1070
     1
1070
    44
1040
1.0
1070
    74
1070
     0
1000
MTEXTEND
1000
MTEXTBEGIN
1070
    73
1070
     1
1070
    44
1040
1.0
1070
    74
1070
     0
1000
MTEXTEND
  0
MTEXT
  5
15B44
330
18
100
AcDbEntity
  8
0
  6
BYBLOCK
100
AcDbMText
 10
656.1027847722796
 20
1576.178775708772
 30
0.0
 40
2.0
 41
0.0
 71
     4
 72
     5
  1

 11
-0.0000000000000002
 21
-1.0
 31
0.0
1001
ACAD
1000
MTEXTBEGIN
1070
    73
1070
     1
1070
    44
1040
1.0
1070
    74
1070
     0
1000
MTEXTEND
1000
MTEXTBEGIN
1070
    73
1070
     1
1070
    44
1040
1.0
1070
    74
1070
     0
1000
MTEXTEND
  0
MTEXT
  5
15B45
330
18
100
AcDbEntity
  8
0
  6
BYBLOCK
100
AcDbMText
 10
691.5681731354323
 20
1565.385467350353
 30
0.0
 40
2.0
 41
0.0
 71
     7
 72
     5
  1

 11
0.0000000000000001
 21
1.0
 31
0.0
1001
ACAD
1000
MTEXTBEGIN
1070
    73
1070
     1
1070
    44
1040
1.0
1070
    74
1070
     0
1000
MTEXTEND
1000
MTEXTBEGIN
1070
    73
1070
     1
1070
    44
1040
1.0
1070
    74
1070
     0
1000
MTEXTEND
  0
MTEXT
  5
15B46
330
18
100
AcDbEntity
  8
0
100
AcDbMText
 10
655.7886751507647
 20
1490.605956808065
 30
0.0
 40
2.0
 41
10.1453
 71
     1
 72
     5
  1

 11
-0.0000000000000002
 21
-1.0
 31
0.0
1001
ACAD
1000
MTEXTBEGIN
1070
    73
1070
     1
1070
    44
1040
1.0
1070
    74
1070
     0
1000
MTEXTEND
1000
MTEXTBEGIN
1070
    73
1070
     1
1070
    44
1040
1.0
1070
    74
1070
     0
1000
MTEXTEND
  0
MTEXT
  5
15B47
330
18
100
AcDbEntity
  8
0
100
AcDbMText
 10
611.3891833976147
 20
1458.974473215076
 30
0.0
 40
2.0
 41
0.0
 71
     1
 72
     5
  1

1001
ACAD
1000
MTEXTBEGIN
1070
    73
1070
     1
1070
    44
1040
1.0
1070
    74
1070
     0
1000
MTEXTEND
1000
MTEXTBEGIN
1070
    73
1070
     1
1070
    44
1040
1.0
1070
    74
1070
     0
1000
MTEXTEND
  0
MTEXT
  5
15B48
330
18
100
AcDbEntity
  8
0
  6
CENTER
100
AcDbMText
 10
936.9774605813775
 20
1559.906999959501
 30
0.0
 40
2.0
 41
15.6417
 71
     1
 72
     5
  1

  7
BIGFONT
1001
ACAD
1000
MTEXTBEGIN
1070
    73
1070
     1
1070
    44
1040
1.0
1070
    74
1070
     0
1000
MTEXTEND
1000
MTEXTBEGIN
1070
    73
1070
     1
1070
    44
1040
1.0
1070
    74
1070
     0
1000
MTEXTEND
  0
MTEXT
  5
15B49
330
18
100
AcDbEntity
  8
0
  6
DASHDOT
100
AcDbMText
 10
699.2995196372061
 20
1666.696494787275
 30
0.0
 40
1.0
 41
2.0
 71
     1
 72
     5
  1

  7
BIGFONT
1001
ACAD
1000
MTEXTBEGIN
1070
    73
1070
     1
1070
    44
1040
1.0
1070
    74
1070
     0
1000
MTEXTEND
1000
MTEXTBEGIN
1070
    73
1070
     1
1070
    44
1040
1.0
1070
    74
1070
     0
1000
MTEXTEND
  0
INSERT
  5
15B4A
330
18
100
AcDbEntity
  8
FRAME025
100
AcDbBlockReference
  2
機械A4横_LBP
 10
601.6173895189279
 20
1350.555893699294
 30
0.0
  0
LINE
  5
163FD
330
18
100
AcDbEntity
  8
0
100
AcDbLine
 10
505.6760447320819
 20
235.4460664683583
 30
0.0
 11
505.6760447320819
 21
310.122066468359
 31
0.0
  0
LINE
  5
163FF
330
18
100
AcDbEntity
  8
0
100
AcDbLine
 10
498.1760447356816
 20
235.4460664683583
 30
0.0
 11
498.1760447356816
 21
310.122066468359
 31
0.0
  0
LINE
  5
16428
330
18
100
AcDbEntity
  8
0
100
AcDbLine
 10
498.1760447356816
 20
310.122066468359
 30
0.0
 11
505.6760447320819
 21
310.122066468359
 31
0.0
  0
LINE
  5
1642F
330
18
100
AcDbEntity
  8
0
100
AcDbLine
 10
481.926044733882
 20
211.6960664701581
 30
0.0
 11
448.8032641809367
 21
211.6960664701581
 31
0.0
  0
LINE
  5
16430
330
18
100
AcDbEntity
  8
0
100
AcDbLine
 10
481.926044733882
 20
219.1960664665584
 30
0.0
 11
448.8032641809367
 21
219.1960664665584
 31
0.0
  0
LINE
  5
16431
330
18
100
AcDbEntity
  8
中心線
100
AcDbLine
 10
456.8815556255026
 20
215.4460664683583
 30
0.0
 11
419.6246578268938
 21
215.4460664683583
 31
0.0
  0
ARC
  5
16455
330
18
100
AcDbEntity
  8
0
100
AcDbCircle
 10
481.926044733882
 20
235.4460664683583
 30
0.0
 40
16.25000000180011
100
AcDbArc
 50
270.0
 51
0.0
  0
ARC
  5
16456
330
18
100
AcDbEntity
  8
0
100
AcDbCircle
 10
481.926044733882
 20
235.4460664683583
 30
0.0
 40
23.7499999982003
100
AcDbArc
 50
270.0
 51
0.0
  0
LINE
  5
16460
330
18
100
AcDbEntity
  8
0
100
AcDbLine
 10
448.8032641809373
 20
148.3460664683579
 30
0.0
 11
470.9972705548857
 21
148.3460664683583
 31
0.0
  0
LINE
  5
16461
330
18
100
AcDbEntity
  8
0
100
AcDbLine
 10
448.8032641809367
 20
152.5460664683577
 30
0.0
 11
470.9972705548856
 21
152.5460664683583
 31
0.0
  0
LINE
  5
16462
330
18
100
AcDbEntity
  8
中心線
100
AcDbLine
 10
457.2111767736439
 20
150.4460664683586
 30
0.0
 11
419.6246578268941
 21
150.4460664683583
 31
0.0
  0
ARC
  5
1648E
330
18
100
AcDbEntity
  8
0
100
AcDbCircle
 10
470.997270554886
 20
130.4460664683582
 30
0.0
 40
17.89999999999969
100
AcDbArc
 50
0.0
 51
90.00000000000005
  0
ARC
  5
1648F
330
18
100
AcDbEntity
  8
0
100
AcDbCircle
 10
470.997270554886
 20
130.4460664683582
 30
0.0
 40
22.09999999999948
100
AcDbArc
 50
0.0
 51
90.00000000000005
  0
LINE
  5
16499
330
18
100
AcDbEntity
  8
0
100
AcDbLine
 10
501.9439307503391
 20
34.78437560254286
 30
0.0
 11
501.9439307503391
 21
57.18437560254249
 31
0.0
  0
LINE
  5
1649A
330
18
100
AcDbEntity
  8
0
100
AcDbLine
 10
503.2351407960013
 20
57.18437560254249
 30
0.0
 11
507.019615681846
 21
34.78437560254286
 31
0.0
  0
LINE
  5
1649B
330
18
100
AcDbEntity
  8
0
100
AcDbLine
 10
500.6527207046771
 20
57.18437560254249
 30
0.0
 11
496.8682458188326
 21
34.78437560254286
 31
0.0
  0
LINE
  5
1649C
330
18
100
AcDbEntity
  8
0
100
AcDbLine
 10
504.8839307503391
 20
57.18437560254249
 30
0.0
 11
504.8839307503391
 21
70.94606646835808
 31
0.0
  0
LINE
  5
1649D
330
18
100
AcDbEntity
  8
0
100
AcDbLine
 10
499.0039307503398
 20
57.18437560254249
 30
0.0
 11
499.0039307503398
 21
70.94606646835808
 31
0.0
  0
LINE
  5
1649E
330
18
100
AcDbEntity
  8
0
100
AcDbLine
 10
499.0039307503398
 20
70.94606646835808
 30
0.0
 11
504.8839307503391
 21
70.94606646835808
 31
0.0
  0
LINE
  5
1649F
330
18
100
AcDbEntity
  8
0
100
AcDbLine
 10
504.8839307503391
 20
57.18437560254249
 30
0.0
 11
499.0039307503398
 21
57.18437560254249
 31
0.0
  0
LINE
  5
1680D
330
18
100
AcDbEntity
  8
0
100
AcDbLine
 10
382.0032634653417
 20
94.04606561001051
 30
0.0
 11
392.5032641809368
 21
94.04606561001042
 31
0.0
  0
LINE
  5
1680E
330
18
100
AcDbEntity
  8
0
100
AcDbLine
 10
374.8032634653418
 20
94.54606561001051
 30
0.0
 11
375.3032634653417
 21
94.04606561001051
 31
0.0
  0
LINE
  5
1680F
330
18
100
AcDbEntity
  8
0
100
AcDbLine
 10
426.3032641809369
 20
94.54606632560508
 30
0.0
 11
425.8032634653416
 21
94.04606561001013
 31
0.0
  0
LINE
  5
16813
330
18
100
AcDbEntity
  8
0
100
AcDbLine
 10
373.6032634653418
 20
94.04606561001093
 30
0.0
 11
374.8032634653418
 21
94.04606561001093
 31
0.0
  0
LINE
  5
16816
330
18
100
AcDbEntity
  8
0
100
AcDbLine
 10
382.3032641809362
 20
271.8460664683594
 30
0.0
 11
392.5032641809368
 21
271.8460664683592
 31
0.0
  0
LINE
  5
16817
330
18
100
AcDbEntity
  8
0
100
AcDbLine
 10
382.3032634653417
 20
271.846067326706
 30
0.0
 11
392.5032641809368
 21
271.8460673267063
 31
0.0
  0
LINE
  5
16818
330
18
100
AcDbEntity
  8
0
100
AcDbLine
 10
374.8032634653418
 20
271.3460673267062
 30
0.0
 11
375.3032634653417
 21
271.846067326706
 31
0.0
  0
LINE
  5
16819
330
18
100
AcDbEntity
  8
0
100
AcDbLine
 10
374.8032641809366
 20
271.3460664683594
 30
0.0
 11
375.3032641809366
 21
271.8460664683594
 31
0.0
  0
LINE
  5
1681E
330
18
100
AcDbEntity
  8
0
100
AcDbLine
 10
426.3032641809369
 20
271.3460666111116
 30
0.0
 11
425.8032634653416
 21
271.8460673267065
 31
0.0
  0
CIRCLE
  5
16E3A
330
18
100
AcDbEntity
  8
中心線
100
AcDbCircle
 10
663.1109227830895
 20
182.9460664683583
 30
0.0
 40
82.5
  0
LWPOLYLINE
  5
16E9B
330
18
100
AcDbEntity
  8
0
100
AcDbPolyline
 90
       12
 70
   129
 43
0.0
 10
653.6109227830896
 20
145.9739305133564
 42
0.0418357922730061
 10
654.4879394368819
 20
144.4548931099045
 10
662.2339061292974
 20
139.9827571549046
 42
0.041835792273005
 10
663.9879394368821
 20
139.9827571549044
 10
671.7339061292967
 20
144.4548931099039
 42
0.0418357922730106
 10
672.6109227830892
 20
145.9739305133564
 10
672.6109227830895
 20
154.9182024233558
 42
0.0418357922730243
 10
671.7339061292967
 20
156.4372398268088
 10
663.9879394368821
 20
160.9093757818084
 42
0.041835792273011
 10
662.2339061292972
 20
160.9093757818083
 10
654.4879394368821
 20
156.4372398268088
 42
0.0418357922730047
 10
653.6109227830897
 20
154.9182024233566
  0
CIRCLE
  5
16E9C
330
18
100
AcDbEntity
  8
0
100
AcDbCircle
 10
663.1109227830895
 20
150.4460664683564
 30
0.0
 40
9.5
  0
CIRCLE
  5
16E9D
330
18
100
AcDbEntity
  8
0
100
AcDbCircle
 10
663.1109227830895
 20
150.4460664683564
 30
0.0
 40
5.2
  0
ARC
  5
16E9E
330
18
100
AcDbEntity
  8
中心線
100
AcDbCircle
 10
663.1109227830895
 20
190.9460664683565
 30
0.0
 40
40.49999999999999
100
AcDbArc
 50
239.0148131221266
 51
293.4750235695486
  0
CIRCLE
  5
16E9F
330
18
100
AcDbEntity
  8
0
100
AcDbCircle
 10
663.1109227830895
 20
150.4460664683564
 30
0.0
 40
4.5
  0
CIRCLE
  5
16EA0
330
18
100
AcDbEntity
  8
0
100
AcDbCircle
 10
663.1109227830895
 20
150.4460664683564
 30
0.0
 40
2.5
  0
HATCH
  5
16EA1
330
18
100
AcDbEntity
  8
0
100
AcDbHatch
 10
0.0
 20
0.0
 30
0.0
210
0.0
220
0.0
230
1.0
  2
SOLID
 70
     1
 71
     0
 91
        2
 92
        7
 72
     1
 73
     1
 93
        3
 10
665.6109227830897
 20
150.4460664683564
 42
0.0
 10
663.1109227830895
 20
150.4460664683564
 42
0.0
 10
663.1109227830895
 20
147.9460664683564
 42
0.4142135623730919
 97
        0
 92
        7
 72
     1
 73
     1
 93
        3
 10
663.1109227830895
 20
150.4460664683563
 42
0.0
 10
663.1109227830895
 20
152.9460664683564
 42
0.4142135623730951
 10
660.6109227830898
 20
150.4460664683564
 42
0.0
 97
        0
 75
     0
 76
     1
 47
0.0576142688807724
 98
        2
 10
663.9403913037257
 20
149.0641004074449
 10
662.2695773639856
 20
150.7932591169982
  0
LWPOLYLINE
  5
16EA9
330
18
100
AcDbEntity
  8
0
100
AcDbPolyline
 90
       12
 70
   129
 43
0.0
 10
653.6109227830896
 20
219.918202423369
 42
-0.0418357922730061
 10
654.4879394368819
 20
221.4372398268209
 10
662.2339061292974
 20
225.9093757818209
 42
-0.041835792273005
 10
663.9879394368821
 20
225.9093757818209
 10
671.7339061292967
 20
221.4372398268213
 42
-0.0418357922730106
 10
672.6109227830892
 20
219.9182024233687
 10
672.6109227830895
 20
210.9739305133695
 42
-0.0418357922730243
 10
671.7339061292967
 20
209.4548931099167
 10
663.9879394368821
 20
204.9827571549169
 42
-0.041835792273011
 10
662.2339061292972
 20
204.9827571549169
 10
654.4879394368821
 20
209.4548931099167
 42
-0.0418357922730047
 10
653.6109227830897
 20
210.973930513369
  0
CIRCLE
  5
16EAA
330
18
100
AcDbEntity
  8
0
100
AcDbCircle
 10
663.1109227830895
 20
215.4460664683689
 30
0.0
 40
9.5
  0
HATCH
  5
16EAB
330
18
100
AcDbEntity
  8
0
100
AcDbHatch
 10
0.0
 20
0.0
 30
0.0
210
0.0
220
0.0
230
1.0
  2
SOLID
 70
     1
 71
     0
 91
        2
 92
        7
 72
     1
 73
     1
 93
        3
 10
665.6109227830897
 20
215.4460664683689
 42
0.0
 10
663.1109227830895
 20
215.4460664683689
 42
0.0
 10
663.1109227830895
 20
217.9460664683689
 42
-0.4142135623730919
 97
        0
 92
        7
 72
     1
 73
     1
 93
        3
 10
663.1109227830895
 20
215.4460664683691
 42
0.0
 10
663.1109227830895
 20
212.9460664683689
 42
-0.4142135623730951
 10
660.6109227830898
 20
215.4460664683689
 42
0.0
 97
        0
 75
     0
 76
     1
 47
0.0576142688807724
 98
        2
 10
663.9403913037257
 20
216.8280325292804
 10
662.2695773639856
 20
215.0988738197273
  0
CIRCLE
  5
16EAC
330
18
100
AcDbEntity
  8
0
100
AcDbCircle
 10
663.1109227830895
 20
215.4460664683689
 30
0.0
 40
2.5
  0
CIRCLE
  5
16EAD
330
18
100
AcDbEntity
  8
0
100
AcDbCircle
 10
663.1109227830895
 20
215.4460664683689
 30
0.0
 40
4.5
  0
CIRCLE
  5
16EAE
330
18
100
AcDbEntity
  8
0
100
AcDbCircle
 10
663.1109227830895
 20
215.4460664683689
 30
0.0
 40
5.2
  0
ARC
  5
17057
330
18
100
AcDbEntity
  8
中心線
 48
0.8
100
AcDbCircle
 10
160.5575552403886
 20
182.9221438043557
 30
0.0
 40
43.0
100
AcDbArc
 50
270.0
 51
90.0
  0
LINE
  5
17058
330
18
100
AcDbEntity
  8
中心線
100
AcDbLine
 10
65.55755524038864
 20
182.9221438043553
 30
0.0
 11
255.5575552403886
 21
182.9221438043553
 31
0.0
  0
ARC
  5
1705D
330
18
100
AcDbEntity
  8
中心線
100
AcDbCircle
 10
160.5575552403886
 20
182.9221438043557
 30
0.0
 40
43.0
100
AcDbArc
 50
90.0
 51
270.0
  0
SOLID
  5
17061
330
18
100
AcDbEntity
  8
0
  6
BYBLOCK
 62
     0
100
AcDbTrace
 10
102.0575552403886
 20
185.2315448843555
 30
0.0
 11
106.0575552403886
 21
182.9221438043557
 31
0.0
 12
102.0575552403886
 22
180.6127427243555
 32
0.0
 13
102.0575552403886
 23
180.6127427243555
 33
0.0
  0
LINE
  5
170C2
330
18
100
AcDbEntity
  8
中心線
100
AcDbLine
 10
121.5575552403886
 20
182.9221438043557
 30
0.0
 11
111.5575552403886
 21
182.9221438043557
 31
0.0
  0
SOLID
  5
170C9
330
18
100
AcDbEntity
  8
0
  6
BYBLOCK
 62
     0
100
AcDbTrace
 10
111.0575552403886
 20
185.2315448843555
 30
0.0
 11
107.0575552403886
 21
182.9221438043557
 31
0.0
 12
111.0575552403886
 22
180.6127427243555
 32
0.0
 13
111.0575552403886
 23
180.6127427243555
 33
0.0
  0
CIRCLE
  5
170CB
330
18
100
AcDbEntity
  8
細線
100
AcDbCircle
 10
117.5575552403885
 20
182.9221438043553
 30
0.0
 40
2.5
  0
CIRCLE
  5
170CC
330
18
100
AcDbEntity
  8
0
100
AcDbCircle
 10
117.5575552403885
 20
182.9221438043553
 30
0.0
 40
1.875
  0
CIRCLE
  5
170D2
330
18
100
AcDbEntity
  8
細線
100
AcDbCircle
 10
139.0575552403884
 20
145.6830514416248
 30
0.0
 40
2.5
  0
LINE
  5
170D3
330
18
100
AcDbEntity
  8
中心線
100
AcDbLine
 10
141.5575552403884
 20
150.0131784605464
 30
0.0
 11
136.5575552403885
 21
141.3529244227023
 31
0.0
  0
CIRCLE
  5
170D4
330
18
100
AcDbEntity
  8
0
100
AcDbCircle
 10
139.0575552403884
 20
145.6830514416248
 30
0.0
 40
1.875
  0
CIRCLE
  5
1711A
330
18
100
AcDbEntity
  8
0
100
AcDbCircle
 10
139.0575552403884
 20
220.1612361670864
 30
0.0
 40
1.875
  0
CIRCLE
  5
1711B
330
18
100
AcDbEntity
  8
細線
100
AcDbCircle
 10
139.0575552403884
 20
220.1612361670864
 30
0.0
 40
2.5
  0
LINE
  5
1711C
330
18
100
AcDbEntity
  8
中心線
100
AcDbLine
 10
141.5575552403884
 20
215.8311091481639
 30
0.0
 11
136.5575552403885
 21
224.4913631860084
 31
0.0
  0
LINE
  5
1713A
330
18
100
AcDbEntity
  8
中心線
100
AcDbLine
 10
179.5575552403884
 20
150.013178460547
 30
0.0
 11
185.1242041748183
 21
140.3714596782151
 31
0.0
  0
CIRCLE
  5
1715C
330
18
100
AcDbEntity
  8
細線
100
AcDbCircle
 10
203.5575552403884
 20
182.9221438043553
 30
0.0
 40
2.5
  0
CIRCLE
  5
1715D
330
18
100
AcDbEntity
  8
0
100
AcDbCircle
 10
203.5575552403884
 20
182.9221438043553
 30
0.0
 40
1.875
  0
CIRCLE
  5
17180
330
18
100
AcDbEntity
  8
0
100
AcDbCircle
 10
182.0575552403879
 20
220.1612361670866
 30
0.0
 40
1.875
  0
CIRCLE
  5
17181
330
18
100
AcDbEntity
  8
細線
100
AcDbCircle
 10
182.0575552403879
 20
220.1612361670866
 30
0.0
 40
2.5
  0
LINE
  5
17182
330
18
100
AcDbEntity
  8
中心線
100
AcDbLine
 10
180.0575552403884
 20
216.6971345519494
 30
0.0
 11
185.0575552403885
 21
225.3573885897938
 31
0.0
  0
CIRCLE
  5
17184
330
18
100
AcDbEntity
  8
細線
100
AcDbCircle
 10
172.398526553829
 20
227.1132503570804
 30
0.0
 40
1.499999999999943
  0
CIRCLE
  5
17185
330
18
100
AcDbEntity
  8
細線
100
AcDbCircle
 10
172.398526553829
 20
227.1132503570804
 30
0.0
 40
1.124999999999942
  0
LINE
  5
171A3
330
18
100
AcDbEntity
  8
中心線
100
AcDbLine
 10
160.5575552403886
 20
87.92214380435519
 30
0.0
 11
160.5575552403886
 21
277.9221438043555
 31
0.0
  0
CIRCLE
  5
17399
330
18
100
AcDbEntity
  8
細線
100
AcDbCircle
 10
160.5575552403886
 20
267.4221438043555
 30
0.0
 40
3.5
  0
ARC
  5
1739A
330
18
100
AcDbEntity
  8
細線
100
AcDbCircle
 10
160.5575552403886
 20
266.3421438043556
 30
0.0
 40
0.5
100
AcDbArc
 50
42.34638766282468
 51
137.6536123371759
  0
ARC
  5
1739B
330
18
100
AcDbEntity
  8
細線
100
AcDbCircle
 10
160.5575552403886
 20
268.5021438043555
 30
0.0
 40
0.5
100
AcDbArc
 50
222.3463876628245
 51
317.6536123371758
  0
ARC
  5
1739C
330
18
100
AcDbEntity
  8
細線
100
AcDbCircle
 10
159.6222478043014
 20
266.8821438043555
 30
0.0
 40
0.5
100
AcDbArc
 50
342.3463876628237
 51
77.65361233717626
  0
ARC
  5
1739D
330
18
100
AcDbEntity
  8
細線
100
AcDbCircle
 10
161.4928626764758
 20
266.8821438043555
 30
0.0
 40
0.5
100
AcDbArc
 50
102.3463876628252
 51
197.6536123371761
  0
ARC
  5
1739E
330
18
100
AcDbEntity
  8
細線
100
AcDbCircle
 10
159.6222478043014
 20
267.9621438043556
 30
0.0
 40
0.5
100
AcDbArc
 50
282.3463876628252
 51
17.65361233717619
  0
ARC
  5
1739F
330
18
100
AcDbEntity
  8
細線
100
AcDbCircle
 10
161.4928626764758
 20
267.9621438043556
 30
0.0
 40
0.5
100
AcDbArc
 50
162.3463876628234
 51
257.6536123371762
  0
CIRCLE
  5
173A0
330
18
100
AcDbEntity
  8
細線
100
AcDbCircle
 10
160.5575552403886
 20
267.4221438043555
 30
0.0
 40
0.8299999999999998
  0
LINE
  5
173C7
330
18
100
AcDbEntity
  8
中心線
100
AcDbLine
 10
369.5402701344633
 20
267.4460664683583
 30
0.0
 11
381.3691370717616
 21
267.4460664683583
 31
0.0
  0
LINE
  5
173C8
330
18
100
AcDbEntity
  8
ｷｬｯﾌ_ﾎ_ﾙﾄ
100
AcDbLine
 10
373.6032641809369
 20
270.9460664683583
 30
0.0
 11
373.6032641809369
 21
263.9460664683582
 31
0.0
  0
LINE
  5
173C9
330
18
100
AcDbEntity
  8
ｷｬｯﾌ_ﾎ_ﾙﾄ
100
AcDbLine
 10
373.1032641809375
 20
270.9460664683583
 30
0.0
 11
373.1032641809375
 21
263.9460664683582
 31
0.0
  0
LINE
  5
173CA
330
18
100
AcDbEntity
  8
ｷｬｯﾌ_ﾎ_ﾙﾄ
100
AcDbLine
 10
372.8032641809373
 20
269.896066468358
 30
0.0
 11
372.8032641809373
 21
264.9960664683585
 31
0.0
  0
LINE
  5
173CB
330
18
100
AcDbEntity
  8
ｷｬｯﾌ_ﾎ_ﾙﾄ
100
AcDbLine
 10
373.1032641809375
 20
263.9460664683582
 30
0.0
 11
372.8032641809373
 21
264.9960664683585
 31
0.0
  0
LINE
  5
173CC
330
18
100
AcDbEntity
  8
ｷｬｯﾌ_ﾎ_ﾙﾄ
100
AcDbLine
 10
373.1032641809375
 20
263.9460664683582
 30
0.0
 11
373.6032641809369
 21
263.9460664683582
 31
0.0
  0
LINE
  5
173CD
330
18
100
AcDbEntity
  8
ｷｬｯﾌ_ﾎ_ﾙﾄ
100
AcDbLine
 10
373.1032641809375
 20
270.9460664683583
 30
0.0
 11
372.8032641809373
 21
269.896066468358
 31
0.0
  0
LINE
  5
173CE
330
18
100
AcDbEntity
  8
ｷｬｯﾌ_ﾎ_ﾙﾄ
100
AcDbLine
 10
373.1032641809375
 20
270.9460664683583
 30
0.0
 11
373.6032641809369
 21
270.9460664683583
 31
0.0
  0
LINE
  5
173D2
330
18
100
AcDbEntity
  8
ｷｬｯﾌ_ﾎ_ﾙﾄ
100
AcDbLine
 10
372.8038001650222
 20
95.97386798919108
 30
0.0
 11
372.8027282351373
 21
100.8738678719423
 31
0.0
  0
LINE
  5
173D3
330
18
100
AcDbEntity
  8
ｷｬｯﾌ_ﾎ_ﾙﾄ
100
AcDbLine
 10
373.6040298451405
 20
94.92404302327637
 30
0.0
 11
373.6024985167334
 21
101.9240428557786
 31
0.0
  0
LINE
  5
173D4
330
18
100
AcDbEntity
  8
ｷｬｯﾌ_ﾎ_ﾙﾄ
100
AcDbLine
 10
373.1040298571051
 20
94.92393364267583
 30
0.0
 11
373.102498528698
 21
101.9239334751782
 31
0.0
  0
LINE
  5
173D5
330
18
100
AcDbEntity
  8
ｷｬｯﾌ_ﾎ_ﾙﾄ
100
AcDbLine
 10
373.102498528698
 20
101.9239334751782
 30
0.0
 11
372.8027282351373
 21
100.8738678719423
 31
0.0
  0
LINE
  5
173D6
330
18
100
AcDbEntity
  8
ｷｬｯﾌ_ﾎ_ﾙﾄ
100
AcDbLine
 10
373.102498528698
 20
101.9239334751782
 30
0.0
 11
373.6024985167334
 21
101.9240428557786
 31
0.0
  0
LINE
  5
173D7
330
18
100
AcDbEntity
  8
中心線
100
AcDbLine
 10
369.2587579690751
 20
98.42309253010805
 30
0.0
 11
381.0876246233295
 21
98.42568022724613
 31
0.0
  0
LINE
  5
173D8
330
18
100
AcDbEntity
  8
ｷｬｯﾌ_ﾎ_ﾙﾄ
100
AcDbLine
 10
373.1040298571051
 20
94.92393364267583
 30
0.0
 11
373.6040298451405
 21
94.92404302327637
 31
0.0
  0
LINE
  5
173D9
330
18
100
AcDbEntity
  8
ｷｬｯﾌ_ﾎ_ﾙﾄ
100
AcDbLine
 10
373.1040298571051
 20
94.92393364267583
 30
0.0
 11
372.8038001650222
 21
95.97386798919108
 31
0.0
  0
CIRCLE
  5
17437
330
18
100
AcDbEntity
  8
0
100
AcDbCircle
 10
695.6109227830896
 20
182.9460664683555
 30
0.0
 40
4.5
  0
CIRCLE
  5
17439
330
18
100
AcDbEntity
  8
0
100
AcDbCircle
 10
695.6109227830896
 20
182.9460664683555
 30
0.0
 40
5.2
  0
CIRCLE
  5
1743A
330
18
100
AcDbEntity
  8
0
100
AcDbCircle
 10
695.6109227830896
 20
182.9460664683555
 30
0.0
 40
9.5
  0
LWPOLYLINE
  5
1743B
330
18
100
AcDbEntity
  8
0
100
AcDbPolyline
 90
       12
 70
   129
 43
0.0
 10
700.0830587380894
 20
173.4460664683554
 42
0.0418357922730061
 10
701.6020961415414
 20
174.3230831221476
 10
706.0742320965414
 20
182.0690498145633
 42
0.041835792273005
 10
706.0742320965418
 20
183.8230831221478
 10
701.602096141542
 20
191.5690498145626
 42
0.0418357922730106
 10
700.0830587380894
 20
192.4460664683549
 10
691.1387868280902
 20
192.4460664683554
 42
0.0418357922730243
 10
689.6197494246373
 20
191.5690498145626
 10
685.1476134696375
 20
183.8230831221478
 42
0.041835792273011
 10
685.1476134696375
 20
182.069049814563
 10
689.6197494246373
 20
174.3230831221478
 42
0.0418357922730047
 10
691.1387868280894
 20
173.4460664683556
  0
HATCH
  5
1743C
330
18
100
AcDbEntity
  8
0
100
AcDbHatch
 10
0.0
 20
0.0
 30
0.0
210
0.0
220
0.0
230
1.0
  2
SOLID
 70
     1
 71
     0
 91
        2
 92
        7
 72
     1
 73
     1
 93
        3
 10
695.6109227830896
 20
185.4460664683555
 42
0.0
 10
695.6109227830896
 20
182.9460664683555
 42
0.0
 10
698.1109227830894
 20
182.9460664683555
 42
0.4142135623730919
 97
        0
 92
        7
 72
     1
 73
     1
 93
        3
 10
695.6109227830897
 20
182.9460664683555
 42
0.0
 10
693.1109227830894
 20
182.9460664683555
 42
0.4142135623730951
 10
695.6109227830896
 20
180.4460664683555
 42
0.0
 97
        0
 75
     0
 76
     1
 47
0.0576142688807724
 98
        2
 10
696.9928888440011
 20
183.7755349889915
 10
695.2637301344479
 20
182.1047210492513
  0
CIRCLE
  5
1743D
330
18
100
AcDbEntity
  8
0
100
AcDbCircle
 10
695.6109227830896
 20
182.9460664683555
 30
0.0
 40
2.5
  0
CIRCLE
  5
1744A
330
18
100
AcDbEntity
  8
0
100
AcDbCircle
 10
160.5575552403886
 20
182.9221438043553
 30
0.0
 40
88.9
  0
LINE
  5
17477
330
18
100
AcDbEntity
  8
0
100
AcDbLine
 10
429.303264180937
 20
193.4460664683583
 30
0.0
 11
429.303264180937
 21
172.4460664683583
 31
0.0
  0
LINE
  5
17478
330
18
100
AcDbEntity
  8
0
100
AcDbLine
 10
442.8032641809375
 20
188.9372398268104
 30
0.0
 11
442.8032641809375
 21
187.418202423358
 31
0.0
  0
LINE
  5
17479
330
18
100
AcDbEntity
  8
0
100
AcDbLine
 10
447.3032641809375
 20
188.1746378969305
 30
0.0
 11
447.3032641809375
 21
177.7174950397861
 31
0.0
  0
LINE
  5
1747A
330
18
100
AcDbEntity
  8
0
100
AcDbLine
 10
431.8032641809375
 20
193.4460664683583
 30
0.0
 11
431.8032641809375
 21
172.4460664683583
 31
0.0
  0
LINE
  5
1747B
330
18
100
AcDbEntity
  8
0
100
AcDbLine
 10
436.8032641809373
 20
193.4460664683583
 30
0.0
 11
436.8032641809373
 21
172.4460664683583
 31
0.0
  0
LINE
  5
1747C
330
18
100
AcDbEntity
  8
0
100
AcDbLine
 10
433.8032641809375
 20
192.4460664683583
 30
0.0
 11
433.8032641809375
 21
173.4460664683583
 31
0.0
  0
LINE
  5
1747D
330
18
100
AcDbEntity
  8
0
100
AcDbLine
 10
443.8032641809368
 20
192.2746378969295
 30
0.0
 11
443.8032641809375
 21
173.6174950397871
 31
0.0
  0
LINE
  5
1747E
330
18
100
AcDbEntity
  8
0
100
AcDbLine
 10
436.8032641809373
 20
187.418202423358
 30
0.0
 11
442.8032641809375
 21
187.418202423358
 31
0.0
  0
LINE
  5
1747F
330
18
100
AcDbEntity
  8
0
100
AcDbLine
 10
442.8032641809375
 20
178.4739305133589
 30
0.0
 11
436.8032641809373
 21
178.4739305133589
 31
0.0
  0
LINE
  5
17480
330
18
100
AcDbEntity
  8
0
100
AcDbLine
 10
442.8032641809375
 20
176.9548931099063
 30
0.0
 11
436.8032641809373
 21
176.9548931099063
 31
0.0
  0
LINE
  5
17481
330
18
100
AcDbEntity
  8
0
100
AcDbLine
 10
436.8032641809373
 20
172.4460664683583
 30
0.0
 11
442.803264180937
 21
172.4460664683583
 31
0.0
  0
LINE
  5
17482
330
18
100
AcDbEntity
  8
0
100
AcDbLine
 10
433.8032641809375
 20
173.4460664683583
 30
0.0
 11
436.8032641809373
 21
173.4460664683583
 31
0.0
  0
LINE
  5
17483
330
18
100
AcDbEntity
  8
0
100
AcDbLine
 10
431.8032641809375
 20
178.4739305133589
 30
0.0
 11
429.303264180937
 21
178.4739305133589
 31
0.0
  0
LINE
  5
17484
330
18
100
AcDbEntity
  8
0
100
AcDbLine
 10
429.303264180937
 20
172.4460664683583
 30
0.0
 11
431.8032641809375
 21
172.4460664683583
 31
0.0
  0
LINE
  5
17485
330
18
100
AcDbEntity
  8
0
100
AcDbLine
 10
431.8032641809375
 20
176.9548931099063
 30
0.0
 11
429.303264180937
 21
176.9548931099063
 31
0.0
  0
LINE
  5
17486
330
18
100
AcDbEntity
  8
0
100
AcDbLine
 10
431.8032641809375
 20
175.5460664683578
 30
0.0
 11
433.8032641809375
 21
175.5460664683578
 31
0.0
  0
LINE
  5
17487
330
18
100
AcDbEntity
  8
0
100
AcDbLine
 10
429.303264180937
 20
187.418202423358
 30
0.0
 11
431.8032641809375
 21
187.418202423358
 31
0.0
  0
ARC
  5
17488
330
18
100
AcDbEntity
  8
0
100
AcDbCircle
 10
433.3032641809372
 20
182.9460664683583
 30
0.0
 40
10.50000000000042
100
AcDbArc
 50
334.7912347032376
 51
25.2087652967624
  0
LINE
  5
17489
330
18
100
AcDbEntity
  8
0
100
AcDbLine
 10
442.803264180937
 20
172.4460664683583
 30
0.0
 11
447.3032641809375
 21
177.7174950397861
 31
0.0
  0
ARC
  5
1748A
330
18
100
AcDbEntity
  8
0
100
AcDbCircle
 10
434.8294676633681
 20
172.7471512817683
 30
0.0
 40
9.015903847971632
100
AcDbArc
 50
5.539633318506221
 51
27.8204388558387
  0
LINE
  5
1748B
330
18
100
AcDbEntity
  8
0
100
AcDbLine
 10
442.8032641809375
 20
178.4739305133589
 30
0.0
 11
442.8032641809375
 21
176.9548931099063
 31
0.0
  0
LINE
  5
1748C
330
18
100
AcDbEntity
  8
0
100
AcDbLine
 10
436.8032641809373
 20
193.4460664683583
 30
0.0
 11
442.8032641809375
 21
193.4460664683583
 31
0.0
  0
LINE
  5
1748D
330
18
100
AcDbEntity
  8
0
100
AcDbLine
 10
436.8032641809373
 20
188.9372398268104
 30
0.0
 11
442.8032641809375
 21
188.9372398268104
 31
0.0
  0
LINE
  5
1748E
330
18
100
AcDbEntity
  8
0
100
AcDbLine
 10
433.8032641809375
 20
192.4460664683583
 30
0.0
 11
436.8032641809373
 21
192.4460664683583
 31
0.0
  0
LINE
  5
1748F
330
18
100
AcDbEntity
  8
0
100
AcDbLine
 10
429.303264180937
 20
193.4460664683583
 30
0.0
 11
431.8032641809375
 21
193.4460664683583
 31
0.0
  0
LINE
  5
17490
330
18
100
AcDbEntity
  8
0
100
AcDbLine
 10
429.303264180937
 20
188.9372398268104
 30
0.0
 11
431.8032641809375
 21
188.9372398268104
 31
0.0
  0
LINE
  5
17491
330
18
100
AcDbEntity
  8
0
100
AcDbLine
 10
431.8032641809375
 20
190.346066468358
 30
0.0
 11
433.8032641809375
 21
190.346066468358
 31
0.0
  0
LINE
  5
17492
330
18
100
AcDbEntity
  8
0
100
AcDbLine
 10
442.803264180937
 20
193.4460664683583
 30
0.0
 11
447.3032641809375
 21
188.1746378969305
 31
0.0
  0
ARC
  5
17493
330
18
100
AcDbEntity
  8
0
100
AcDbCircle
 10
434.8294676633681
 20
193.1449816549484
 30
0.0
 40
9.015903847971632
100
AcDbArc
 50
332.1795611441612
 51
354.4603666814936
  0
ARC
  5
1751F
330
18
100
AcDbEntity
  8
0
100
AcDbCircle
 10
492.9081587174239
 20
162.9460664683586
 30
0.0
 40
22.1
100
AcDbArc
 50
0.0
 51
90.0
  0
ARC
  5
17520
330
18
100
AcDbEntity
  8
0
100
AcDbCircle
 10
492.9081587174239
 20
162.9460664683586
 30
0.0
 40
17.9
100
AcDbArc
 50
0.0
 51
90.0
  0
CIRCLE
  5
17652
330
18
100
AcDbEntity
  8
細線
100
AcDbCircle
 10
148.7165839269485
 20
227.1132503570802
 30
0.0
 40
1.499999999999943
  0
CIRCLE
  5
17653
330
18
100
AcDbEntity
  8
細線
100
AcDbCircle
 10
148.7165839269485
 20
227.1132503570802
 30
0.0
 40
1.124999999999942
  0
CIRCLE
  5
17654
330
18
100
AcDbEntity
  8
細線
100
AcDbCircle
 10
128.2074200011045
 20
215.2722790436399
 30
0.0
 40
1.499999999999943
  0
CIRCLE
  5
17655
330
18
100
AcDbEntity
  8
細線
100
AcDbCircle
 10
128.2074200011045
 20
215.2722790436399
 30
0.0
 40
1.124999999999942
  0
CIRCLE
  5
17656
330
18
100
AcDbEntity
  8
細線
100
AcDbCircle
 10
116.3664486876643
 20
194.7631151177954
 30
0.0
 40
1.499999999999943
  0
CIRCLE
  5
17657
330
18
100
AcDbEntity
  8
細線
100
AcDbCircle
 10
116.3664486876643
 20
194.7631151177954
 30
0.0
 40
1.124999999999942
  0
CIRCLE
  5
17658
330
18
100
AcDbEntity
  8
細線
100
AcDbCircle
 10
116.3664486876645
 20
171.0811724909151
 30
0.0
 40
1.499999999999943
  0
CIRCLE
  5
17659
330
18
100
AcDbEntity
  8
細線
100
AcDbCircle
 10
116.3664486876645
 20
171.0811724909151
 30
0.0
 40
1.124999999999942
  0
CIRCLE
  5
1765A
330
18
100
AcDbEntity
  8
細線
100
AcDbCircle
 10
128.2074200011049
 20
150.5720085650709
 30
0.0
 40
1.499999999999943
  0
CIRCLE
  5
1765B
330
18
100
AcDbEntity
  8
細線
100
AcDbCircle
 10
128.2074200011049
 20
150.5720085650709
 30
0.0
 40
1.124999999999942
  0
CIRCLE
  5
1765C
330
18
100
AcDbEntity
  8
細線
100
AcDbCircle
 10
148.7165839269491
 20
138.7310372516308
 30
0.0
 40
1.499999999999943
  0
CIRCLE
  5
1765D
330
18
100
AcDbEntity
  8
細線
100
AcDbCircle
 10
148.7165839269491
 20
138.7310372516308
 30
0.0
 40
1.124999999999942
  0
CIRCLE
  5
1765E
330
18
100
AcDbEntity
  8
細線
100
AcDbCircle
 10
172.3985265538297
 20
138.731037251631
 30
0.0
 40
1.499999999999943
  0
CIRCLE
  5
1765F
330
18
100
AcDbEntity
  8
細線
100
AcDbCircle
 10
172.3985265538297
 20
138.731037251631
 30
0.0
 40
1.124999999999942
  0
CIRCLE
  5
17660
330
18
100
AcDbEntity
  8
細線
100
AcDbCircle
 10
192.9076904796738
 20
150.5720085650714
 30
0.0
 40
1.499999999999943
  0
CIRCLE
  5
17661
330
18
100
AcDbEntity
  8
細線
100
AcDbCircle
 10
192.9076904796738
 20
150.5720085650714
 30
0.0
 40
1.124999999999942
  0
CIRCLE
  5
17662
330
18
100
AcDbEntity
  8
細線
100
AcDbCircle
 10
204.7486617931139
 20
171.0811724909157
 30
0.0
 40
1.499999999999943
  0
CIRCLE
  5
17663
330
18
100
AcDbEntity
  8
細線
100
AcDbCircle
 10
204.7486617931139
 20
171.0811724909157
 30
0.0
 40
1.124999999999942
  0
CIRCLE
  5
17664
330
18
100
AcDbEntity
  8
細線
100
AcDbCircle
 10
204.7486617931137
 20
194.7631151177961
 30
0.0
 40
1.499999999999943
  0
CIRCLE
  5
17665
330
18
100
AcDbEntity
  8
細線
100
AcDbCircle
 10
204.7486617931137
 20
194.7631151177961
 30
0.0
 40
1.124999999999942
  0
CIRCLE
  5
17666
330
18
100
AcDbEntity
  8
細線
100
AcDbCircle
 10
192.9076904796733
 20
215.2722790436403
 30
0.0
 40
1.499999999999943
  0
CIRCLE
  5
17667
330
18
100
AcDbEntity
  8
細線
100
AcDbCircle
 10
192.9076904796733
 20
215.2722790436403
 30
0.0
 40
1.124999999999942
  0
CIRCLE
  5
17668
330
18
100
AcDbEntity
  8
0
100
AcDbCircle
 10
182.057555240388
 20
145.6830514416246
 30
0.0
 40
1.875
  0
CIRCLE
  5
17669
330
18
100
AcDbEntity
  8
細線
100
AcDbCircle
 10
182.057555240388
 20
145.6830514416246
 30
0.0
 40
2.5
  0
CIRCLE
  5
1767A
330
18
100
AcDbEntity
  8
細線
100
AcDbCircle
 10
100.8070322301255
 20
242.6726668146184
 30
0.0
 40
3.5
  0
ARC
  5
1767B
330
18
100
AcDbEntity
  8
細線
100
AcDbCircle
 10
101.5707075538069
 20
241.908991490937
 30
0.0
 40
0.5
100
AcDbArc
 50
87.34638766282468
 51
182.6536123371758
  0
ARC
  5
1767C
330
18
100
AcDbEntity
  8
細線
100
AcDbCircle
 10
100.0433569064439
 20
243.4363421383
 30
0.0
 40
0.5
100
AcDbArc
 50
267.3463876628246
 51
2.653612337175879
  0
ARC
  5
1767D
330
18
100
AcDbEntity
  8
細線
100
AcDbCircle
 10
100.5275076614144
 20
241.6294669222263
 30
0.0
 40
0.5
100
AcDbArc
 50
27.34638766282369
 51
122.6536123371762
  0
ARC
  5
1767E
330
18
100
AcDbEntity
  8
細線
100
AcDbCircle
 10
101.8502321225175
 20
242.952191383329
 30
0.0
 40
0.5
100
AcDbArc
 50
147.3463876628251
 51
242.6536123371759
  0
ARC
  5
1767F
330
18
100
AcDbEntity
  8
細線
100
AcDbCircle
 10
99.76383233773336
 20
242.3931422459078
 30
0.0
 40
0.5
100
AcDbArc
 50
327.3463876628251
 51
62.65361233717623
  0
ARC
  5
17680
330
18
100
AcDbEntity
  8
細線
100
AcDbCircle
 10
101.0865567988362
 20
243.7158667070105
 30
0.0
 40
0.5
100
AcDbArc
 50
207.3463876628236
 51
302.6536123371763
  0
CIRCLE
  5
17681
330
18
100
AcDbEntity
  8
細線
100
AcDbCircle
 10
100.8070322301255
 20
242.6726668146184
 30
0.0
 40
0.8299999999999998
  0
CIRCLE
  5
17682
330
18
100
AcDbEntity
  8
細線
100
AcDbCircle
 10
76.05755524038915
 20
182.922143804355
 30
0.0
 40
3.5
  0
ARC
  5
17683
330
18
100
AcDbEntity
  8
細線
100
AcDbCircle
 10
77.13755524038913
 20
182.922143804355
 30
0.0
 40
0.5
100
AcDbArc
 50
132.3463876628244
 51
227.6536123371759
  0
ARC
  5
17684
330
18
100
AcDbEntity
  8
細線
100
AcDbCircle
 10
74.97755524038911
 20
182.922143804355
 30
0.0
 40
0.5
100
AcDbArc
 50
312.3463876628246
 51
47.65361233717587
  0
ARC
  5
17685
330
18
100
AcDbEntity
  8
細線
100
AcDbCircle
 10
76.59755524038911
 20
181.9868363682678
 30
0.0
 40
0.5
100
AcDbArc
 50
72.34638766282369
 51
167.6536123371761
  0
ARC
  5
17686
330
18
100
AcDbEntity
  8
細線
100
AcDbCircle
 10
76.59755524038917
 20
183.8574512404423
 30
0.0
 40
0.5
100
AcDbArc
 50
192.3463876628252
 51
287.6536123371761
  0
ARC
  5
17687
330
18
100
AcDbEntity
  8
細線
100
AcDbCircle
 10
75.51755524038913
 20
181.9868363682678
 30
0.0
 40
0.5
100
AcDbArc
 50
12.34638766282526
 51
107.6536123371762
  0
ARC
  5
17688
330
18
100
AcDbEntity
  8
細線
100
AcDbCircle
 10
75.51755524038913
 20
183.8574512404422
 30
0.0
 40
0.5
100
AcDbArc
 50
252.3463876628237
 51
347.6536123371761
  0
CIRCLE
  5
17689
330
18
100
AcDbEntity
  8
細線
100
AcDbCircle
 10
76.05755524038915
 20
182.922143804355
 30
0.0
 40
0.8299999999999998
  0
CIRCLE
  5
1768A
330
18
100
AcDbEntity
  8
細線
100
AcDbCircle
 10
100.8070322301262
 20
123.1716207940921
 30
0.0
 40
3.5
  0
ARC
  5
1768B
330
18
100
AcDbEntity
  8
細線
100
AcDbCircle
 10
101.5707075538076
 20
123.9352961177734
 30
0.0
 40
0.5
100
AcDbArc
 50
177.3463876628245
 51
272.6536123371758
  0
ARC
  5
1768C
330
18
100
AcDbEntity
  8
細線
100
AcDbCircle
 10
100.0433569064447
 20
122.4079454704106
 30
0.0
 40
0.5
100
AcDbArc
 50
357.3463876628246
 51
92.65361233717589
  0
ARC
  5
1768D
330
18
100
AcDbEntity
  8
細線
100
AcDbCircle
 10
101.8502321225184
 20
122.8920962253812
 30
0.0
 40
0.5
100
AcDbArc
 50
117.3463876628235
 51
212.6536123371761
  0
ARC
  5
1768E
330
18
100
AcDbEntity
  8
細線
100
AcDbCircle
 10
100.5275076614154
 20
124.2148206864843
 30
0.0
 40
0.5
100
AcDbArc
 50
237.3463876628252
 51
332.6536123371762
  0
ARC
  5
1768F
330
18
100
AcDbEntity
  8
細線
100
AcDbCircle
 10
101.0865567988368
 20
122.1284209016999
 30
0.0
 40
0.5
100
AcDbArc
 50
57.34638766282518
 51
152.6536123371759
  0
ARC
  5
17690
330
18
100
AcDbEntity
  8
細線
100
AcDbCircle
 10
99.76383233773404
 20
123.4511453628026
 30
0.0
 40
0.5
100
AcDbArc
 50
297.3463876628236
 51
32.65361233717625
  0
CIRCLE
  5
17691
330
18
100
AcDbEntity
  8
細線
100
AcDbCircle
 10
100.8070322301262
 20
123.1716207940921
 30
0.0
 40
0.8299999999999998
  0
CIRCLE
  5
17692
330
18
100
AcDbEntity
  8
細線
100
AcDbCircle
 10
160.5575552403896
 20
98.42214380435564
 30
0.0
 40
3.5
  0
ARC
  5
17693
330
18
100
AcDbEntity
  8
細線
100
AcDbCircle
 10
160.5575552403896
 20
99.50214380435561
 30
0.0
 40
0.5
100
AcDbArc
 50
222.3463876628245
 51
317.6536123371758
  0
ARC
  5
17694
330
18
100
AcDbEntity
  8
細線
100
AcDbCircle
 10
160.5575552403896
 20
97.3421438043556
 30
0.0
 40
0.5
100
AcDbArc
 50
42.34638766282468
 51
137.6536123371757
  0
ARC
  5
17695
330
18
100
AcDbEntity
  8
細線
100
AcDbCircle
 10
161.4928626764768
 20
98.9621438043556
 30
0.0
 40
0.5
100
AcDbArc
 50
162.3463876628234
 51
257.6536123371762
  0
ARC
  5
17696
330
18
100
AcDbEntity
  8
細線
100
AcDbCircle
 10
159.6222478043021
 20
98.96214380435564
 30
0.0
 40
0.5
100
AcDbArc
 50
282.3463876628252
 51
17.65361233717619
  0
ARC
  5
17697
330
18
100
AcDbEntity
  8
細線
100
AcDbCircle
 10
161.4928626764766
 20
97.88214380435562
 30
0.0
 40
0.5
100
AcDbArc
 50
102.3463876628252
 51
197.6536123371761
  0
ARC
  5
17698
330
18
100
AcDbEntity
  8
細線
100
AcDbCircle
 10
159.6222478043024
 20
97.88214380435562
 30
0.0
 40
0.5
100
AcDbArc
 50
342.3463876628237
 51
77.65361233717626
  0
CIRCLE
  5
17699
330
18
100
AcDbEntity
  8
細線
100
AcDbCircle
 10
160.5575552403896
 20
98.42214380435564
 30
0.0
 40
0.8299999999999998
  0
CIRCLE
  5
1769A
330
18
100
AcDbEntity
  8
細線
100
AcDbCircle
 10
220.3080782506527
 20
123.1716207940927
 30
0.0
 40
3.5
  0
ARC
  5
1769B
330
18
100
AcDbEntity
  8
細線
100
AcDbCircle
 10
219.5444029269713
 20
123.9352961177739
 30
0.0
 40
0.5
100
AcDbArc
 50
267.3463876628246
 51
2.653612337175863
  0
ARC
  5
1769C
330
18
100
AcDbEntity
  8
細線
100
AcDbCircle
 10
221.0717535743341
 20
122.4079454704112
 30
0.0
 40
0.5
100
AcDbArc
 50
87.34638766282463
 51
182.6536123371758
  0
ARC
  5
1769D
330
18
100
AcDbEntity
  8
細線
100
AcDbCircle
 10
220.5876028193634
 20
124.2148206864849
 30
0.0
 40
0.5
100
AcDbArc
 50
207.3463876628236
 51
302.6536123371761
  0
ARC
  5
1769E
330
18
100
AcDbEntity
  8
細線
100
AcDbCircle
 10
219.2648783582604
 20
122.8920962253819
 30
0.0
 40
0.5
100
AcDbArc
 50
327.3463876628251
 51
62.65361233717623
  0
ARC
  5
1769F
330
18
100
AcDbEntity
  8
細線
100
AcDbCircle
 10
221.3512781430448
 20
123.4511453628032
 30
0.0
 40
0.5
100
AcDbArc
 50
147.3463876628251
 51
242.6536123371759
  0
ARC
  5
176A0
330
18
100
AcDbEntity
  8
細線
100
AcDbCircle
 10
220.028553681942
 20
122.1284209017005
 30
0.0
 40
0.5
100
AcDbArc
 50
27.34638766282374
 51
122.6536123371762
  0
CIRCLE
  5
176A1
330
18
100
AcDbEntity
  8
細線
100
AcDbCircle
 10
220.3080782506527
 20
123.1716207940927
 30
0.0
 40
0.8299999999999998
  0
CIRCLE
  5
176A2
330
18
100
AcDbEntity
  8
細線
100
AcDbCircle
 10
245.0575552403889
 20
182.922143804356
 30
0.0
 40
3.5
  0
ARC
  5
176A3
330
18
100
AcDbEntity
  8
細線
100
AcDbCircle
 10
243.9775552403891
 20
182.922143804356
 30
0.0
 40
0.5
100
AcDbArc
 50
312.3463876628246
 51
47.65361233717579
  0
ARC
  5
176A4
330
18
100
AcDbEntity
  8
細線
100
AcDbCircle
 10
246.137555240389
 20
182.922143804356
 30
0.0
 40
0.5
100
AcDbArc
 50
132.3463876628244
 51
227.6536123371756
  0
ARC
  5
176A5
330
18
100
AcDbEntity
  8
細線
100
AcDbCircle
 10
244.517555240389
 20
183.8574512404429
 30
0.0
 40
0.5
100
AcDbArc
 50
252.3463876628234
 51
347.6536123371761
  0
ARC
  5
176A6
330
18
100
AcDbEntity
  8
細線
100
AcDbCircle
 10
244.517555240389
 20
181.9868363682688
 30
0.0
 40
0.5
100
AcDbArc
 50
12.34638766282518
 51
107.653612337176
  0
ARC
  5
176A7
330
18
100
AcDbEntity
  8
細線
100
AcDbCircle
 10
245.5975552403891
 20
183.8574512404429
 30
0.0
 40
0.5
100
AcDbArc
 50
192.3463876628251
 51
287.6536123371761
  0
ARC
  5
176A8
330
18
100
AcDbEntity
  8
細線
100
AcDbCircle
 10
245.5975552403891
 20
181.9868363682688
 30
0.0
 40
0.5
100
AcDbArc
 50
72.3463876628237
 51
167.6536123371761
  0
CIRCLE
  5
176A9
330
18
100
AcDbEntity
  8
細線
100
AcDbCircle
 10
245.0575552403889
 20
182.922143804356
 30
0.0
 40
0.8299999999999998
  0
CIRCLE
  5
176AA
330
18
100
AcDbEntity
  8
細線
100
AcDbCircle
 10
220.308078250652
 20
242.6726668146192
 30
0.0
 40
3.5
  0
ARC
  5
176AB
330
18
100
AcDbEntity
  8
細線
100
AcDbCircle
 10
219.5444029269705
 20
241.9089914909377
 30
0.0
 40
0.5
100
AcDbArc
 50
357.3463876628246
 51
92.65361233717579
  0
ARC
  5
176AC
330
18
100
AcDbEntity
  8
細線
100
AcDbCircle
 10
221.0717535743334
 20
243.4363421383006
 30
0.0
 40
0.5
100
AcDbArc
 50
177.3463876628245
 51
272.6536123371756
  0
ARC
  5
176AD
330
18
100
AcDbEntity
  8
細線
100
AcDbCircle
 10
219.2648783582598
 20
242.9521913833298
 30
0.0
 40
0.5
100
AcDbArc
 50
297.3463876628236
 51
32.65361233717618
  0
ARC
  5
176AE
330
18
100
AcDbEntity
  8
細線
100
AcDbCircle
 10
220.5876028193628
 20
241.6294669222268
 30
0.0
 40
0.5
100
AcDbArc
 50
57.3463876628252
 51
152.6536123371759
  0
ARC
  5
176AF
330
18
100
AcDbEntity
  8
細線
100
AcDbCircle
 10
220.0285536819414
 20
243.7158667070113
 30
0.0
 40
0.5
100
AcDbArc
 50
237.346387662825
 51
332.6536123371761
  0
ARC
  5
176B0
330
18
100
AcDbEntity
  8
細線
100
AcDbCircle
 10
221.3512781430443
 20
242.3931422459085
 30
0.0
 40
0.5
100
AcDbArc
 50
117.3463876628235
 51
212.6536123371761
  0
CIRCLE
  5
176B1
330
18
100
AcDbEntity
  8
細線
100
AcDbCircle
 10
220.308078250652
 20
242.6726668146192
 30
0.0
 40
0.8299999999999998
  0
LINE
  5
17986
330
18
100
AcDbEntity
  8
0
100
AcDbLine
 10
408.3032641809371
 20
271.8460673267063
 30
0.0
 11
408.3032641809371
 21
182.9460664683582
 31
0.0
  0
LINE
  5
1798D
330
18
100
AcDbEntity
  8
0
100
AcDbLine
 10
408.3032641809372
 20
271.8460673267063
 30
0.0
 11
425.803263465342
 21
271.8460673267064
 31
0.0
  0
LINE
  5
1798E
330
18
100
AcDbEntity
  8
0
100
AcDbLine
 10
408.3032641809371
 20
271.8460664683588
 30
0.0
 11
415.8032650392922
 21
271.8460664683586
 31
0.0
  0
LINE
  5
1798F
330
18
100
AcDbEntity
  8
0
100
AcDbLine
 10
408.3032641809371
 20
271.8460664683578
 30
0.0
 11
415.803265039293
 21
271.8460664683579
 31
0.0
  0
LINE
  5
17991
330
18
100
AcDbEntity
  8
0
100
AcDbLine
 10
408.303264180937
 20
94.04606561001031
 30
0.0
 11
425.803263465342
 21
94.04606561001015
 31
0.0
  0
LINE
  5
17992
330
18
100
AcDbEntity
  8
0
100
AcDbLine
 10
408.303264180937
 20
94.04606646835786
 30
0.0
 11
415.8032650392922
 21
94.04606646835802
 31
0.0
  0
LINE
  5
1799E
330
18
100
AcDbEntity
  8
0
100
AcDbLine
 10
447.3032641809374
 20
180.8460664683573
 30
0.0
 11
492.9081587174237
 21
180.8460664683584
 31
0.0
  0
LINE
  5
1799F
330
18
100
AcDbEntity
  8
0
100
AcDbLine
 10
447.3032641809374
 20
185.0460664683574
 30
0.0
 11
492.9081587174236
 21
185.0460664683579
 31
0.0
  0
LINE
  5
17BBE
330
18
100
AcDbEntity
  8
0
100
AcDbLine
 10
408.3032641809372
 20
182.9460664683583
 30
0.0
 11
408.303264180937
 21
94.04606561001031
 31
0.0
  0
ARC
  5
17BF0
330
18
100
AcDbEntity
  8
中心線
100
AcDbCircle
 10
663.1109227830882
 20
182.9460664683565
 30
0.0
 40
32.5
100
AcDbArc
 50
61.31917984661849
 51
113.7188429293199
  0
ARC
  5
17BF1
330
18
100
AcDbEntity
  8
中心線
100
AcDbCircle
 10
663.1109227830882
 20
182.9460664683565
 30
0.0
 40
32.5
100
AcDbArc
 50
336.2200147353108
 51
23.6963954986502
  0
LINE
  5
17D79
330
18
100
AcDbEntity
  8
0
100
AcDbLine
 10
407.8032641809371
 20
271.8460673267063
 30
0.0
 11
407.803264180937
 21
182.9460664683582
 31
0.0
  0
LINE
  5
17D7A
330
18
100
AcDbEntity
  8
0
100
AcDbLine
 10
407.8032641809371
 20
182.9460664683583
 30
0.0
 11
407.803264180937
 21
94.04606561001031
 31
0.0
  0
LINE
  5
17D7C
330
18
100
AcDbEntity
  8
0
100
AcDbLine
 10
407.8032641809371
 20
271.8460664683578
 30
0.0
 11
408.3032641809371
 21
271.3460664683578
 31
0.0
  0
LINE
  5
17D7D
330
18
100
AcDbEntity
  8
0
100
AcDbLine
 10
407.8032641809387
 20
94.04606646835864
 30
0.0
 11
408.3032641809387
 21
94.54606646835863
 31
0.0
  0
CIRCLE
  5
17D7F
102
{ACAD_REACTORS
330
17D87
102
}
330
18
100
AcDbEntity
  8
細線
100
AcDbCircle
 10
676.9627385877787
 20
221.0036176101848
 30
0.0
 40
3.5
  0
ARC
  5
17D80
102
{ACAD_REACTORS
330
17D87
102
}
330
18
100
AcDbEntity
  8
細線
100
AcDbCircle
 10
676.9627385877787
 20
222.0836176101848
 30
0.0
 40
0.5
100
AcDbArc
 50
222.3463876628245
 51
317.6536123371758
  0
CIRCLE
  5
17D81
102
{ACAD_REACTORS
330
17D87
102
}
330
18
100
AcDbEntity
  8
細線
100
AcDbCircle
 10
676.9627385877787
 20
221.0036176101848
 30
0.0
 40
0.8299999999999998
  0
ARC
  5
17D82
102
{ACAD_REACTORS
330
17D87
102
}
330
18
100
AcDbEntity
  8
細線
100
AcDbCircle
 10
677.8980460238657
 20
221.5436176101848
 30
0.0
 40
0.5
100
AcDbArc
 50
162.3463876628234
 51
257.6536123371762
  0
ARC
  5
17D83
102
{ACAD_REACTORS
330
17D87
102
}
330
18
100
AcDbEntity
  8
細線
100
AcDbCircle
 10
676.0274311516915
 20
221.5436176101848
 30
0.0
 40
0.5
100
AcDbArc
 50
282.3463876628252
 51
17.65361233717619
  0
ARC
  5
17D84
102
{ACAD_REACTORS
330
17D87
102
}
330
18
100
AcDbEntity
  8
細線
100
AcDbCircle
 10
677.8980460238657
 20
220.4636176101848
 30
0.0
 40
0.5
100
AcDbArc
 50
102.3463876628252
 51
197.6536123371761
  0
ARC
  5
17D85
102
{ACAD_REACTORS
330
17D87
102
}
330
18
100
AcDbEntity
  8
細線
100
AcDbCircle
 10
676.0274311516915
 20
220.4636176101848
 30
0.0
 40
0.5
100
AcDbArc
 50
342.3463876628237
 51
77.65361233717626
  0
ARC
  5
17D86
102
{ACAD_REACTORS
330
17D87
102
}
330
18
100
AcDbEntity
  8
細線
100
AcDbCircle
 10
676.9627385877787
 20
219.9236176101848
 30
0.0
 40
0.5
100
AcDbArc
 50
42.34638766282468
 51
137.6536123371759
  0
CIRCLE
  5
17D88
102
{ACAD_REACTORS
330
17D90
102
}
330
18
100
AcDbEntity
  8
細線
100
AcDbCircle
 10
689.1438209753979
 20
151.9212665220394
 30
0.0
 40
3.5
  0
CIRCLE
  5
17D89
102
{ACAD_REACTORS
330
17D90
102
}
330
18
100
AcDbEntity
  8
細線
100
AcDbCircle
 10
689.1438209753979
 20
151.9212665220394
 30
0.0
 40
0.8299999999999998
  0
ARC
  5
17D8A
102
{ACAD_REACTORS
330
17D90
102
}
330
18
100
AcDbEntity
  8
細線
100
AcDbCircle
 10
690.0791284114851
 20
152.4612665220397
 30
0.0
 40
0.5
100
AcDbArc
 50
162.3463876628234
 51
257.6536123371762
  0
ARC
  5
17D8B
102
{ACAD_REACTORS
330
17D90
102
}
330
18
100
AcDbEntity
  8
細線
100
AcDbCircle
 10
688.2085135393107
 20
152.4612665220397
 30
0.0
 40
0.5
100
AcDbArc
 50
282.3463876628252
 51
17.65361233717619
  0
ARC
  5
17D8C
102
{ACAD_REACTORS
330
17D90
102
}
330
18
100
AcDbEntity
  8
細線
100
AcDbCircle
 10
690.0791284114851
 20
151.3812665220395
 30
0.0
 40
0.5
100
AcDbArc
 50
102.3463876628252
 51
197.6536123371761
  0
ARC
  5
17D8D
102
{ACAD_REACTORS
330
17D90
102
}
330
18
100
AcDbEntity
  8
細線
100
AcDbCircle
 10
688.2085135393107
 20
151.3812665220398
 30
0.0
 40
0.5
100
AcDbArc
 50
342.3463876628237
 51
77.65361233717626
  0
ARC
  5
17D8E
102
{ACAD_REACTORS
330
17D90
102
}
330
18
100
AcDbEntity
  8
細線
100
AcDbCircle
 10
689.1438209753979
 20
150.8412665220395
 30
0.0
 40
0.5
100
AcDbArc
 50
42.34638766282468
 51
137.6536123371759
  0
ARC
  5
17D8F
102
{ACAD_REACTORS
330
17D90
102
}
330
18
100
AcDbEntity
  8
細線
100
AcDbCircle
 10
689.1438209753979
 20
153.0012665220398
 30
0.0
 40
0.5
100
AcDbArc
 50
222.3463876628245
 51
317.6536123371758
  0
CIRCLE
  5
17D91
102
{ACAD_REACTORS
330
17D99
102
}
330
18
100
AcDbEntity
  8
細線
100
AcDbCircle
 10
623.2262087860946
 20
175.9133152728475
 30
0.0
 40
3.5
  0
CIRCLE
  5
17D92
102
{ACAD_REACTORS
330
17D99
102
}
330
18
100
AcDbEntity
  8
細線
100
AcDbCircle
 10
623.2262087860946
 20
175.9133152728475
 30
0.0
 40
0.8299999999999998
  0
ARC
  5
17D93
102
{ACAD_REACTORS
330
17D99
102
}
330
18
100
AcDbEntity
  8
細線
100
AcDbCircle
 10
624.1615162221818
 20
176.4533152728476
 30
0.0
 40
0.5
100
AcDbArc
 50
162.3463876628234
 51
257.6536123371762
  0
ARC
  5
17D94
102
{ACAD_REACTORS
330
17D99
102
}
330
18
100
AcDbEntity
  8
細線
100
AcDbCircle
 10
622.2909013500074
 20
176.4533152728476
 30
0.0
 40
0.5
100
AcDbArc
 50
282.3463876628252
 51
17.65361233717619
  0
ARC
  5
17D95
102
{ACAD_REACTORS
330
17D99
102
}
330
18
100
AcDbEntity
  8
細線
100
AcDbCircle
 10
624.1615162221818
 20
175.3733152728475
 30
0.0
 40
0.5
100
AcDbArc
 50
102.3463876628252
 51
197.6536123371761
  0
ARC
  5
17D96
102
{ACAD_REACTORS
330
17D99
102
}
330
18
100
AcDbEntity
  8
細線
100
AcDbCircle
 10
622.2909013500074
 20
175.3733152728476
 30
0.0
 40
0.5
100
AcDbArc
 50
342.3463876628237
 51
77.65361233717626
  0
ARC
  5
17D97
102
{ACAD_REACTORS
330
17D99
102
}
330
18
100
AcDbEntity
  8
細線
100
AcDbCircle
 10
623.2262087860946
 20
174.8333152728475
 30
0.0
 40
0.5
100
AcDbArc
 50
42.34638766282468
 51
137.6536123371759
  0
ARC
  5
17D98
102
{ACAD_REACTORS
330
17D99
102
}
330
18
100
AcDbEntity
  8
細線
100
AcDbCircle
 10
623.2262087860946
 20
176.9933152728475
 30
0.0
 40
0.5
100
AcDbArc
 50
222.3463876628245
 51
317.6536123371758
  0
LINE
  5
17E37
330
18
100
AcDbEntity
  8
0
100
AcDbLine
 10
509.7439307503395
 20
34.78437560254241
 30
0.0
 11
494.1439307503392
 21
34.78437560254332
 31
0.0
  0
LINE
  5
17E38
330
18
100
AcDbEntity
  8
0
100
AcDbLine
 10
508.743936803382
 20
20.58433050106776
 30
0.0
 11
495.1439368033823
 21
20.58433050106776
 31
0.0
  0
LINE
  5
17E39
330
18
100
AcDbEntity
  8
0
100
AcDbLine
 10
508.743936803382
 20
33.6843756025425
 30
0.0
 11
508.743936803382
 21
20.58433050106776
 31
0.0
  0
LINE
  5
17E3A
330
18
100
AcDbEntity
  8
0
100
AcDbLine
 10
509.7439307503395
 20
33.68437560254295
 30
0.0
 11
508.743936803382
 21
33.6843756025425
 31
0.0
  0
LINE
  5
17E3B
330
18
100
AcDbEntity
  8
0
100
AcDbLine
 10
509.7439307503395
 20
34.78437560254332
 30
0.0
 11
509.7439307503395
 21
33.68437560254387
 31
0.0
  0
LINE
  5
17E3C
330
18
100
AcDbEntity
  8
0
100
AcDbLine
 10
496.1189368033823
 20
11.08433050106728
 30
0.0
 11
496.1189368033823
 21
20.58433050106776
 31
0.0
  0
LINE
  5
17E3D
330
18
100
AcDbEntity
  8
0
100
AcDbLine
 10
507.7689368033825
 20
11.08433050106728
 30
0.0
 11
507.7689368033825
 21
20.58433050106776
 31
0.0
  0
LINE
  5
17E3E
330
18
100
AcDbEntity
  8
0
100
AcDbLine
 10
504.3189368033822
 20
11.08433050106728
 30
0.0
 11
504.3189368033822
 21
20.58433050106776
 31
0.0
  0
LINE
  5
17E3F
330
18
100
AcDbEntity
  8
0
100
AcDbLine
 10
503.6689368033826
 20
11.08433050106728
 30
0.0
 11
503.6689368033822
 21
20.58433050106776
 31
0.0
  0
LINE
  5
17E40
330
18
100
AcDbEntity
  8
0
100
AcDbLine
 10
500.2189368033823
 20
11.08433050106728
 30
0.0
 11
500.2189368033823
 21
20.58433050106776
 31
0.0
  0
LINE
  5
17E41
330
18
100
AcDbEntity
  8
0
100
AcDbLine
 10
499.5689368033827
 20
11.08433050106728
 30
0.0
 11
499.5689368033827
 21
20.58433050106776
 31
0.0
  0
LINE
  5
17E42
330
18
100
AcDbEntity
  8
0
100
AcDbLine
 10
499.5689368033827
 20
11.08433050106728
 30
0.0
 11
496.1189368033823
 21
11.08433050106728
 31
0.0
  0
LINE
  5
17E43
330
18
100
AcDbEntity
  8
0
100
AcDbLine
 10
507.7689368033825
 20
11.08433050106776
 30
0.0
 11
504.3189368033818
 21
11.08433050106728
 31
0.0
  0
LINE
  5
17E44
330
18
100
AcDbEntity
  8
0
100
AcDbLine
 10
503.6689368033826
 20
11.08433050106728
 30
0.0
 11
500.2189368033823
 21
11.08433050106728
 31
0.0
  0
LINE
  5
17E45
330
18
100
AcDbEntity
  8
0
100
AcDbLine
 10
495.1439368033823
 20
33.68437560254387
 30
0.0
 11
495.1439368033823
 21
20.58433050106776
 31
0.0
  0
ARC
  5
17E46
330
18
100
AcDbEntity
  8
0
100
AcDbCircle
 10
494.1575140173336
 20
22.68261621535307
 30
0.0
 40
0.4857142857142857
100
AcDbArc
 50
190.0000000000051
 51
270.000000000013
  0
ARC
  5
17E47
330
18
100
AcDbEntity
  8
0
100
AcDbCircle
 10
494.6582225176682
 20
22.68261621535351
 30
0.0
 40
0.4857142857142857
100
AcDbArc
 50
270.000000000013
 51
0.0
  0
LINE
  5
17E48
330
18
100
AcDbEntity
  8
0
100
AcDbLine
 10
491.7439368033823
 20
15.82433050106755
 30
0.0
 11
491.743936803382
 21
27.09290192963925
 31
0.0
  0
LINE
  5
17E49
330
18
100
AcDbEntity
  8
0
100
AcDbLine
 10
491.3262225176681
 20
17.69918764392485
 30
0.0
 11
491.3262225176681
 21
28.06433050106733
 31
0.0
  0
LINE
  5
17E4A
330
18
100
AcDbEntity
  8
0
100
AcDbLine
 10
495.1439368033823
 20
20.58433050106776
 30
0.0
 11
491.3262225176681
 21
20.58433050106776
 31
0.0
  0
LINE
  5
17E4B
330
18
100
AcDbEntity
  8
0
100
AcDbLine
 10
494.6582225176682
 20
22.19690192963951
 30
0.0
 11
494.1575140173338
 21
22.19690192963907
 31
0.0
  0
LINE
  5
17E4C
330
18
100
AcDbEntity
  8
0
100
AcDbLine
 10
491.7439368033823
 20
17.28147335821057
 30
0.0
 11
491.3262225176681
 21
17.69918764392485
 31
0.0
  0
LINE
  5
17E4D
330
18
100
AcDbEntity
  8
0
100
AcDbLine
 10
493.9782225176681
 20
14.85290192963901
 30
0.0
 11
492.7153653748106
 21
14.85290192963901
 31
0.0
  0
LINE
  5
17E4E
330
18
100
AcDbEntity
  8
0
100
AcDbLine
 10
493.9782225176681
 20
14.85290192963901
 30
0.0
 11
494.9496510890964
 21
15.82433050106755
 31
0.0
  0
LINE
  5
17E4F
330
18
100
AcDbEntity
  8
0
100
AcDbLine
 10
494.9496510890964
 20
15.82433050106755
 30
0.0
 11
494.9496510890964
 21
17.28147335821012
 31
0.0
  0
LINE
  5
17E50
330
18
100
AcDbEntity
  8
0
100
AcDbLine
 10
494.9496510890964
 20
17.28147335821057
 30
0.0
 11
493.8810796605253
 21
17.18433050106722
 31
0.0
  0
LINE
  5
17E51
330
18
100
AcDbEntity
  8
0
100
AcDbLine
 10
491.7439368033823
 20
15.82433050106755
 30
0.0
 11
492.7153653748106
 21
14.85290192963901
 31
0.0
  0
LINE
  5
17E52
330
18
100
AcDbEntity
  8
0
100
AcDbLine
 10
492.7153653748106
 20
17.28147335821057
 30
0.0
 11
491.7439368033823
 21
17.28147335821057
 31
0.0
  0
LINE
  5
17E53
330
18
100
AcDbEntity
  8
0
100
AcDbLine
 10
493.8810796605253
 20
17.18433050106722
 30
0.0
 11
493.8810796605253
 21
20.58433050106776
 31
0.0
  0
LINE
  5
17E54
330
18
100
AcDbEntity
  8
0
100
AcDbLine
 10
492.7153653748106
 20
17.28147335821057
 30
0.0
 11
492.7153653748106
 21
20.58433050106776
 31
0.0
  0
LINE
  5
17E55
330
18
100
AcDbEntity
  8
0
100
AcDbLine
 10
491.743936803382
 20
27.09290192963925
 30
0.0
 11
491.3262225176681
 21
27.09290192963925
 31
0.0
  0
LINE
  5
17E56
330
18
100
AcDbEntity
  8
0
100
AcDbLine
 10
492.7153653748106
 20
28.06433050106823
 30
0.0
 11
491.3262225176681
 21
28.06433050106778
 31
0.0
  0
LINE
  5
17E57
330
18
100
AcDbEntity
  8
0
100
AcDbLine
 10
493.6791788230133
 20
22.59827281477207
 30
0.0
 11
492.7153653748106
 21
28.06433050106823
 31
0.0
  0
LINE
  5
17E58
330
18
100
AcDbEntity
  8
0
100
AcDbLine
 10
495.1439368033823
 20
33.68437560254387
 30
0.0
 11
494.1439307503392
 21
33.68437560254387
 31
0.0
  0
LINE
  5
17E59
330
18
100
AcDbEntity
  8
0
100
AcDbLine
 10
494.1439307503392
 20
34.78437560254332
 30
0.0
 11
494.1439307503392
 21
33.68437560254387
 31
0.0
  0
LINE
  5
17E5A
330
18
100
AcDbEntity
  8
0
100
AcDbLine
 10
497.9010507869021
 20
355.7221115698311
 30
0.0
 11
497.9010507869108
 21
346.2221115698306
 31
0.0
  0
LINE
  5
17E5B
330
18
100
AcDbEntity
  8
0
100
AcDbLine
 10
501.3510507869025
 20
355.7221115698343
 30
0.0
 11
501.3510507869112
 21
346.2221115698338
 31
0.0
  0
LINE
  5
17E5C
330
18
100
AcDbEntity
  8
0
100
AcDbLine
 10
502.0010507869021
 20
355.7221115698349
 30
0.0
 11
502.0010507869108
 21
346.2221115698342
 31
0.0
  0
LINE
  5
17E5D
330
18
100
AcDbEntity
  8
0
100
AcDbLine
 10
505.4510507869023
 20
355.722111569838
 30
0.0
 11
505.4510507869106
 21
346.2221115698373
 31
0.0
  0
LINE
  5
17E5E
330
18
100
AcDbEntity
  8
0
100
AcDbLine
 10
505.4510507869023
 20
355.722111569838
 30
0.0
 11
502.0010507869021
 21
355.7221115698349
 31
0.0
  0
LINE
  5
17E5F
330
18
100
AcDbEntity
  8
0
100
AcDbLine
 10
501.3510507869025
 20
355.7221115698343
 30
0.0
 11
497.9010507869021
 21
355.7221115698311
 31
0.0
  0
LINE
  5
17E60
330
18
100
AcDbEntity
  8
0
100
AcDbLine
 10
507.9260447338813
 20
332.0220664683647
 30
0.0
 11
495.9260447338802
 21
332.0220664683533
 31
0.0
  0
LINE
  5
17E61
330
18
100
AcDbEntity
  8
0
100
AcDbLine
 10
506.926050786911
 20
346.2221115698389
 30
0.0
 11
496.9260507869107
 21
346.2221115698298
 31
0.0
  0
LINE
  5
17E62
330
18
100
AcDbEntity
  8
0
100
AcDbLine
 10
506.9260507869228
 20
333.1220664683626
 30
0.0
 11
506.926050786911
 21
346.2221115698389
 31
0.0
  0
LINE
  5
17E63
330
18
100
AcDbEntity
  8
0
100
AcDbLine
 10
507.9260447338801
 20
333.1220664683648
 30
0.0
 11
506.9260507869228
 21
333.1220664683643
 31
0.0
  0
LINE
  5
17E64
330
18
100
AcDbEntity
  8
0
100
AcDbLine
 10
507.9260447338813
 20
332.0220664683643
 30
0.0
 11
507.9260447338801
 21
333.1220664683637
 31
0.0
  0
LINE
  5
17E65
330
18
100
AcDbEntity
  8
0
100
AcDbLine
 10
496.9260507869228
 20
333.1220664683537
 30
0.0
 11
496.9260507869107
 21
346.2221115698298
 31
0.0
  0
LINE
  5
17E66
330
18
100
AcDbEntity
  8
0
100
AcDbLine
 10
493.5260507869164
 20
339.7135401412551
 30
0.0
 11
493.1083365012025
 21
339.7135401412548
 31
0.0
  0
LINE
  5
17E67
330
18
100
AcDbEntity
  8
0
100
AcDbLine
 10
494.4974793583461
 20
338.7421115698272
 30
0.0
 11
493.1083365012033
 21
338.7421115698264
 31
0.0
  0
LINE
  5
17E68
330
18
100
AcDbEntity
  8
0
100
AcDbLine
 10
496.9260507869107
 20
346.2221115698298
 30
0.0
 11
493.1083365011966
 21
346.2221115698262
 31
0.0
  0
LINE
  5
17E69
330
18
100
AcDbEntity
  8
0
100
AcDbLine
 10
493.5260507869078
 20
349.5249687126837
 30
0.0
 11
493.1083365011938
 21
349.1072544269692
 31
0.0
  0
ARC
  5
17E6A
330
18
100
AcDbEntity
  8
0
100
AcDbCircle
 10
496.4403365011988
 20
344.1238258555435
 30
0.0
 40
0.4857142857142857
100
AcDbArc
 50
0.0000000000517193
 51
90.0000000000387
  0
ARC
  5
17E6B
330
18
100
AcDbEntity
  8
0
100
AcDbCircle
 10
495.939628000864
 20
344.1238258555435
 30
0.0
 40
0.4857142857142857
100
AcDbArc
 50
90.0000000000387
 51
170.0000000000464
  0
LINE
  5
17E6C
330
18
100
AcDbEntity
  8
0
100
AcDbLine
 10
493.5260507869066
 20
350.9821115698268
 30
0.0
 11
493.5260507869164
 21
339.7135401412551
 31
0.0
  0
LINE
  5
17E6D
330
18
100
AcDbEntity
  8
0
100
AcDbLine
 10
496.4403365011984
 20
344.6095401412577
 30
0.0
 11
495.939628000864
 21
344.6095401412577
 31
0.0
  0
LINE
  5
17E6E
330
18
100
AcDbEntity
  8
0
100
AcDbLine
 10
494.4974793583364
 20
349.5249687126849
 30
0.0
 11
493.5260507869078
 21
349.5249687126837
 31
0.0
  0
LINE
  5
17E6F
330
18
100
AcDbEntity
  8
0
100
AcDbLine
 10
493.5260507869066
 20
350.9821115698268
 30
0.0
 11
494.4974793583342
 21
351.9535401412563
 31
0.0
  0
LINE
  5
17E70
330
18
100
AcDbEntity
  8
0
100
AcDbLine
 10
496.7317650726222
 20
349.5249687126868
 30
0.0
 11
495.6631936440507
 21
349.6221115698292
 31
0.0
  0
LINE
  5
17E71
330
18
100
AcDbEntity
  8
0
100
AcDbLine
 10
496.7317650726208
 20
350.9821115698297
 30
0.0
 11
496.7317650726222
 21
349.5249687126873
 31
0.0
  0
LINE
  5
17E72
330
18
100
AcDbEntity
  8
0
100
AcDbLine
 10
495.7603365011914
 20
351.9535401412574
 30
0.0
 11
496.7317650726208
 21
350.9821115698297
 31
0.0
  0
LINE
  5
17E73
330
18
100
AcDbEntity
  8
0
100
AcDbLine
 10
495.7603365011914
 20
351.9535401412574
 30
0.0
 11
494.4974793583342
 21
351.9535401412563
 31
0.0
  0
LINE
  5
17E74
330
18
100
AcDbEntity
  8
0
100
AcDbLine
 10
494.4974793583364
 20
349.5249687126849
 30
0.0
 11
494.4974793583391
 21
346.2221115698276
 31
0.0
  0
LINE
  5
17E75
330
18
100
AcDbEntity
  8
0
100
AcDbLine
 10
495.6631936440507
 20
349.6221115698292
 30
0.0
 11
495.6631936440536
 21
346.2221115698287
 31
0.0
  0
LINE
  5
17E76
330
18
100
AcDbEntity
  8
0
100
AcDbLine
 10
495.4612928065436
 20
344.2081692561241
 30
0.0
 11
494.4974793583461
 21
338.7421115698272
 31
0.0
  0
LINE
  5
17E77
330
18
100
AcDbEntity
  8
0
100
AcDbLine
 10
493.1083365011938
 20
349.1072544269692
 30
0.0
 11
493.1083365012033
 21
338.7421115698268
 31
0.0
  0
LINE
  5
17E78
330
18
100
AcDbEntity
  8
0
100
AcDbLine
 10
496.9260507869228
 20
333.1220664683537
 30
0.0
 11
495.9260447338794
 21
333.1220664683529
 31
0.0
  0
LINE
  5
17E79
330
18
100
AcDbEntity
  8
0
100
AcDbLine
 10
495.9260447338802
 20
332.0220664683533
 30
0.0
 11
495.9260447338794
 21
333.1220664683529
 31
0.0
  0
LINE
  5
17E9A
330
18
100
AcDbEntity
  8
0
100
AcDbLine
 10
500.7602847670416
 20
319.5702103399605
 30
0.0
 11
499.1951427410686
 21
332.0137708620535
 31
0.0
  0
LINE
  5
17E9B
330
18
100
AcDbEntity
  8
0
100
AcDbLine
 10
499.5485723357345
 20
310.1170078973528
 30
0.0
 11
496.7951498847208
 21
332.0079151399553
 31
0.0
  0
LINE
  5
17E9C
330
18
100
AcDbEntity
  8
0
100
AcDbLine
 10
500.5602239849721
 20
317.9796400220831
 30
0.0
 11
498.7951439316772
 21
332.0127949083705
 31
0.0
  0
LINE
  5
17E9D
330
18
100
AcDbEntity
  8
0
100
AcDbLine
 10
503.9726050190401
 20
310.1170078973528
 30
0.0
 11
506.7260274700537
 21
332.0079151399553
 31
0.0
  0
LINE
  5
17E9E
330
18
100
AcDbEntity
  8
0
100
AcDbLine
 10
501.5726121626927
 20
310.1228636194508
 30
0.0
 11
504.3260346137063
 21
332.0137708620535
 31
0.0
  0
LINE
  5
17E9F
330
18
100
AcDbEntity
  8
0
100
AcDbLine
 10
501.9726109720841
 20
310.1218876657678
 30
0.0
 11
504.7260334230975
 21
332.0127949083705
 31
0.0
  0
LINE
  5
17EA0
330
18
100
AcDbEntity
  8
0
100
AcDbLine
 10
499.5726181157364
 20
310.1277433878658
 30
0.0
 11
502.32604056675
 21
332.0186506304686
 31
0.0
  0
LINE
  5
17EA3
330
18
100
AcDbEntity
  8
0
100
AcDbLine
 10
501.7605886773875
 20
327.5230619293458
 30
0.0
 11
501.1951367880246
 21
332.0186506304686
 31
0.0
  0
LINE
  5
17EA6
330
18
100
AcDbEntity
  8
0
100
AcDbLine
 10
502.9609533698024
 20
317.9796400220831
 30
0.0
 11
502.7608925877331
 21
319.5702103399605
 31
0.0
  0
LINE
  5
17EA7
330
18
100
AcDbEntity
  8
0
100
AcDbLine
 10
501.9485651920819
 20
310.1228636194508
 30
0.0
 11
501.7605886773873
 21
311.6173587505746
 31
0.0
  0
LINE
  5
17EC8
330
18
100
AcDbEntity
  8
0
100
AcDbLine
 10
505.763924483905
 20
81.47506339428076
 30
0.0
 11
513.2637139580293
 21
92.44664471277786
 31
0.0
  0
LINE
  5
17EC9
330
18
100
AcDbEntity
  8
0
100
AcDbLine
 10
501.5553120963838
 20
81.47639535230831
 30
0.0
 11
509.0610053384636
 21
92.44531275474987
 31
0.0
  0
ARC
  5
17ECA
330
18
100
AcDbEntity
  8
0
100
AcDbCircle
 10
505.008158717424
 20
98.08985369963208
 30
0.0
 40
10.0
100
AcDbArc
 50
325.6448534167731
 51
0.0
  0
ARC
  5
17ECB
330
18
100
AcDbEntity
  8
0
100
AcDbCircle
 10
500.8081587174236
 20
98.09248219169665
 30
0.0
 40
10.0
100
AcDbArc
 50
325.6173623158411
 51
0.0
  0
LINE
  5
17ECC
330
18
100
AcDbEntity
  8
0
100
AcDbLine
 10
499.8081587174238
 20
70.94606646835808
 30
0.0
 11
499.8081587174239
 21
75.82922591536152
 31
0.0
  0
LINE
  5
17ECD
330
18
100
AcDbEntity
  8
0
100
AcDbLine
 10
499.8081587174238
 20
70.94606646835808
 30
0.0
 11
499.8081587174239
 21
75.82535966633717
 31
0.0
  0
LINE
  5
17ECE
330
18
100
AcDbEntity
  8
0
100
AcDbLine
 10
504.0194797245105
 20
70.94606646835808
 30
0.0
 11
504.0194797245105
 21
75.83185440742664
 31
0.0
  0
ARC
  5
17ED0
330
18
100
AcDbEntity
  8
0
100
AcDbCircle
 10
498.8972705548857
 20
97.94200221068122
 30
0.0
 40
10.0
100
AcDbArc
 50
180.0
 51
214.4230669294506
  0
LINE
  5
17ED1
330
18
100
AcDbEntity
  8
0
100
AcDbLine
 10
501.9146910850647
 20
82.00159646510014
 30
0.0
 11
494.6422453804117
 21
92.63844777878231
 31
0.0
  0
LINE
  5
17ED2
330
18
100
AcDbEntity
  8
0
100
AcDbLine
 10
498.0570185090813
 20
81.47835109898409
 30
0.0
 11
490.6484107632283
 21
92.28901077803454
 31
0.0
  0
ARC
  5
17ED3
330
18
100
AcDbEntity
  8
0
100
AcDbCircle
 10
489.808158717424
 20
75.82535966633739
 30
0.0
 40
10.0
100
AcDbArc
 50
0.0
 51
34.42306692945054
  0
ARC
  5
17ED4
330
18
100
AcDbEntity
  8
0
100
AcDbCircle
 10
514.0194797245103
 20
75.8318544074265
 30
0.0
 40
10.0
100
AcDbArc
 50
145.644853416773
 51
180.0
  0
ARC
  5
17ED5
330
18
100
AcDbEntity
  8
0
100
AcDbCircle
 10
509.808158717424
 20
75.82922591536138
 30
0.0
 40
10.0
100
AcDbArc
 50
145.617362315841
 51
180.0
  0
ARC
  5
17ED6
330
18
100
AcDbEntity
  8
0
100
AcDbCircle
 10
502.8972705548885
 20
98.28243213105999
 30
0.0
 40
10.0
100
AcDbArc
 50
180.0
 51
214.3605280011041
  0
LINE
  5
17EDE
330
18
100
AcDbEntity
  8
0
100
AcDbLine
 10
515.008158717424
 20
98.08985369963208
 30
0.0
 11
515.008158717424
 21
162.9460664683586
 31
0.0
  0
LINE
  5
17EDF
330
18
100
AcDbEntity
  8
0
100
AcDbLine
 10
510.808158717424
 20
162.9460664683586
 30
0.0
 11
510.8081587174233
 21
98.09248219169656
 31
0.0
  0
LINE
  5
17EE0
330
18
100
AcDbEntity
  8
0
100
AcDbLine
 10
488.8972705548858
 20
97.94200221068122
 30
0.0
 11
488.8972705548858
 21
130.4460664683582
 31
0.0
  0
LINE
  5
17EE1
330
18
100
AcDbEntity
  8
0
100
AcDbLine
 10
493.0972705548856
 20
130.4460664683582
 30
0.0
 11
492.8972705548885
 21
98.28243213105999
 31
0.0
  0
ARC
  5
18760
330
18
100
AcDbEntity
  8
0
100
AcDbCircle
 10
160.5575552403886
 20
182.9221438043579
 30
0.0
 40
54.0
100
AcDbArc
 50
90.0
 51
270.0
  0
CIRCLE
  5
18761
330
18
100
AcDbEntity
  8
細線
100
AcDbCircle
 10
151.805687085976
 20
133.2878330525427
 30
0.0
 40
2.74999999744107
  0
LWPOLYLINE
  5
18762
330
18
100
AcDbEntity
  8
細線
100
AcDbPolyline
 90
        6
 70
     1
 43
0.0
 10
153.1620176323396
 20
133.7814936428859
 10
152.0563297470735
 20
134.7092800567937
 10
150.69999920071
 20
134.2156194664509
 10
150.4493565396124
 20
132.7941724621995
 10
151.5550444248784
 20
131.8663860482917
 10
152.9113749712414
 20
132.3600466386348
  0
CIRCLE
  5
18763
330
18
100
AcDbEntity
  8
0
100
AcDbCircle
 10
151.8056870859749
 20
133.2878330525425
 30
0.0
 40
3.0
  0
ARC
  5
18764
330
18
100
AcDbEntity
  8
0
100
AcDbCircle
 10
160.5575552403886
 20
182.922143804356
 30
0.0
 40
47.99999999999974
100
AcDbArc
 50
262.09692785491
 51
287.9030721450885
  0
ARC
  5
18765
330
18
100
AcDbEntity
  8
0
100
AcDbCircle
 10
160.5575552403886
 20
182.9221438043579
 30
0.0
 40
54.0
100
AcDbArc
 50
270.0
 51
90.0
  0
CIRCLE
  5
18766
330
18
100
AcDbEntity
  8
0
100
AcDbCircle
 10
177.7953704640008
 20
135.561635716748
 30
0.0
 40
3.0
  0
LWPOLYLINE
  5
18767
330
18
100
AcDbEntity
  8
細線
100
AcDbPolyline
 90
        6
 70
     1
 43
0.0
 10
179.1517010103651
 20
136.0552963070911
 10
178.0460131250994
 20
136.9830827209989
 10
176.6896825787358
 20
136.4894221306564
 10
176.4390399176383
 20
135.0679751264052
 10
177.5447278029042
 20
134.1401887124969
 10
178.9010583492673
 20
134.6338493028403
  0
CIRCLE
  5
18768
330
18
100
AcDbEntity
  8
細線
100
AcDbCircle
 10
177.7953704640018
 20
135.5616357167483
 30
0.0
 40
2.74999999744107
  0
ARC
  5
18769
330
18
100
AcDbEntity
  8
0
100
AcDbCircle
 10
160.5575552403886
 20
182.922143804356
 30
0.0
 40
47.99999999999974
100
AcDbArc
 50
292.096927854911
 51
317.9030721450923
  0
CIRCLE
  5
1876A
330
18
100
AcDbEntity
  8
細線
100
AcDbCircle
 10
199.166195173586
 20
150.5256482761573
 30
0.0
 40
2.74999999744107
  0
CIRCLE
  5
1876B
330
18
100
AcDbEntity
  8
0
100
AcDbCircle
 10
199.1661951735848
 20
150.5256482761564
 30
0.0
 40
3.0
  0
LWPOLYLINE
  5
1876C
330
18
100
AcDbEntity
  8
細線
100
AcDbPolyline
 90
        6
 70
     1
 43
0.0
 10
199.4168378346829
 20
151.9470952804084
 10
198.0605072883196
 20
151.4534346900656
 10
197.809864627222
 20
150.0319876858143
 10
198.9155525124875
 20
149.1042012719066
 10
200.2718830588515
 20
149.5978618622491
 10
200.5225257199479
 20
151.0193088665004
  0
ARC
  5
1876D
330
18
100
AcDbEntity
  8
0
100
AcDbCircle
 10
160.5575552403886
 20
182.922143804356
 30
0.0
 40
47.99999999999974
100
AcDbArc
 50
322.0969278549111
 51
347.9030721450925
  0
LWPOLYLINE
  5
1876E
330
18
100
AcDbEntity
  8
細線
100
AcDbPolyline
 90
        6
 70
     1
 43
0.0
 10
209.6982054018609
 20
175.5266061963093
 10
208.7704189879528
 20
174.4209183110434
 10
209.2640795782954
 20
173.0645877646801
 10
210.6855265825462
 20
172.8139451035824
 10
211.6133129964547
 20
173.919632988848
 10
211.1196524061119
 20
175.2759635352114
  0
CIRCLE
  5
1876F
330
18
100
AcDbEntity
  8
細線
100
AcDbCircle
 10
210.1918659922031
 20
174.1702756499458
 30
0.0
 40
2.74999999744107
  0
CIRCLE
  5
18770
330
18
100
AcDbEntity
  8
0
100
AcDbCircle
 10
210.1918659922031
 20
174.1702756499446
 30
0.0
 40
3.0
  0
ARC
  5
18771
330
18
100
AcDbEntity
  8
0
100
AcDbCircle
 10
160.5575552403886
 20
182.922143804356
 30
0.0
 40
47.99999999999974
100
AcDbArc
 50
352.0969278549116
 51
17.90307214509573
  0
CIRCLE
  5
18772
330
18
100
AcDbEntity
  8
細線
100
AcDbCircle
 10
207.9180633279983
 20
200.1599590279727
 30
0.0
 40
2.74999999744107
  0
CIRCLE
  5
18773
330
18
100
AcDbEntity
  8
0
100
AcDbCircle
 10
207.9180633279983
 20
200.1599590279719
 30
0.0
 40
3.0
  0
ARC
  5
18774
330
18
100
AcDbEntity
  8
0
100
AcDbCircle
 10
160.5575552403886
 20
182.922143804356
 30
0.0
 40
47.99999999999974
100
AcDbArc
 50
22.09692785490942
 51
47.90307214509474
  0
LWPOLYLINE
  5
18775
330
18
100
AcDbEntity
  8
細線
100
AcDbPolyline
 90
        6
 70
     1
 43
0.0
 10
206.8123754427323
 20
201.0877454418804
 10
206.5617327816346
 20
199.6662984376295
 10
207.6674206669001
 20
198.7385120237213
 10
209.0237512132633
 20
199.2321726140643
 10
209.2743938743617
 20
200.6536196183152
 10
208.1687059890954
 20
201.5814060322233
  0
ARC
  5
18776
330
18
100
AcDbEntity
  8
0
100
AcDbCircle
 10
160.5575552403886
 20
182.922143804356
 30
0.0
 40
47.99999999999974
100
AcDbArc
 50
52.09692785490668
 51
77.90307214509571
  0
LWPOLYLINE
  5
18777
330
18
100
AcDbEntity
  8
細線
100
AcDbPolyline
 90
        6
 70
     1
 43
0.0
 10
193.4477172864136
 20
220.1744553486164
 10
192.0262691868084
 20
220.4250917976525
 10
191.5326026689863
 20
221.7814201865897
 10
192.4603842507675
 20
222.8871121264909
 10
193.8818323503729
 20
222.6364756774545
 10
194.375498868195
 20
221.2801472885174
  0
CIRCLE
  5
18778
330
18
100
AcDbEntity
  8
細線
100
AcDbCircle
 10
192.954050768591
 20
221.5307837375533
 30
0.0
 40
2.74999999744107
  0
CIRCLE
  5
18779
330
18
100
AcDbEntity
  8
0
100
AcDbCircle
 10
192.9540507685899
 20
221.5307837375543
 30
0.0
 40
3.0
  0
LWPOLYLINE
  5
1877A
330
18
100
AcDbEntity
  8
細線
100
AcDbPolyline
 90
        6
 70
     1
 43
0.0
 10
170.4151153347035
 20
231.6286729743905
 10
169.0587869457663
 20
231.1350064565682
 10
167.9530950058657
 20
232.0627880383498
 10
168.2037314549015
 20
233.4842361379553
 10
169.5600598438387
 20
233.9779026557778
 10
170.6657517837394
 20
233.0501210739956
  0
CIRCLE
  5
1877B
330
18
100
AcDbEntity
  8
細線
100
AcDbCircle
 10
169.3094233948023
 20
232.5564545561729
 30
0.0
 40
2.74999999744107
  0
CIRCLE
  5
1877C
330
18
100
AcDbEntity
  8
0
100
AcDbCircle
 10
169.3094233948013
 20
232.5564545561729
 30
0.0
 40
3.0
  0
ARC
  5
1877D
330
18
100
AcDbEntity
  8
0
100
AcDbCircle
 10
160.5575552403886
 20
182.922143804356
 30
0.0
 40
47.99999999999974
100
AcDbArc
 50
82.09692785490695
 51
107.9030721450937
  0
ARC
  5
1877E
330
18
100
AcDbEntity
  8
0
100
AcDbCircle
 10
160.5575552403886
 20
182.922143804356
 30
0.0
 40
47.99999999999974
100
AcDbArc
 50
112.0969278549035
 51
137.9030721450924
  0
CIRCLE
  5
1877F
330
18
100
AcDbEntity
  8
細線
100
AcDbCircle
 10
143.3197400167756
 20
230.2826518919679
 30
0.0
 40
2.74999999744107
  0
LWPOLYLINE
  5
18780
330
18
100
AcDbEntity
  8
細線
100
AcDbPolyline
 90
        6
 70
     1
 43
0.0
 10
144.7411881163808
 20
230.0320154429317
 10
143.8134065345981
 20
228.9263235030308
 10
142.3919584349938
 20
229.1769599520668
 10
141.8982919171704
 20
230.5332883410041
 10
142.826073498953
 20
231.6389802809052
 10
144.2475215985579
 20
231.3883438318689
  0
CIRCLE
  5
18781
330
18
100
AcDbEntity
  8
0
100
AcDbCircle
 10
143.3197400167746
 20
230.2826518919679
 30
0.0
 40
3.0
  0
ARC
  5
18782
330
18
100
AcDbEntity
  8
0
100
AcDbCircle
 10
160.5575552403886
 20
182.922143804356
 30
0.0
 40
47.99999999999974
100
AcDbArc
 50
142.0969278549044
 51
167.9030721450908
  0
CIRCLE
  5
18783
330
18
100
AcDbEntity
  8
細線
100
AcDbCircle
 10
121.9489153071909
 20
215.3186393325585
 30
0.0
 40
2.74999999744107
  0
CIRCLE
  5
18784
330
18
100
AcDbEntity
  8
0
100
AcDbCircle
 10
121.9489153071918
 20
215.3186393325594
 30
0.0
 40
3.0
  0
LWPOLYLINE
  5
18785
330
18
100
AcDbEntity
  8
細線
100
AcDbPolyline
 90
        6
 70
     1
 43
0.0
 10
121.6982726460937
 20
213.8971923283078
 10
123.0546031924574
 20
214.3908529186504
 10
123.305245853555
 20
215.8122999229016
 10
122.1995579682894
 20
216.7400863368095
 10
120.8432274219259
 20
216.246425746467
 10
120.5925847608287
 20
214.8249787422158
  0
CIRCLE
  5
18786
330
18
100
AcDbEntity
  8
細線
100
AcDbCircle
 10
110.923244488573
 20
191.6740119587699
 30
0.0
 40
2.74999999744107
  0
CIRCLE
  5
18787
330
18
100
AcDbEntity
  8
0
100
AcDbCircle
 10
110.923244488573
 20
191.6740119587708
 30
0.0
 40
3.0
  0
LWPOLYLINE
  5
18788
330
18
100
AcDbEntity
  8
細線
100
AcDbPolyline
 90
        6
 70
     1
 43
0.0
 10
111.4169050789159
 20
190.3176814124069
 10
112.344691492824
 20
191.4233692976729
 10
111.8510309024814
 20
192.7796998440359
 10
110.4295838982295
 20
193.0303425051337
 10
109.5017974843218
 20
191.9246546198677
 10
109.9954580746654
 20
190.5683240735046
  0
ARC
  5
18789
330
18
100
AcDbEntity
  8
0
100
AcDbCircle
 10
160.5575552403886
 20
182.922143804356
 30
0.0
 40
47.99999999999974
100
AcDbArc
 50
172.0969278549048
 51
197.9030721450884
  0
ARC
  5
1878A
330
18
100
AcDbEntity
  8
0
100
AcDbCircle
 10
160.5575552403886
 20
182.922143804356
 30
0.0
 40
47.99999999999974
100
AcDbArc
 50
202.0969278549073
 51
227.9030721450878
  0
LWPOLYLINE
  5
1878B
330
18
100
AcDbEntity
  8
細線
100
AcDbPolyline
 90
        6
 70
     1
 43
0.0
 10
114.3027350380449
 20
164.7565421668353
 10
114.5533776991424
 20
166.1779891710865
 10
113.4476898138769
 20
167.1057755849945
 10
112.0913592675139
 20
166.6121149946516
 10
111.8407166064151
 20
165.1906679904008
 10
112.9464044916818
 20
164.2628815764927
  0
CIRCLE
  5
1878C
330
18
100
AcDbEntity
  8
細線
100
AcDbCircle
 10
113.1970471527789
 20
165.6843285807431
 30
0.0
 40
2.74999999744107
  0
CIRCLE
  5
1878D
330
18
100
AcDbEntity
  8
0
100
AcDbCircle
 10
113.1970471527789
 20
165.6843285807441
 30
0.0
 40
3.0
  0
ARC
  5
1878E
330
18
100
AcDbEntity
  8
0
100
AcDbCircle
 10
160.5575552403886
 20
182.922143804356
 30
0.0
 40
47.99999999999974
100
AcDbArc
 50
232.0969278549088
 51
257.9030721450893
  0
LWPOLYLINE
  5
1878F
330
18
100
AcDbEntity
  8
細線
100
AcDbPolyline
 90
        6
 70
     1
 43
0.0
 10
129.5825067164381
 20
144.0628612100636
 10
129.0888461260957
 20
145.419191756427
 10
127.6673991218449
 20
145.6698344175245
 10
126.7396127079374
 20
144.5641465322585
 10
127.23327329828
 20
143.2078159858953
 10
128.6547203025308
 20
142.9571733247979
  0
CIRCLE
  5
18790
330
18
100
AcDbEntity
  8
細線
100
AcDbCircle
 10
128.1610597121876
 20
144.3135038711606
 30
0.0
 40
2.74999999744107
  0
CIRCLE
  5
18791
330
18
100
AcDbEntity
  8
0
100
AcDbCircle
 10
128.1610597121864
 20
144.3135038711614
 30
0.0
 40
3.0
  0
LINE
  5
188AA
330
18
100
AcDbEntity
  8
0
100
AcDbLine
 10
414.1032641809375
 20
95.44194121222963
 30
0.0
 11
421.3032641809376
 21
95.44194121222963
 31
0.0
  0
LINE
  5
188AB
330
18
100
AcDbEntity
  8
0
100
AcDbLine
 10
414.1032641809375
 20
95.44194121222963
 30
0.0
 11
414.1032641809375
 21
94.04606090353183
 31
0.0
  0
LINE
  5
188AC
330
18
100
AcDbEntity
  8
0
100
AcDbLine
 10
421.3032641809376
 20
95.44194121222963
 30
0.0
 11
421.3032641809378
 21
94.04606090353189
 31
0.0
  0
LINE
  5
188AD
330
18
100
AcDbEntity
  8
0
100
AcDbLine
 10
421.3032641809375
 20
105.0481205639806
 30
0.0
 11
421.3032641809375
 21
96.67317064175328
 31
0.0
  0
LINE
  5
188AE
330
18
100
AcDbEntity
  8
0
100
AcDbLine
 10
414.1032641809373
 20
105.0481205639806
 30
0.0
 11
414.1032641809373
 21
96.67317064175328
 31
0.0
  0
LINE
  5
188AF
330
18
100
AcDbEntity
  8
0
100
AcDbLine
 10
414.1032641809375
 20
96.67317064175328
 30
0.0
 11
421.3032641809376
 21
96.67317064175328
 31
0.0
  0
LINE
  5
188B0
330
18
100
AcDbEntity
  8
0
100
AcDbLine
 10
414.1032641809373
 20
105.0481205639806
 30
0.0
 11
421.3032641809375
 21
105.0481205639806
 31
0.0
  0
ARC
  5
188CD
330
18
100
AcDbEntity
  8
0
100
AcDbCircle
 10
584.5811625196309
 20
215.4741582193909
 30
0.0
 40
4.0
100
AcDbArc
 50
248.8482604149437
 51
66.15173958505241
  0
LINE
  5
188CF
330
18
100
AcDbEntity
  8
0
100
AcDbLine
 10
586.1988978105022
 20
219.1336391227505
 30
0.0
 11
582.591946959005
 21
220.6276870842537
 31
0.0
  0
LINE
  5
188D0
330
18
100
AcDbEntity
  8
0
100
AcDbLine
 10
583.1374303515815
 20
211.7426028626601
 30
0.0
 11
579.5304795000844
 21
213.2366508241633
 31
0.0
  0
LINE
  5
188D1
330
18
100
AcDbEntity
  8
0
100
AcDbLine
 10
583.1374303515802
 20
154.1495300740533
 30
0.0
 11
579.5304795000828
 21
152.65548211255
 31
0.0
  0
ARC
  5
188D2
330
18
100
AcDbEntity
  8
0
100
AcDbCircle
 10
584.5811625196285
 20
150.4179747173253
 30
0.0
 40
4.0
100
AcDbArc
 50
293.8482604149437
 51
111.1517395850524
  0
LINE
  5
188D3
330
18
100
AcDbEntity
  8
0
100
AcDbLine
 10
586.1988978105007
 20
146.7584938139629
 30
0.0
 11
582.5919469590039
 21
145.2644458524597
 31
0.0
  0
LINE
  5
188D4
330
18
100
AcDbEntity
  8
0
100
AcDbLine
 10
626.9233501286942
 20
106.034041495768
 30
0.0
 11
625.4293021671908
 21
102.4270906442707
 31
0.0
  0
ARC
  5
188D5
330
18
100
AcDbEntity
  8
0
100
AcDbCircle
 10
630.5828310320537
 20
104.4163062048965
 30
0.0
 40
4.0
100
AcDbArc
 50
338.8482604149436
 51
156.1517395850524
  0
LINE
  5
188D6
330
18
100
AcDbEntity
  8
0
100
AcDbLine
 10
634.3143863887847
 20
102.9725740368472
 30
0.0
 11
632.8203384272812
 21
99.36562318535024
 31
0.0
  0
LINE
  5
188D7
330
18
100
AcDbEntity
  8
0
100
AcDbLine
 10
691.907459177391
 20
102.9725740368459
 30
0.0
 11
693.4015071388946
 21
99.36562318534859
 31
0.0
  0
ARC
  5
188D8
330
18
100
AcDbEntity
  8
0
100
AcDbCircle
 10
695.6390145341194
 20
104.416306204894
 30
0.0
 40
4.0
100
AcDbArc
 50
23.84826041494365
 51
201.1517395850523
  0
LINE
  5
188D9
330
18
100
AcDbEntity
  8
0
100
AcDbLine
 10
699.2984954374817
 20
106.0340414957666
 30
0.0
 11
700.7925433989846
 21
102.4270906442694
 31
0.0
  0
LINE
  5
188DA
330
18
100
AcDbEntity
  8
0
100
AcDbLine
 10
740.0229477556766
 20
146.7584938139599
 30
0.0
 11
743.629898607174
 21
145.2644458524565
 31
0.0
  0
ARC
  5
188DB
330
18
100
AcDbEntity
  8
0
100
AcDbCircle
 10
741.6406830465481
 20
150.4179747173194
 30
0.0
 40
4.0
100
AcDbArc
 50
68.8482604149437
 51
246.1517395850524
  0
LINE
  5
188DC
330
18
100
AcDbEntity
  8
0
100
AcDbLine
 10
743.0844152145973
 20
154.1495300740503
 30
0.0
 11
746.6913660660948
 21
152.6554821125469
 31
0.0
  0
LINE
  5
188DD
330
18
100
AcDbEntity
  8
0
100
AcDbLine
 10
743.0844152145986
 20
211.7426028626569
 30
0.0
 11
746.6913660660962
 21
213.2366508241601
 31
0.0
  0
ARC
  5
188DE
330
18
100
AcDbEntity
  8
0
100
AcDbCircle
 10
741.6406830465507
 20
215.474158219385
 30
0.0
 40
4.0
100
AcDbArc
 50
113.8482604149436
 51
291.1517395850523
  0
LINE
  5
188DF
330
18
100
AcDbEntity
  8
0
100
AcDbLine
 10
740.0229477556782
 20
219.133639122747
 30
0.0
 11
743.6298986071752
 21
220.6276870842504
 31
0.0
  0
LINE
  5
188E0
330
18
100
AcDbEntity
  8
0
100
AcDbLine
 10
699.2984954374849
 20
259.8580914409424
 30
0.0
 11
700.7925433989882
 21
263.4650422924396
 31
0.0
  0
ARC
  5
188E1
330
18
100
AcDbEntity
  8
0
100
AcDbCircle
 10
695.6390145341254
 20
261.4758267318137
 30
0.0
 40
4.0
100
AcDbArc
 50
158.8482604149436
 51
336.1517395850523
  0
LINE
  5
188E2
330
18
100
AcDbEntity
  8
0
100
AcDbLine
 10
691.9074591773945
 20
262.9195588998632
 30
0.0
 11
693.4015071388975
 21
266.5265097513603
 31
0.0
  0
LINE
  5
188E3
330
18
100
AcDbEntity
  8
0
100
AcDbLine
 10
634.3143863887877
 20
262.9195588998645
 30
0.0
 11
632.8203384272844
 21
266.5265097513615
 31
0.0
  0
ARC
  5
188E4
330
18
100
AcDbEntity
  8
0
100
AcDbCircle
 10
630.5828310320597
 20
261.4758267318165
 30
0.0
 40
4.0
100
AcDbArc
 50
203.8482604149435
 51
21.15173958505234
  0
LINE
  5
188E5
330
18
100
AcDbEntity
  8
0
100
AcDbLine
 10
626.9233501286975
 20
259.8580914409438
 30
0.0
 11
625.4293021671942
 21
263.4650422924408
 31
0.0
  0
CIRCLE
  5
1898B
330
18
100
AcDbEntity
  8
0
100
AcDbCircle
 10
160.5575552403886
 20
182.9221438043553
 30
0.0
 40
17.5
  0
CIRCLE
  5
1898C
330
18
100
AcDbEntity
  8
0
100
AcDbCircle
 10
663.1109227830909
 20
182.9460664683589
 30
0.0
 40
17.5000000000011
  0
CIRCLE
  5
1898D
330
18
100
AcDbEntity
  8
0
100
AcDbCircle
 10
663.1109227830909
 20
182.9460664683589
 30
0.0
 40
19.40000000000383
  0
CIRCLE
  5
1898E
330
18
100
AcDbEntity
  8
0
100
AcDbCircle
 10
663.1109227830909
 20
182.9460664683589
 30
0.0
 40
44.9999999999979
  0
CIRCLE
  5
1898F
330
18
100
AcDbEntity
  8
0
100
AcDbCircle
 10
663.1109227830909
 20
182.9460664683589
 30
0.0
 40
55.0000000000011
  0
CIRCLE
  5
18990
330
18
100
AcDbEntity
  8
0
100
AcDbCircle
 10
663.1109227830909
 20
182.9460664683589
 30
0.0
 40
88.89999999999998
  0
VIEWPORT
  5
23
330
15
100
AcDbEntity
 67
     1
  8
0
100
AcDbViewport
 10
200.004584288742
 20
143.993610816457
 30
0.0
 40
443.6184213796912
 41
290.3416246239174
 68
     1
 69
     1
1001
ACAD
1000
MVIEW
1002
{
1070
    16
1010
0.0
1020
0.0
1030
0.0
1010
0.0
1020
0.0
1030
1.0
1040
0.0
1040
290.3416246239174
1040
200.004584288742
1040
143.993610816457
1040
50.0
1040
0.0
1040
0.0
1070
     0
1070
   100
1070
     1
1070
     0
1070
     0
1070
     0
1070
     0
1070
     0
1040
0.0
1040
0.0
1040
0.0
1040
10.0
1040
10.0
1040
10.0
1040
10.0
1070
     0
1002
{
1002
}
1002
}
  0
VIEWPORT
  5
2E
330
15
100
AcDbEntity
 67
     1
  8
M_VIEW
100
AcDbViewport
 10
200.0
 20
144.0
 30
0.0
 40
400.0
 41
288.0
 68
     2
 69
     2
1001
ACAD
1000
MVIEW
1002
{
1070
    16
1010
0.0
1020
0.0
1030
0.0
1010
0.0
1020
0.0
1030
1.0
1040
0.0
1040
576.0000055831532
1040
404.531953707389
1040
99.6038355057977
1040
50.0
1040
0.0
1040
0.0
1070
     0
1070
   100
1070
     1
1070
     0
1070
     0
1070
     0
1070
     0
1070
     0
1040
0.0
1040
0.0
1040
0.0
1040
10.0
1040
10.0
1040
10.0
1040
10.0
1070
     0
1002
{
1002
}
1002
}
  0
INSERT
  5
115F
330
15
100
AcDbEntity
 67
     1
  8
FRAME025
100
AcDbBlockReference
  2
機械A4横_LBP
 10
82.74908858651452
 20
152.030959079227
 30
0.0
  0
TEXT
  5
AA6A
330
15
100
AcDbEntity
 67
     1
  8
文字
  6
BYBLOCK
 62
     0
100
AcDbText
 10
32.81885892396519
 20
73.01882819621747
 30
0.0
 40
3.2
  1

 50
90.0
 41
0.625
  7
MSｺ_ｼｯｸ
100
AcDbText
  0
TEXT
  5
AA6C
330
15
100
AcDbEntity
 67
     1
  8
文字
  6
BYBLOCK
 62
     0
100
AcDbText
 10
37.25020936743055
 20
73.01882819621747
 30
0.0
 40
3.2
  1

 50
90.0
 41
0.625
  7
MSｺ_ｼｯｸ
100
AcDbText
  0
TEXT
  5
FCA5
330
15
100
AcDbEntity
 67
     1
  8
FRAME020
  6
CONTINUOUS
100
AcDbText
 10
126.6213117262079
 20
29.63926951973459
 30
0.0
 40
2.5
  1

 41
0.625
  7
MSｺ_ｼｯｸ
100
AcDbText
  0
TEXT
  5
12229
330
15
100
AcDbEntity
 67
     1
  8
0
100
AcDbText
 10
323.726464138032
 20
10.63168299257869
 30
0.0
 40
6.0
  1
ＳＥ－４２１１１
 41
1.1
100
AcDbText
  0
MTEXT
  5
18965
330
15
100
AcDbEntity
 67
     1
  8
細線
100
AcDbMText
 10
223.0472705040154
 20
26.61661518197842
 30
0.0
 40
6.0
 41
169.2395853443109
 71
     1
 72
     5
  1
{\C7;τDISCﾓｰﾀ D170-040-LP NMR-FSDBA2C-201AP}
1001
ACAD
1000
MTEXTBEGIN
1070
    73
1070
     1
1070
    44
1040
1.0
1070
    74
1070
     0
1000
MTEXTEND
  0
ENDSEC
  0
SECTION
  2
OBJECTS
  0
DICTIONARY
  5
C
330
0
100
AcDbDictionary
  3
ACAD_GROUP
350
D
  3
ACAD_LAYOUT
350
DB2
  3
ACAD_MLINESTYLE
350
1B
  3
ACAD_PLOTSETTINGS
350
DB3
  3
ACAD_PLOTSTYLENAME
350
FB5B
  3
ACADDIM
350
17AD5
  3
ACDBHEADERROUNDTRIPXREC
350
189B5
  3
ACDBVARIABLEDICTIONARY
350
106A6
1001
ACAD
1000
TREAT_AS_HARD
1070
     0
  0
DICTIONARY
  5
187F4
330
2
100
AcDbDictionary
280
     1
  3
ACAD_LAYERFILTERS
360
187F5
  3
ACAD_LAYERSTATES
360
18801
  0
DICTIONARY
  5
EFC6
330
18
100
AcDbDictionary
280
     1
  3
ACAD_LAYOUTSELFREF
360
189D7
  0
DICTIONARY
  5
EFC4
330
15
100
AcDbDictionary
280
     1
  3
ACAD_LAYOUTSELFREF
360
189D6
  0
DICTIONARY
  5
D
102
{ACAD_REACTORS
330
C
102
}
330
C
100
AcDbDictionary
  3
*A1
350
AC8A
  3
*A10
350
17D90
  3
*A11
350
14F04
  3
*A12
350
16500
  3
*A13
350
16DC8
  3
*A14
350
166BD
  3
*A15
350
15D52
  3
*A16
350
15D50
  3
*A17
350
16501
  3
*A18
350
FB6C
  3
*A19
350
ACA1
  3
*A2
350
1668B
  3
*A20
350
1663D
  3
*A21
350
ACAB
  3
*A22
350
14436
  3
*A23
350
167DB
  3
*A24
350
FBFF
  3
*A25
350
106C6
  3
*A26
350
106A5
  3
*A27
350
FC9B
  3
*A28
350
14437
  3
*A29
350
166D0
  3
*A3
350
166C0
  3
*A30
350
FC95
  3
*A31
350
1474A
  3
*A32
350
18451
  3
*A33
350
1629D
  3
*A34
350
16A19
  3
*A35
350
FB6B
  3
*A36
350
ACB4
  3
*A37
350
171C7
  3
*A38
350
17D99
  3
*A39
350
16BBA
  3
*A4
350
16A6A
  3
*A40
350
FC91
  3
*A41
350
FC9A
  3
*A42
350
106B3
  3
*A43
350
ACBD
  3
*A44
350
15D51
  3
*A45
350
15D4F
  3
*A46
350
1668A
  3
*A47
350
FCB8
  3
*A5
350
AC9A
  3
*A6
350
16616
  3
*A7
350
106C7
  3
*A8
350
17D87
  3
*A9
350
ACA2
1001
ACAD
1000
TREAT_AS_HARD
1070
     0
  0
DICTIONARY
  5
DB2
102
{ACAD_REACTORS
330
C
102
}
330
C
100
AcDbDictionary
1001
ACAD
1000
TREAT_AS_HARD
1070
     0
  0
DICTIONARY
  5
1B
102
{ACAD_REACTORS
330
C
102
}
330
C
100
AcDbDictionary
  3
STANDARD
350
1C
1001
ACAD
1000
TREAT_AS_HARD
1070
     0
  0
DICTIONARY
  5
DB3
102
{ACAD_REACTORS
330
C
102
}
330
C
100
AcDbDictionary
1001
ACAD
1000
TREAT_AS_HARD
1070
     0
  0
ACDBDICTIONARYWDFLT
  5
FB5B
102
{ACAD_REACTORS
330
C
102
}
330
C
100
AcDbDictionary
281
     1
  3
Normal
350
FB5C
100
AcDbDictionaryWithDefault
340
FB5C
  0
XRECORD
  5
17AD5
102
{ACAD_REACTORS
330
C
102
}
330
C
100
AcDbXrecord
 90
   990106
  3

 60
     0
 61
     0
 62
     4
 63
     4
 64
     1
 65
     0
 66
     0
 67
     3
 68
     1
 69
     0
 70
     0
 71
     0
 72
     0
 40
0.0
170
     0
340
188B4
  0
DICTIONARY
  5
189B5
102
{ACAD_REACTORS
330
C
102
}
330
C
100
AcDbDictionary
  3
CEPSNTYPE
350
189BF
  3
DIMSTYLEDATA
350
189C3
  3
FINGERPRINTGUID
350
189C0
  3
HYPERLINKBASE
350
189B8
  3
INSUNITS
350
189BE
  3
LAYOUTDICT
350
189BA
  3
LWETCUNION
350
189BD
  3
PLOTSETDICT
350
189BB
  3
PLOTSTYLNAMDICT
350
189BC
  3
PSVPSCALE
350
189C2
  3
PUCSBASE
350
189C6
  3
PUCSORGBACK
350
189CC
  3
PUCSORGBOTTOM
350
189C8
  3
PUCSORGFRONT
350
189CB
  3
PUCSORGLEFT
350
189C9
  3
PUCSORGRIGHT
350
189CA
  3
PUCSORGTOP
350
189C7
  3
PUCSORTHOREF
350
189C4
  3
PUCSORTHOVIEW
350
189C5
  3
STYLESHEET
350
189B9
  3
TSTACKALIGN
350
189B6
  3
TSTACKSIZE
350
189B7
  3
UCSBASE
350
189CF
  3
UCSORGBACK
350
189D5
  3
UCSORGBOTTOM
350
189D1
  3
UCSORGFRONT
350
189D4
  3
UCSORGLEFT
350
189D2
  3
UCSORGRIGHT
350
189D3
  3
UCSORGTOP
350
189D0
  3
UCSORTHOREF
350
189CD
  3
UCSORTHOVIEW
350
189CE
  3
VERSIONGUID
350
189C1
  0
DICTIONARY
  5
106A6
102
{ACAD_REACTORS
330
C
102
}
330
C
100
AcDbDictionary
  3
SORTENTS
350
106A7
  0
DICTIONARY
  5
187F5
102
{ACAD_REACTORS
330
187F4
102
}
330
187F4
100
AcDbDictionary
280
     1
  3
0
360
187F6
  3
11
360
187F7
  3
150_
360
187F8
  3
160_
360
187F9
  3
170_
360
187FA
  3
171_
360
187FB
  3
350_
360
187FC
  3
4
360
187FD
  3
5
360
187FE
  3
7
360
187FF
  3
KISEKI
360
18800
  0
DICTIONARY
  5
18801
102
{ACAD_REACTORS
330
187F4
102
}
330
187F4
100
AcDbDictionary
  0
XRECORD
  5
189D7
102
{ACAD_REACTORS
330
EFC6
102
}
330
EFC6
100
AcDbXrecord
340
18
  0
XRECORD
  5
189D6
102
{ACAD_REACTORS
330
EFC4
102
}
330
EFC4
100
AcDbXrecord
340
15
  0
GROUP
  5
AC8A
102
{ACAD_REACTORS
330
D
102
}
330
D
100
AcDbGroup
300

 70
     1
 71
     1
  0
GROUP
  5
17D90
102
{ACAD_REACTORS
330
D
102
}
330
D
100
AcDbGroup
300

 70
     1
 71
     1
340
17D88
340
17D89
340
17D8A
340
17D8B
340
17D8C
340
17D8D
340
17D8E
340
17D8F
  0
GROUP
  5
14F04
102
{ACAD_REACTORS
330
D
102
}
330
D
100
AcDbGroup
300

 70
     1
 71
     1
  0
GROUP
  5
16500
102
{ACAD_REACTORS
330
D
102
}
330
D
100
AcDbGroup
300

 70
     1
 71
     1
  0
GROUP
  5
16DC8
102
{ACAD_REACTORS
330
D
102
}
330
D
100
AcDbGroup
300

 70
     1
 71
     1
  0
GROUP
  5
166BD
102
{ACAD_REACTORS
330
D
102
}
330
D
100
AcDbGroup
300

 70
     1
 71
     1
  0
GROUP
  5
15D52
102
{ACAD_REACTORS
330
D
102
}
330
D
100
AcDbGroup
300

 70
     1
 71
     1
  0
GROUP
  5
15D50
102
{ACAD_REACTORS
330
D
102
}
330
D
100
AcDbGroup
300

 70
     1
 71
     1
  0
GROUP
  5
16501
102
{ACAD_REACTORS
330
D
102
}
330
D
100
AcDbGroup
300

 70
     1
 71
     1
  0
GROUP
  5
FB6C
102
{ACAD_REACTORS
330
D
102
}
330
D
100
AcDbGroup
300

 70
     1
 71
     1
  0
GROUP
  5
ACA1
102
{ACAD_REACTORS
330
D
102
}
330
D
100
AcDbGroup
300

 70
     1
 71
     1
  0
GROUP
  5
1668B
102
{ACAD_REACTORS
330
D
102
}
330
D
100
AcDbGroup
300

 70
     1
 71
     1
  0
GROUP
  5
1663D
102
{ACAD_REACTORS
330
D
102
}
330
D
100
AcDbGroup
300

 70
     1
 71
     1
  0
GROUP
  5
ACAB
102
{ACAD_REACTORS
330
D
102
}
330
D
100
AcDbGroup
300

 70
     1
 71
     1
  0
GROUP
  5
14436
102
{ACAD_REACTORS
330
D
102
}
330
D
100
AcDbGroup
300

 70
     1
 71
     1
  0
GROUP
  5
167DB
102
{ACAD_REACTORS
330
D
102
}
330
D
100
AcDbGroup
300

 70
     1
 71
     1
  0
GROUP
  5
FBFF
102
{ACAD_REACTORS
330
D
102
}
330
D
100
AcDbGroup
300

 70
     1
 71
     1
  0
GROUP
  5
106C6
102
{ACAD_REACTORS
330
D
102
}
330
D
100
AcDbGroup
300

 70
     1
 71
     1
  0
GROUP
  5
106A5
102
{ACAD_REACTORS
330
D
102
}
330
D
100
AcDbGroup
300

 70
     1
 71
     1
  0
GROUP
  5
FC9B
102
{ACAD_REACTORS
330
D
102
}
330
D
100
AcDbGroup
300

 70
     1
 71
     1
  0
GROUP
  5
14437
102
{ACAD_REACTORS
330
D
102
}
330
D
100
AcDbGroup
300

 70
     1
 71
     1
  0
GROUP
  5
166D0
102
{ACAD_REACTORS
330
D
102
}
330
D
100
AcDbGroup
300

 70
     1
 71
     1
  0
GROUP
  5
166C0
102
{ACAD_REACTORS
330
D
102
}
330
D
100
AcDbGroup
300

 70
     1
 71
     1
  0
GROUP
  5
FC95
102
{ACAD_REACTORS
330
D
102
}
330
D
100
AcDbGroup
300

 70
     1
 71
     1
  0
GROUP
  5
1474A
102
{ACAD_REACTORS
330
D
102
}
330
D
100
AcDbGroup
300

 70
     1
 71
     1
  0
GROUP
  5
18451
102
{ACAD_REACTORS
330
D
102
}
330
D
100
AcDbGroup
300

 70
     1
 71
     1
  0
GROUP
  5
1629D
102
{ACAD_REACTORS
330
D
102
}
330
D
100
AcDbGroup
300

 70
     1
 71
     1
  0
GROUP
  5
16A19
102
{ACAD_REACTORS
330
D
102
}
330
D
100
AcDbGroup
300

 70
     1
 71
     1
  0
GROUP
  5
FB6B
102
{ACAD_REACTORS
330
D
102
}
330
D
100
AcDbGroup
300

 70
     1
 71
     1
  0
GROUP
  5
ACB4
102
{ACAD_REACTORS
330
D
102
}
330
D
100
AcDbGroup
300

 70
     1
 71
     1
  0
GROUP
  5
171C7
102
{ACAD_REACTORS
330
D
102
}
330
D
100
AcDbGroup
300

 70
     1
 71
     1
  0
GROUP
  5
17D99
102
{ACAD_REACTORS
330
D
102
}
330
D
100
AcDbGroup
300

 70
     1
 71
     1
340
17D91
340
17D92
340
17D93
340
17D94
340
17D95
340
17D96
340
17D97
340
17D98
  0
GROUP
  5
16BBA
102
{ACAD_REACTORS
330
D
102
}
330
D
100
AcDbGroup
300

 70
     1
 71
     1
  0
GROUP
  5
16A6A
102
{ACAD_REACTORS
330
D
102
}
330
D
100
AcDbGroup
300

 70
     1
 71
     1
  0
GROUP
  5
FC91
102
{ACAD_REACTORS
330
D
102
}
330
D
100
AcDbGroup
300

 70
     1
 71
     1
  0
GROUP
  5
FC9A
102
{ACAD_REACTORS
330
D
102
}
330
D
100
AcDbGroup
300

 70
     1
 71
     1
  0
GROUP
  5
106B3
102
{ACAD_REACTORS
330
D
102
}
330
D
100
AcDbGroup
300

 70
     1
 71
     1
  0
GROUP
  5
ACBD
102
{ACAD_REACTORS
330
D
102
}
330
D
100
AcDbGroup
300

 70
     1
 71
     1
  0
GROUP
  5
15D51
102
{ACAD_REACTORS
330
D
102
}
330
D
100
AcDbGroup
300

 70
     1
 71
     1
  0
GROUP
  5
15D4F
102
{ACAD_REACTORS
330
D
102
}
330
D
100
AcDbGroup
300

 70
     1
 71
     1
  0
GROUP
  5
1668A
102
{ACAD_REACTORS
330
D
102
}
330
D
100
AcDbGroup
300

 70
     1
 71
     1
  0
GROUP
  5
FCB8
102
{ACAD_REACTORS
330
D
102
}
330
D
100
AcDbGroup
300

 70
     1
 71
     1
  0
GROUP
  5
AC9A
102
{ACAD_REACTORS
330
D
102
}
330
D
100
AcDbGroup
300

 70
     1
 71
     1
  0
GROUP
  5
16616
102
{ACAD_REACTORS
330
D
102
}
330
D
100
AcDbGroup
300

 70
     1
 71
     1
  0
GROUP
  5
106C7
102
{ACAD_REACTORS
330
D
102
}
330
D
100
AcDbGroup
300

 70
     1
 71
     1
  0
GROUP
  5
17D87
102
{ACAD_REACTORS
330
D
102
}
330
D
100
AcDbGroup
300

 70
     1
 71
     1
340
17D7F
340
17D81
340
17D82
340
17D83
340
17D84
340
17D85
340
17D86
340
17D80
  0
GROUP
  5
ACA2
102
{ACAD_REACTORS
330
D
102
}
330
D
100
AcDbGroup
300

 70
     1
 71
     1
  0
MLINESTYLE
  5
1C
102
{ACAD_REACTORS
330
1B
102
}
330
1B
100
AcDbMlineStyle
  2
STANDARD
 70
     0
  3

 62
   256
 51
90.0
 52
90.0
 71
     2
 49
0.5
 62
   256
  6
BYLAYER
 49
-0.5
 62
   256
  6
BYLAYER
  0
ACDBPLACEHOLDER
  5
FB5C
102
{ACAD_REACTORS
330
FB5B
102
}
330
FB5B
100
AcDbPlaceHolder
280
     0
  0
XRECORD
  5
189BF
102
{ACAD_REACTORS
330
189B5
102
}
330
189B5
100
AcDbXrecord
 90
        0
  0
XRECORD
  5
189C3
102
{ACAD_REACTORS
330
189B5
102
}
330
189B5
100
AcDbXrecord
1000
DSTYLE
1002
{
1070
    79
 70
     2
1070
   179
 70
     2
1070
   279
 70
     2
1070
   341
340
1215D
1070
   342
340
1215D
1002
}
  0
XRECORD
  5
189C0
102
{ACAD_REACTORS
330
189B5
102
}
330
189B5
100
AcDbXrecord
  1
{D14EE3FF-941A-415A-9907-344E0A80D794}
  0
XRECORD
  5
189B8
102
{ACAD_REACTORS
330
189B5
102
}
330
189B5
100
AcDbXrecord
  1

  0
XRECORD
  5
189BE
102
{ACAD_REACTORS
330
189B5
102
}
330
189B5
100
AcDbXrecord
 90
        0
  0
XRECORD
  5
189BA
102
{ACAD_REACTORS
330
189B5
102
}
330
189B5
100
AcDbXrecord
340
DB2
  0
XRECORD
  5
189BD
102
{ACAD_REACTORS
330
189B5
102
}
330
189B5
100
AcDbXrecord
 90
    10269
  0
XRECORD
  5
189BB
102
{ACAD_REACTORS
330
189B5
102
}
330
189B5
100
AcDbXrecord
340
DB3
  0
XRECORD
  5
189BC
102
{ACAD_REACTORS
330
189B5
102
}
330
189B5
100
AcDbXrecord
340
FB5B
  0
XRECORD
  5
189C2
102
{ACAD_REACTORS
330
189B5
102
}
330
189B5
100
AcDbXrecord
 40
0.0
  0
XRECORD
  5
189C6
102
{ACAD_REACTORS
330
189B5
102
}
330
189B5
100
AcDbXrecord
340
0
  0
XRECORD
  5
189CC
102
{ACAD_REACTORS
330
189B5
102
}
330
189B5
100
AcDbXrecord
 10
0.0
 20
0.0
 30
0.0
  0
XRECORD
  5
189C8
102
{ACAD_REACTORS
330
189B5
102
}
330
189B5
100
AcDbXrecord
 10
0.0
 20
0.0
 30
0.0
  0
XRECORD
  5
189CB
102
{ACAD_REACTORS
330
189B5
102
}
330
189B5
100
AcDbXrecord
 10
0.0
 20
0.0
 30
0.0
  0
XRECORD
  5
189C9
102
{ACAD_REACTORS
330
189B5
102
}
330
189B5
100
AcDbXrecord
 10
0.0
 20
0.0
 30
0.0
  0
XRECORD
  5
189CA
102
{ACAD_REACTORS
330
189B5
102
}
330
189B5
100
AcDbXrecord
 10
0.0
 20
0.0
 30
0.0
  0
XRECORD
  5
189C7
102
{ACAD_REACTORS
330
189B5
102
}
330
189B5
100
AcDbXrecord
 10
0.0
 20
0.0
 30
0.0
  0
XRECORD
  5
189C4
102
{ACAD_REACTORS
330
189B5
102
}
330
189B5
100
AcDbXrecord
340
0
  0
XRECORD
  5
189C5
102
{ACAD_REACTORS
330
189B5
102
}
330
189B5
100
AcDbXrecord
 70
     0
  0
XRECORD
  5
189B9
102
{ACAD_REACTORS
330
189B5
102
}
330
189B5
100
AcDbXrecord
  1

  0
XRECORD
  5
189B6
102
{ACAD_REACTORS
330
189B5
102
}
330
189B5
100
AcDbXrecord
 90
        1
  0
XRECORD
  5
189B7
102
{ACAD_REACTORS
330
189B5
102
}
330
189B5
100
AcDbXrecord
 90
       70
  0
XRECORD
  5
189CF
102
{ACAD_REACTORS
330
189B5
102
}
330
189B5
100
AcDbXrecord
340
0
  0
XRECORD
  5
189D5
102
{ACAD_REACTORS
330
189B5
102
}
330
189B5
100
AcDbXrecord
 10
0.0
 20
0.0
 30
0.0
  0
XRECORD
  5
189D1
102
{ACAD_REACTORS
330
189B5
102
}
330
189B5
100
AcDbXrecord
 10
0.0
 20
0.0
 30
0.0
  0
XRECORD
  5
189D4
102
{ACAD_REACTORS
330
189B5
102
}
330
189B5
100
AcDbXrecord
 10
0.0
 20
0.0
 30
0.0
  0
XRECORD
  5
189D2
102
{ACAD_REACTORS
330
189B5
102
}
330
189B5
100
AcDbXrecord
 10
0.0
 20
0.0
 30
0.0
  0
XRECORD
  5
189D3
102
{ACAD_REACTORS
330
189B5
102
}
330
189B5
100
AcDbXrecord
 10
0.0
 20
0.0
 30
0.0
  0
XRECORD
  5
189D0
102
{ACAD_REACTORS
330
189B5
102
}
330
189B5
100
AcDbXrecord
 10
0.0
 20
0.0
 30
0.0
  0
XRECORD
  5
189CD
102
{ACAD_REACTORS
330
189B5
102
}
330
189B5
100
AcDbXrecord
340
0
  0
XRECORD
  5
189CE
102
{ACAD_REACTORS
330
189B5
102
}
330
189B5
100
AcDbXrecord
 70
     0
  0
XRECORD
  5
189C1
102
{ACAD_REACTORS
330
189B5
102
}
330
189B5
100
AcDbXrecord
  1
{554614E3-54D1-490C-B352-C87AC326AF4D}
  0
DICTIONARYVAR
  5
106A7
102
{ACAD_REACTORS
330
106A6
102
}
330
106A6
100
DictionaryVariables
280
     0
  1
96
  0
XRECORD
  5
187F6
102
{ACAD_REACTORS
330
187F5
102
}
330
187F5
100
AcDbXrecord
  1
0
  1
*0
  1
*
  1
*
 70
     0
  1
*
  1
*
  0
XRECORD
  5
187F7
102
{ACAD_REACTORS
330
187F5
102
}
330
187F5
100
AcDbXrecord
  1
11
  1
*11
  1
*
  1
*
 70
     0
  1
*
  1
*
  0
XRECORD
  5
187F8
102
{ACAD_REACTORS
330
187F5
102
}
330
187F5
100
AcDbXrecord
  1
150_
  1
150_*
  1
*
  1
*
 70
     0
  1
*
  1
*
  0
XRECORD
  5
187F9
102
{ACAD_REACTORS
330
187F5
102
}
330
187F5
100
AcDbXrecord
  1
160_
  1
160_*
  1
*
  1
*
 70
     0
  1
*
  1
*
  0
XRECORD
  5
187FA
102
{ACAD_REACTORS
330
187F5
102
}
330
187F5
100
AcDbXrecord
  1
170_
  1
170_*
  1
*
  1
*
 70
     0
  1
*
  1
*
  0
XRECORD
  5
187FB
102
{ACAD_REACTORS
330
187F5
102
}
330
187F5
100
AcDbXrecord
  1
171_
  1
171_*
  1
*
  1
*
 70
     0
  1
*
  1
*
  0
XRECORD
  5
187FC
102
{ACAD_REACTORS
330
187F5
102
}
330
187F5
100
AcDbXrecord
  1
350_
  1
350_*
  1
*
  1
*
 70
     0
  1
*
  1
*
  0
XRECORD
  5
187FD
102
{ACAD_REACTORS
330
187F5
102
}
330
187F5
100
AcDbXrecord
  1
4
  1
*4
  1
*
  1
*
 70
     0
  1
*
  1
*
  0
XRECORD
  5
187FE
102
{ACAD_REACTORS
330
187F5
102
}
330
187F5
100
AcDbXrecord
  1
5
  1
*5
  1
*
  1
*
 70
     0
  1
*
  1
*
  0
XRECORD
  5
187FF
102
{ACAD_REACTORS
330
187F5
102
}
330
187F5
100
AcDbXrecord
  1
7
  1
*7
  1
*
  1
*
 70
     0
  1
*
  1
*
  0
XRECORD
  5
18800
102
{ACAD_REACTORS
330
187F5
102
}
330
187F5
100
AcDbXrecord
  1
kiseki
  1
kiseki*
  1
*
  1
*
 70
     0
  1
*
  1
*
  0
ENDSEC
  0
EOF
