  0
SECTION
  2
HEADER
  9
$ACADVER
  1
AC1015
  9
$ACADMAINTVER
 70
    20
  9
$DWGCODEPAGE
  3
ANSI_932
  9
$INSBASE
 10
0.0
 20
0.0
 30
0.0
  9
$EXTMIN
 10
268.3770762978532
 20
-2577.681069002532
 30
0.0
  9
$EXTMAX
 10
1207.453267383876
 20
-2225.691602833293
 30
137.5
  9
$LIMMIN
 10
0.0
 20
0.0
  9
$LIMMAX
 10
420.0
 20
297.0
  9
$ORTHOMODE
 70
     1
  9
$REGENMODE
 70
     1
  9
$FILLMODE
 70
     1
  9
$QTEXTMODE
 70
     0
  9
$MIRRTEXT
 70
     0
  9
$LTSCALE
 40
20.0
  9
$ATTMODE
 70
     2
  9
$TEXTSIZE
 40
10.0
  9
$TRACEWID
 40
1.0
  9
$TEXTSTYLE
  7
\U+FF7D\U+FF80\U+FF72\U+FF993
  9
$CLAYER
  8
寸法
  9
$CELTYPE
  6
BYLAYER
  9
$CECOLOR
 62
   256
  9
$CELTSCALE
 40
1.0
  9
$DISPSILH
 70
     0
  9
$DIMSCALE
 40
1.5
  9
$DIMASZ
 40
2.5
  9
$DIMEXO
 40
0.8
  9
$DIMDLI
 40
10.0
  9
$DIMRND
 40
0.0
  9
$DIMDLE
 40
0.0
  9
$DIMEXE
 40
0.18
  9
$DIMTP
 40
0.0
  9
$DIMTM
 40
0.0
  9
$DIMTXT
 40
3.0
  9
$DIMCEN
 40
0.0
  9
$DIMTSZ
 40
0.0
  9
$DIMTOL
 70
     0
  9
$DIMLIM
 70
     0
  9
$DIMTIH
 70
     0
  9
$DIMTOH
 70
     0
  9
$DIMSE1
 70
     0
  9
$DIMSE2
 70
     0
  9
$DIMTAD
 70
     3
  9
$DIMZIN
 70
     8
  9
$DIMBLK
  1
Open30
  9
$DIMASO
 70
     1
  9
$DIMSHO
 70
     1
  9
$DIMPOST
  1

  9
$DIMAPOST
  1

  9
$DIMALT
 70
     0
  9
$DIMALTD
 70
     2
  9
$DIMALTF
 40
25.4
  9
$DIMLFAC
 40
1.0
  9
$DIMTOFL
 70
     0
  9
$DIMTVP
 40
0.0
  9
$DIMTIX
 70
     0
  9
$DIMSOXD
 70
     0
  9
$DIMSAH
 70
     0
  9
$DIMBLK1
  1

  9
$DIMBLK2
  1

  9
$DIMSTYLE
  2
まこ
  9
$DIMCLRD
 70
     4
  9
$DIMCLRE
 70
     4
  9
$DIMCLRT
 70
   256
  9
$DIMTFAC
 40
1.0
  9
$DIMGAP
 40
0.5
  9
$DIMJUST
 70
     0
  9
$DIMSD1
 70
     0
  9
$DIMSD2
 70
     0
  9
$DIMTOLJ
 70
     1
  9
$DIMTZIN
 70
     0
  9
$DIMALTZ
 70
     0
  9
$DIMALTTZ
 70
     0
  9
$DIMUPT
 70
     0
  9
$DIMDEC
 70
     8
  9
$DIMTDEC
 70
     8
  9
$DIMALTU
 70
     2
  9
$DIMALTTD
 70
     2
  9
$DIMTXSTY
  7
まこ
  9
$DIMAUNIT
 70
     0
  9
$DIMADEC
 70
     0
  9
$DIMALTRND
 40
0.0
  9
$DIMAZIN
 70
     0
  9
$DIMDSEP
 70
    46
  9
$DIMATFIT
 70
     1
  9
$DIMFRAC
 70
     0
  9
$DIMLDRBLK
  1
Open30
  9
$DIMLUNIT
 70
     2
  9
$DIMLWD
 70
    13
  9
$DIMLWE
 70
    13
  9
$DIMTMOVE
 70
     0
  9
$LUNITS
 70
     2
  9
$LUPREC
 70
     4
  9
$SKETCHINC
 40
1.0
  9
$FILLETRAD
 40
0.0
  9
$AUNITS
 70
     0
  9
$AUPREC
 70
     0
  9
$MENU
  1
.
  9
$ELEVATION
 40
0.0
  9
$PELEVATION
 40
0.0
  9
$THICKNESS
 40
0.0
  9
$LIMCHECK
 70
     0
  9
$CHAMFERA
 40
0.5
  9
$CHAMFERB
 40
0.5
  9
$CHAMFERC
 40
20.0
  9
$CHAMFERD
 40
0.0
  9
$SKPOLY
 70
     0
  9
$TDCREATE
 40
2451224.660162037
  9
$TDUCREATE
 40
2451224.285162384
  9
$TDUPDATE
 40
2458549.470578704
  9
$TDUUPDATE
 40
2458549.095578704
  9
$TDINDWG
 40
0.0782690972
  9
$TDUSRTIMER
 40
2458228.187114178
  9
$USRTIMER
 70
     1
  9
$ANGBASE
 50
0.0
  9
$ANGDIR
 70
     0
  9
$PDMODE
 70
     0
  9
$PDSIZE
 40
0.0
  9
$PLINEWID
 40
0.0
  9
$SPLFRAME
 70
     0
  9
$SPLINETYPE
 70
     6
  9
$SPLINESEGS
 70
     8
  9
$HANDSEED
  5
2E1D3
  9
$SURFTAB1
 70
     6
  9
$SURFTAB2
 70
     6
  9
$SURFTYPE
 70
     6
  9
$SURFU
 70
     6
  9
$SURFV
 70
     6
  9
$UCSBASE
  2

  9
$UCSNAME
  2

  9
$UCSORG
 10
0.0
 20
0.0
 30
0.0
  9
$UCSXDIR
 10
1.0
 20
0.0
 30
0.0
  9
$UCSYDIR
 10
0.0
 20
1.0
 30
0.0
  9
$UCSORTHOREF
  2

  9
$UCSORTHOVIEW
 70
     0
  9
$UCSORGTOP
 10
0.0
 20
0.0
 30
0.0
  9
$UCSORGBOTTOM
 10
0.0
 20
0.0
 30
0.0
  9
$UCSORGLEFT
 10
0.0
 20
0.0
 30
0.0
  9
$UCSORGRIGHT
 10
0.0
 20
0.0
 30
0.0
  9
$UCSORGFRONT
 10
0.0
 20
0.0
 30
0.0
  9
$UCSORGBACK
 10
0.0
 20
0.0
 30
0.0
  9
$PUCSBASE
  2

  9
$PUCSNAME
  2

  9
$PUCSORG
 10
0.0
 20
0.0
 30
0.0
  9
$PUCSXDIR
 10
1.0
 20
0.0
 30
0.0
  9
$PUCSYDIR
 10
0.0
 20
1.0
 30
0.0
  9
$PUCSORTHOREF
  2

  9
$PUCSORTHOVIEW
 70
     0
  9
$PUCSORGTOP
 10
0.0
 20
0.0
 30
0.0
  9
$PUCSORGBOTTOM
 10
0.0
 20
0.0
 30
0.0
  9
$PUCSORGLEFT
 10
0.0
 20
0.0
 30
0.0
  9
$PUCSORGRIGHT
 10
0.0
 20
0.0
 30
0.0
  9
$PUCSORGFRONT
 10
0.0
 20
0.0
 30
0.0
  9
$PUCSORGBACK
 10
0.0
 20
0.0
 30
0.0
  9
$USERI1
 70
     0
  9
$USERI2
 70
     0
  9
$USERI3
 70
     0
  9
$USERI4
 70
     0
  9
$USERI5
 70
     0
  9
$USERR1
 40
245.9999999999999
  9
$USERR2
 40
0.0
  9
$USERR3
 40
0.0
  9
$USERR4
 40
0.0
  9
$USERR5
 40
0.0
  9
$WORLDVIEW
 70
     1
  9
$SHADEDGE
 70
     3
  9
$SHADEDIF
 70
    70
  9
$TILEMODE
 70
     0
  9
$MAXACTVP
 70
    48
  9
$PINSBASE
 10
0.0
 20
0.0
 30
0.0
  9
$PLIMCHECK
 70
     0
  9
$PEXTMIN
 10
1.049999999999999
 20
0.6999999999999998
 30
0.0
  9
$PEXTMAX
 10
9.449999999999999
 20
6.3
 30
0.0
  9
$PLIMMIN
 10
0.0
 20
0.0
  9
$PLIMMAX
 10
0.0
 20
0.0
  9
$UNITMODE
 70
     0
  9
$VISRETAIN
 70
     1
  9
$PLINEGEN
 70
     0
  9
$PSLTSCALE
 70
     1
  9
$TREEDEPTH
 70
  3020
  9
$CMLSTYLE
  2
STANDARD
  9
$CMLJUST
 70
     0
  9
$CMLSCALE
 40
20.0
  9
$PROXYGRAPHICS
 70
     1
  9
$MEASUREMENT
 70
     0
  9
$CELWEIGHT
370
    -1
  9
$ENDCAPS
280
     0
  9
$JOINSTYLE
280
     0
  9
$LWDISPLAY
290
     0
  9
$INSUNITS
 70
     0
  9
$HYPERLINKBASE
  1

  9
$STYLESHEET
  1
monochrome.ctb
  9
$XEDIT
290
     1
  9
$CEPSNTYPE
380
     0
  9
$PSTYLEMODE
290
     1
  9
$FINGERPRINTGUID
  2
{D14EE3FF-941A-415A-9907-344E0A80D794}
  9
$VERSIONGUID
  2
{8609FB67-B521-9B47-B532-F3C4B3DB9D32}
  9
$EXTNAMES
290
     1
  9
$PSVPSCALE
 40
0.0
  9
$OLESTARTUP
290
     0
  0
ENDSEC
  0
SECTION
  2
CLASSES
  0
CLASS
  1
ACDBDICTIONARYWDFLT
  2
AcDbDictionaryWithDefault
  3
ObjectDBX Classes
 90
        0
280
     0
281
     0
  0
CLASS
  1
ACDBPLACEHOLDER
  2
AcDbPlaceHolder
  3
ObjectDBX Classes
 90
        0
280
     0
281
     0
  0
CLASS
  1
LAYOUT
  2
AcDbLayout
  3
ObjectDBX Classes
 90
        0
280
     0
281
     0
  0
CLASS
  1
DICTIONARYVAR
  2
AcDbDictionaryVar
  3
ObjectDBX Classes
 90
        0
280
     0
281
     0
  0
CLASS
  1
VISUALSTYLE
  2
AcDbVisualStyle
  3
ObjectDBX Classes
 90
     4095
280
     0
281
     0
  0
CLASS
  1
SCALE
  2
AcDbScale
  3
ObjectDBX Classes
 90
     1153
280
     0
281
     0
  0
CLASS
  1
MATERIAL
  2
AcDbMaterial
  3
ObjectDBX Classes
 90
     1153
280
     0
281
     0
  0
CLASS
  1
TABLESTYLE
  2
AcDbTableStyle
  3
ObjectDBX Classes
 90
     4095
280
     0
281
     0
  0
CLASS
  1
MLEADERSTYLE
  2
AcDbMLeaderStyle
  3
ACDB_MLEADERSTYLE_CLASS
 90
     4095
280
     0
281
     0
  0
CLASS
  1
SUN
  2
AcDbSun
  3
SCENEOE
 90
     1153
280
     0
281
     0
  0
CLASS
  1
RASTERVARIABLES
  2
AcDbRasterVariables
  3
ISM
 90
        0
280
     0
281
     0
  0
CLASS
  1
DIMASSOC
  2
AcDbDimAssoc
  3
"AcDbDimAssoc|Product Desc:     AcDim ARX App For Dimension|Company:          Autodesk, Inc.|WEB Address:      www.autodesk.com"
 90
    32768
280
     0
281
     0
  0
CLASS
  1
SORTENTSTABLE
  2
AcDbSortentsTable
  3
ObjectDBX Classes
 90
        0
280
     0
281
     0
  0
CLASS
  1
ACDBSECTIONVIEWSTYLE
  2
AcDbSectionViewStyle
  3
ObjectDBX Classes
 90
     1025
280
     0
281
     0
  0
CLASS
  1
ACDBDETAILVIEWSTYLE
  2
AcDbDetailViewStyle
  3
ObjectDBX Classes
 90
     1025
280
     0
281
     0
  0
CLASS
  1
CELLSTYLEMAP
  2
AcDbCellStyleMap
  3
ObjectDBX Classes
 90
     1152
280
     0
281
     0
  0
ENDSEC
  0
SECTION
  2
TABLES
  0
TABLE
  2
VPORT
  5
8
102
{ACAD_XDICTIONARY
360
2E0E0
102
}
330
0
100
AcDbSymbolTable
 70
     1
  0
VPORT
  5
2839E
330
8
100
AcDbSymbolTableRecord
100
AcDbViewportTableRecord
  2
*Active
 70
     0
 10
0.0
 20
0.0
 11
1.0
 21
1.0
 12
1116.178312693889
 22
-2545.874437891106
 13
0.0
 23
0.0
 14
10.0
 24
10.0
 15
10.0
 25
10.0
 16
0.0
 26
0.0
 36
1.0
 17
0.0
 27
0.0
 37
0.0
 40
241.2571220020105
 41
1.305479452054794
 42
50.0
 43
0.0
 44
0.0
 50
0.0
 51
0.0
 71
    16
 72
   100
 73
     1
 74
     0
 75
     0
 76
     0
 77
     0
 78
     0
281
     0
 65
     1
110
0.0
120
0.0
130
0.0
111
1.0
121
0.0
131
0.0
112
0.0
122
1.0
132
0.0
 79
     0
146
0.0
  0
ENDTAB
  0
TABLE
  2
LTYPE
  5
5
330
0
100
AcDbSymbolTable
 70
     5
  0
LTYPE
  5
12
330
5
100
AcDbSymbolTableRecord
100
AcDbLinetypeTableRecord
  2
BYBLOCK
 70
     0
  3

 72
    65
 73
     0
 40
0.0
  0
LTYPE
  5
13
330
5
100
AcDbSymbolTableRecord
100
AcDbLinetypeTableRecord
  2
BYLAYER
 70
     0
  3

 72
    65
 73
     0
 40
0.0
  0
LTYPE
  5
14
330
5
100
AcDbSymbolTableRecord
100
AcDbLinetypeTableRecord
  2
CONTINUOUS
 70
     0
  3
Solid line
 72
    65
 73
     0
 40
0.0
  0
LTYPE
  5
126C
330
5
100
AcDbSymbolTableRecord
100
AcDbLinetypeTableRecord
  2
CENTER
 70
     0
  3
____ _ ____ _ ____ _ ____ _ ____ _ ____ _ ____
 72
    65
 73
     4
 40
2.0
 49
1.25
 74
     0
 49
-0.25
 74
     0
 49
0.25
 74
     0
 49
-0.25
 74
     0
  0
LTYPE
  5
126E
330
5
100
AcDbSymbolTableRecord
100
AcDbLinetypeTableRecord
  2
DASHDOT
 70
     0
  3
__ . __ . __ . __ . __ . __ . __ . __ . __ . __
 72
    65
 73
     4
 40
1.0
 49
0.5
 74
     0
 49
-0.25
 74
     0
 49
0.0
 74
     0
 49
-0.25
 74
     0
  0
LTYPE
  5
15420
330
5
100
AcDbSymbolTableRecord
100
AcDbLinetypeTableRecord
  2
CENTER2
 70
     0
  3
Center (.5x) ___ _ ___ _ ___ _ ___ _ ___ _ ___
 72
    65
 73
     4
 40
1.125
 49
0.75
 74
     0
 49
-0.125
 74
     0
 49
0.125
 74
     0
 49
-0.125
 74
     0
  0
LTYPE
  5
2B96B
330
5
100
AcDbSymbolTableRecord
100
AcDbLinetypeTableRecord
  2
HIDDEN2
 70
     0
  3
Hidden (.5x) _ _ _ _ _ _ _ _ _ _ _ _ _ _ _ _ _
 72
    65
 73
     2
 40
4.762499999999999
 49
3.174999999999999
 74
     0
 49
-1.587499999999999
 74
     0
  0
ENDTAB
  0
TABLE
  2
LAYER
  5
2
102
{ACAD_XDICTIONARY
360
254EC
102
}
330
0
100
AcDbSymbolTable
 70
    10
  0
LAYER
  5
E
330
2
100
AcDbSymbolTableRecord
100
AcDbLayerTableRecord
  2
0
 70
     2
 62
     7
  6
CONTINUOUS
370
    35
390
FB5C
  0
LAYER
  5
30
330
2
100
AcDbSymbolTableRecord
100
AcDbLayerTableRecord
  2
FRAME025
 70
     0
 62
     7
  6
CONTINUOUS
370
    -3
390
FB5C
  0
LAYER
  5
651
330
2
100
AcDbSymbolTableRecord
100
AcDbLayerTableRecord
  2
FRAME020
 70
     0
 62
     7
  6
CONTINUOUS
370
    -3
390
FB5C
  0
LAYER
  5
1271
330
2
100
AcDbSymbolTableRecord
100
AcDbLayerTableRecord
  2
A
 70
     0
 62
     7
  6
CONTINUOUS
370
    -3
390
FB5C
  0
LAYER
  5
122DE
330
2
100
AcDbSymbolTableRecord
100
AcDbLayerTableRecord
  2
dimension
 70
     0
 62
     7
  6
CONTINUOUS
370
    13
390
FB5C
  0
LAYER
  5
15422
330
2
100
AcDbSymbolTableRecord
100
AcDbLayerTableRecord
  2
細線
 70
     0
 62
     7
  6
CONTINUOUS
370
    13
390
FB5C
  0
LAYER
  5
15425
330
2
100
AcDbSymbolTableRecord
100
AcDbLayerTableRecord
  2
中心線
 70
     0
 62
     7
  6
CENTER2
370
    13
390
FB5C
  0
LAYER
  5
1A846
330
2
100
AcDbSymbolTableRecord
100
AcDbLayerTableRecord
  2
実線
 70
     0
 62
     7
  6
CONTINUOUS
370
    40
390
FB5C
  0
LAYER
  5
25A1E
330
2
100
AcDbSymbolTableRecord
100
AcDbLayerTableRecord
  2
寸法
 70
     0
 62
     7
  6
CONTINUOUS
370
    -3
390
FB5C
  0
LAYER
  5
2B968
102
{ACAD_XDICTIONARY
360
2B969
102
}
330
2
100
AcDbSymbolTableRecord
100
AcDbLayerTableRecord
  2
破線
 70
     0
 62
     7
  6
HIDDEN2
370
    13
390
FB5C
  0
ENDTAB
  0
TABLE
  2
STYLE
  5
3
330
0
100
AcDbSymbolTable
 70
     7
  0
STYLE
  5
F
330
3
100
AcDbSymbolTableRecord
100
AcDbTextStyleTableRecord
  2
STANDARD
 70
     0
 40
0.0
 41
1.0
 50
0.0
 71
     0
 42
2.5
  3
isocp.shx
  4
bigfont.shx
  0
STYLE
  5
34
330
3
100
AcDbSymbolTableRecord
100
AcDbTextStyleTableRecord
  2
TIMESNR
 70
     0
 40
0.0
 41
1.0
 50
0.0
 71
     0
 42
2.0
  3
times.ttf
  4

1001
ACAD
1000
Times New Roman
1071
       18
  0
STYLE
  5
35
330
3
100
AcDbSymbolTableRecord
100
AcDbTextStyleTableRecord
  2
MS\U+FF7A\U+FF9E\U+FF7C\U+FF6F\U+FF78
 70
     0
 40
0.0
 41
1.0
 50
0.0
 71
     0
 42
5.0
  3

  4

1001
ACAD
1000
MS Gothic
1071
    32817
  0
STYLE
  5
1275
330
3
100
AcDbSymbolTableRecord
100
AcDbTextStyleTableRecord
  2
BIGFONT
 70
     0
 40
2.0
 41
1.0
 50
0.0
 71
     0
 42
2.0
  3
txt.shx
  4
bigfont.shx
  0
STYLE
  5
1A849
330
3
100
AcDbSymbolTableRecord
100
AcDbTextStyleTableRecord
  2
まこ
 70
     0
 40
0.0
 41
1.0
 50
0.0
 71
     0
 42
2.5
  3
simplex.shx
  4
bigfont.shx
  0
STYLE
  5
1A84A
330
3
100
AcDbSymbolTableRecord
100
AcDbTextStyleTableRecord
  2
\U+FF7D\U+FF80\U+FF72\U+FF993
 70
     0
 40
10.0
 41
1.0
 50
0.0
 71
     0
 42
10.0
  3
isocp.shx
  4
extfont.shx
  0
STYLE
  5
1F8B3
330
3
100
AcDbSymbolTableRecord
100
AcDbTextStyleTableRecord
  2
MS\U+FF7A\U+FF9E\U+FF7C\U+FF6F\U+FF78N
 70
     0
 40
0.0
 41
1.0
 50
0.0
 71
     0
 42
5.0
  3

  4

1001
ACAD
1000
MS Gothic
1071
    32817
  0
ENDTAB
  0
TABLE
  2
VIEW
  5
6
330
0
100
AcDbSymbolTable
 70
     0
  0
ENDTAB
  0
TABLE
  2
UCS
  5
7
330
0
100
AcDbSymbolTable
 70
     0
  0
ENDTAB
  0
TABLE
  2
APPID
  5
9
330
0
100
AcDbSymbolTable
 70
    12
  0
APPID
  5
10
330
9
100
AcDbSymbolTableRecord
100
AcDbRegAppTableRecord
  2
ACAD
 70
     0
  0
APPID
  5
F013
330
9
100
AcDbSymbolTableRecord
100
AcDbRegAppTableRecord
  2
CONTENTBLOCKDESCRIPTION
 70
     0
  0
APPID
  5
F014
330
9
100
AcDbSymbolTableRecord
100
AcDbRegAppTableRecord
  2
CONTENTBLOCKICON
 70
     0
  0
APPID
  5
1A9A0
330
9
100
AcDbSymbolTableRecord
100
AcDbRegAppTableRecord
  2
DCO15
 70
     0
  0
APPID
  5
28407
330
9
100
AcDbSymbolTableRecord
100
AcDbRegAppTableRecord
  2
PE_CLOUD
 70
     0
  0
APPID
  5
2895F
330
9
100
AcDbSymbolTableRecord
100
AcDbRegAppTableRecord
  2
PLOTTRANSPARENCY
 70
     0
  0
APPID
  5
2B92D
330
9
100
AcDbSymbolTableRecord
100
AcDbRegAppTableRecord
  2
ACAD_DSTYLE_DIMFLIPARROW_SYMBOL
 70
     0
  0
APPID
  5
2B92E
330
9
100
AcDbSymbolTableRecord
100
AcDbRegAppTableRecord
  2
ACAD_DSTYLE_DIMFLIPARROW_WHICH_SYMBOL
 70
     0
  0
APPID
  5
2B976
330
9
100
AcDbSymbolTableRecord
100
AcDbRegAppTableRecord
  2
ACAD_DSTYLE_DIMJAG
 70
     0
  0
APPID
  5
2B977
330
9
100
AcDbSymbolTableRecord
100
AcDbRegAppTableRecord
  2
ACAD_DSTYLE_DIMTALN
 70
     0
  0
APPID
  5
2B978
330
9
100
AcDbSymbolTableRecord
100
AcDbRegAppTableRecord
  2
ACAD_DSTYLE_DIMRADIAL_EXTENSION
 70
     0
  0
APPID
  5
2E119
330
9
100
AcDbSymbolTableRecord
100
AcDbRegAppTableRecord
  2
ACAD_MLEADERVER
 70
     0
  0
ENDTAB
  0
TABLE
  2
DIMSTYLE
  5
A
330
0
100
AcDbSymbolTable
 70
     2
100
AcDbDimStyleTable
 71
     0
  0
DIMSTYLE
105
1D
330
A
100
AcDbSymbolTableRecord
100
AcDbDimStyleTableRecord
  2
STANDARD
 70
     0
340
F
  0
DIMSTYLE
105
1A84D
330
A
100
AcDbSymbolTableRecord
100
AcDbDimStyleTableRecord
  2
まこ
 70
     0
 40
1.5
 41
2.5
 42
0.8
 43
10.0
 73
     0
 74
     0
 77
     3
 78
     8
140
3.0
141
0.0
147
0.5
176
     4
177
     4
178
   256
271
     8
272
     8
289
     1
340
1A849
341
1215D
342
1215D
371
    13
372
    13
  0
ENDTAB
  0
TABLE
  2
BLOCK_RECORD
  5
1
330
0
100
AcDbSymbolTable
 70
     2
  0
BLOCK_RECORD
  5
18
102
{ACAD_XDICTIONARY
360
2B7B2
102
}
330
1
100
AcDbSymbolTableRecord
100
AcDbBlockTableRecord
  2
*MODEL_SPACE
340
FB5D
  0
BLOCK_RECORD
  5
2E07C
330
1
100
AcDbSymbolTableRecord
100
AcDbBlockTableRecord
  2
*Paper_Space
340
2E07D
  0
BLOCK_RECORD
  5
115C
330
1
100
AcDbSymbolTableRecord
100
AcDbBlockTableRecord
  2
機械A4横_LBP
340
0
102
{BLKREFS
331
187D7
102
}
  0
BLOCK_RECORD
  5
1215D
330
1
100
AcDbSymbolTableRecord
100
AcDbBlockTableRecord
  2
_Open30
340
0
  0
ENDTAB
  0
ENDSEC
  0
SECTION
  2
BLOCKS
  0
BLOCK
  5
19
330
18
100
AcDbEntity
  8
0
100
AcDbBlockBegin
  2
*MODEL_SPACE
 70
     0
 10
0.0
 20
0.0
 30
0.0
  3
*MODEL_SPACE
  1

  0
ENDBLK
  5
1A
330
18
100
AcDbEntity
  8
0
100
AcDbBlockEnd
  0
BLOCK
  5
2E07E
330
2E07C
100
AcDbEntity
 67
     1
  8
0
100
AcDbBlockBegin
  2
*Paper_Space
 70
     0
 10
0.0
 20
0.0
 30
0.0
  3
*Paper_Space
  1

  0
ENDBLK
  5
2E07F
330
2E07C
100
AcDbEntity
 67
     1
  8
0
100
AcDbBlockEnd
  0
BLOCK
  5
115D
330
115C
100
AcDbEntity
  8
0
100
AcDbBlockBegin
  2
機械A4横_LBP
 70
     0
 10
0.0
 20
0.0
 30
0.0
  3
機械A4横_LBP
  1

  0
ENDBLK
  5
115E
330
115C
100
AcDbEntity
  8
0
100
AcDbBlockEnd
  0
BLOCK
  5
12161
330
1215D
100
AcDbEntity
  8
0
100
AcDbBlockBegin
  2
_Open30
 70
     0
 10
0.0
 20
0.0
 30
0.0
  3
_Open30
  1

  0
LINE
  5
1215E
330
1215D
100
AcDbEntity
  8
0
  6
ByBlock
 62
     0
370
    -2
100
AcDbLine
 10
-1.0
 20
0.26794919
 30
0.0
 11
0.0
 21
0.0
 31
0.0
  0
LINE
  5
1215F
330
1215D
100
AcDbEntity
  8
0
  6
ByBlock
 62
     0
370
    -2
100
AcDbLine
 10
0.0
 20
0.0
 30
0.0
 11
-1.0
 21
-0.26794919
 31
0.0
  0
LINE
  5
12160
330
1215D
100
AcDbEntity
  8
0
  6
ByBlock
 62
     0
370
    -2
100
AcDbLine
 10
0.0
 20
0.0
 30
0.0
 11
-1.0
 21
0.0
 31
0.0
  0
ENDBLK
  5
12162
330
1215D
100
AcDbEntity
  8
0
100
AcDbBlockEnd
  0
ENDSEC
  0
SECTION
  2
ENTITIES
  0
MTEXT
  5
176FC
330
18
100
AcDbEntity
  8
dimension
 62
     2
100
AcDbMText
 10
-100.7823601383244
 20
171.621314412839
 30
0.0
 40
8.0
 41
0.0
 71
     4
 72
     1
  1

 73
     1
 44
1.0
1001
ACAD
1000
MTEXTBEGIN
1070
    73
1070
     1
1070
    44
1040
1.0
1070
    74
1070
     0
1000
MTEXTEND
  0
TEXT
  5
187C8
330
18
100
AcDbEntity
  8
A
100
AcDbText
 10
27.08248755054501
 20
1784.547672862096
 30
0.0
 40
2.5
  1

  7
MS\U+FF7A\U+FF9E\U+FF7C\U+FF6F\U+FF78
100
AcDbText
  0
TEXT
  5
187C9
330
18
100
AcDbEntity
  8
A
100
AcDbText
 10
19.25748755054502
 20
1784.547672862096
 30
0.0
 40
2.5
  1

 41
0.5
  7
MS\U+FF7A\U+FF9E\U+FF7C\U+FF6F\U+FF78
100
AcDbText
  0
MTEXT
  5
187CB
330
18
100
AcDbEntity
  8
0
  6
ByBlock
100
AcDbMText
 10
325.4874764241681
 20
2232.511722574347
 30
0.0
 40
2.0
 41
0.0
 71
     4
 72
     5
  1

 11
-0.0000000000000002
 21
-1.0
 31
0.0
 73
     1
 44
1.0
1001
ACAD
1000
MTEXTBEGIN
1070
    73
1070
     1
1070
    44
1040
1.0
1070
    74
1070
     0
1000
MTEXTEND
  0
MTEXT
  5
187CC
330
18
100
AcDbEntity
  8
0
  6
ByBlock
100
AcDbMText
 10
360.9528647873209
 20
2221.71841421593
 30
0.0
 40
2.0
 41
0.0
 71
     7
 72
     5
  1

 11
0.0000000000000001
 21
1.0
 31
0.0
 73
     1
 44
1.0
1001
ACAD
1000
MTEXTBEGIN
1070
    73
1070
     1
1070
    44
1040
1.0
1070
    74
1070
     0
1000
MTEXTEND
  0
MTEXT
  5
187CD
330
18
100
AcDbEntity
  8
0
100
AcDbMText
 10
325.1733668026533
 20
2146.93890367364
 30
0.0
 40
2.0
 41
10.1453
 71
     1
 72
     5
  1

 11
-0.0000000000000002
 21
-1.0
 31
0.0
 73
     1
 44
1.0
1001
ACAD
1000
MTEXTBEGIN
1070
    73
1070
     1
1070
    44
1040
1.0
1070
    74
1070
     0
1000
MTEXTEND
  0
MTEXT
  5
187CE
330
18
100
AcDbEntity
  8
0
100
AcDbMText
 10
280.7738750495033
 20
2115.30742008065
 30
0.0
 40
2.0
 41
0.0
 71
     1
 72
     5
  1

 73
     1
 44
1.0
1001
ACAD
1000
MTEXTBEGIN
1070
    73
1070
     1
1070
    44
1040
1.0
1070
    74
1070
     0
1000
MTEXTEND
  0
MTEXT
  5
187CF
330
18
100
AcDbEntity
  8
0
  6
CENTER
100
AcDbMText
 10
606.3621522332663
 20
2216.239946825076
 30
0.0
 40
2.0
 41
15.6417
 71
     1
 72
     5
  1

  7
BIGFONT
 73
     1
 44
1.0
1001
ACAD
1000
MTEXTBEGIN
1070
    73
1070
     1
1070
    44
1040
1.0
1070
    74
1070
     0
1000
MTEXTEND
  0
MTEXT
  5
187D0
330
18
100
AcDbEntity
  8
0
  6
DASHDOT
100
AcDbMText
 10
368.6842112890945
 20
2323.029441652852
 30
0.0
 40
1.0
 41
2.0
 71
     1
 72
     5
  1

  7
BIGFONT
 73
     1
 44
1.0
1001
ACAD
1000
MTEXTBEGIN
1070
    73
1070
     1
1070
    44
1040
1.0
1070
    74
1070
     0
1000
MTEXTEND
  0
MTEXT
  5
187D1
330
18
100
AcDbEntity
  8
0
  6
ByBlock
100
AcDbMText
 10
325.4873894192178
 20
2232.511722574347
 30
0.0
 40
2.0
 41
0.0
 71
     4
 72
     5
  1

 11
-0.0000000000000002
 21
-1.0
 31
0.0
 73
     1
 44
1.0
1001
ACAD
1000
MTEXTBEGIN
1070
    73
1070
     1
1070
    44
1040
1.0
1070
    74
1070
     0
1000
MTEXTEND
  0
MTEXT
  5
187D2
330
18
100
AcDbEntity
  8
0
  6
ByBlock
100
AcDbMText
 10
360.9527777823708
 20
2221.71841421593
 30
0.0
 40
2.0
 41
0.0
 71
     7
 72
     5
  1

 11
0.0000000000000001
 21
1.0
 31
0.0
 73
     1
 44
1.0
1001
ACAD
1000
MTEXTBEGIN
1070
    73
1070
     1
1070
    44
1040
1.0
1070
    74
1070
     0
1000
MTEXTEND
  0
MTEXT
  5
187D3
330
18
100
AcDbEntity
  8
0
100
AcDbMText
 10
325.1732797977029
 20
2146.93890367364
 30
0.0
 40
2.0
 41
10.1453
 71
     1
 72
     5
  1

 11
-0.0000000000000002
 21
-1.0
 31
0.0
 73
     1
 44
1.0
1001
ACAD
1000
MTEXTBEGIN
1070
    73
1070
     1
1070
    44
1040
1.0
1070
    74
1070
     0
1000
MTEXTEND
  0
MTEXT
  5
187D4
330
18
100
AcDbEntity
  8
0
100
AcDbMText
 10
280.7737880445531
 20
2115.30742008065
 30
0.0
 40
2.0
 41
0.0
 71
     1
 72
     5
  1

 73
     1
 44
1.0
1001
ACAD
1000
MTEXTBEGIN
1070
    73
1070
     1
1070
    44
1040
1.0
1070
    74
1070
     0
1000
MTEXTEND
  0
MTEXT
  5
187D5
330
18
100
AcDbEntity
  8
0
  6
CENTER
100
AcDbMText
 10
606.3620652283159
 20
2216.239946825076
 30
0.0
 40
2.0
 41
15.6417
 71
     1
 72
     5
  1

  7
BIGFONT
 73
     1
 44
1.0
1001
ACAD
1000
MTEXTBEGIN
1070
    73
1070
     1
1070
    44
1040
1.0
1070
    74
1070
     0
1000
MTEXTEND
  0
MTEXT
  5
187D6
330
18
100
AcDbEntity
  8
0
  6
DASHDOT
100
AcDbMText
 10
368.6841242841443
 20
2323.029441652852
 30
0.0
 40
1.0
 41
2.0
 71
     1
 72
     5
  1

  7
BIGFONT
 73
     1
 44
1.0
1001
ACAD
1000
MTEXTBEGIN
1070
    73
1070
     1
1070
    44
1040
1.0
1070
    74
1070
     0
1000
MTEXTEND
  0
INSERT
  5
187D7
330
18
100
AcDbEntity
  8
FRAME025
100
AcDbBlockReference
  2
機械A4横_LBP
 10
271.0019941658661
 20
2006.888840564871
 30
0.0
  0
TEXT
  5
216E7
330
18
100
AcDbEntity
  8
FRAME020
  6
Continuous
100
AcDbText
 10
1272.84444499335
 20
-2736.187561819854
 30
0.0
 40
3.0
  1

 50
270.0
100
AcDbText
  0
MTEXT
  5
21ACC
330
18
100
AcDbEntity
  8
0
100
AcDbMText
 10
62.91095225984048
 20
-1280.130762802907
 30
0.0
 40
2.5
 41
0.625
 71
     9
 72
     1
  1

 73
     1
 44
1.0
1001
ACAD
1000
MTEXTBEGIN
1070
    73
1070
     1
1070
    44
1040
1.0
1070
    74
1070
     0
1000
MTEXTEND
  0
LINE
  5
27C69
330
18
100
AcDbEntity
  8
中心線
 48
0.5
100
AcDbLine
 10
425.431701924283
 20
-2233.191602833294
 30
0.0
 11
410.431701924283
 21
-2233.191602833294
 31
0.0
  0
LINE
  5
27C6A
330
18
100
AcDbEntity
  8
中心線
 48
0.5
100
AcDbLine
 10
410.431701924283
 20
-2298.191602833294
 30
0.0
 11
425.431701924283
 21
-2298.191602833294
 31
0.0
  0
LINE
  5
27C6C
330
18
100
AcDbEntity
  8
実線
100
AcDbLine
 10
402.1317019242832
 20
-2305.691602833293
 30
0.0
 11
881.7317019242832
 21
-2305.691602833293
 31
0.0
  0
LINE
  5
27C6D
330
18
100
AcDbEntity
  8
実線
100
AcDbLine
 10
402.1317019242832
 20
-2287.691602833294
 30
0.0
 11
881.7317019242832
 21
-2287.691602833294
 31
0.0
  0
LINE
  5
27C6E
330
18
100
AcDbEntity
  8
実線
100
AcDbLine
 10
881.7317019242832
 20
-2225.691602833293
 30
0.0
 11
402.1317019242832
 21
-2225.691602833293
 31
0.0
  0
LINE
  5
27C6F
330
18
100
AcDbEntity
  8
実線
100
AcDbLine
 10
881.731701924283
 20
-2243.691602833294
 30
0.0
 11
402.1317019242831
 21
-2243.691602833294
 31
0.0
  0
LINE
  5
27C70
330
18
100
AcDbEntity
  8
実線
100
AcDbLine
 10
402.1317019242831
 20
-2509.924134915541
 30
0.0
 11
881.7317019242821
 21
-2509.924134915541
 31
0.0
  0
LINE
  5
27C71
330
18
100
AcDbEntity
  8
実線
100
AcDbLine
 10
402.1317019242831
 20
-2535.924134915541
 30
0.0
 11
881.7317019242821
 21
-2535.924134915541
 31
0.0
  0
LINE
  5
27C72
330
18
100
AcDbEntity
  8
実線
100
AcDbLine
 10
401.931701924283
 20
-2549.92413491554
 30
0.0
 11
881.9317019242822
 21
-2549.924134915541
 31
0.0
  0
LINE
  5
27C75
330
18
100
AcDbEntity
  8
実線
100
AcDbLine
 10
304.3770762978533
 20
-2231.691602833294
 30
0.0
 11
292.3770762978532
 21
-2231.691602833294
 31
0.0
  0
LINE
  5
27C76
330
18
100
AcDbEntity
  8
実線
100
AcDbLine
 10
304.3770762978533
 20
-2299.691602833294
 30
0.0
 11
292.3770762978532
 21
-2299.691602833294
 31
0.0
  0
LWPOLYLINE
  5
27C77
330
18
100
AcDbEntity
  8
実線
100
AcDbPolyline
 90
        4
 70
     1
 43
0.0
 10
304.3770762978533
 20
-2290.691602833294
 10
304.3770762978533
 20
-2240.691602833294
 10
278.3770762978532
 20
-2240.691602833294
 10
278.3770762978532
 20
-2290.691602833294
  0
LINE
  5
27C79
330
18
100
AcDbEntity
  8
中心線
 48
0.5
100
AcDbLine
 10
268.3770762978532
 20
-2265.691602833294
 30
0.0
 11
326.3770762978532
 21
-2265.691602833294
 31
0.0
  0
LINE
  5
27C7A
330
18
100
AcDbEntity
  8
実線
100
AcDbLine
 10
318.3770762978533
 20
-2305.691602833295
 30
0.0
 11
292.3770762978541
 21
-2305.691602833295
 31
0.0
  0
LINE
  5
27C7B
330
18
100
AcDbEntity
  8
実線
100
AcDbLine
 10
318.3770762978533
 20
-2225.691602833293
 30
0.0
 11
292.3770762978541
 21
-2225.691602833293
 31
0.0
  0
LINE
  5
27C7D
330
18
100
AcDbEntity
  8
実線
100
AcDbLine
 10
278.3770762978532
 20
-2240.691602833294
 30
0.0
 11
278.3770762978532
 21
-2225.691602833293
 31
0.0
  0
LINE
  5
27C83
330
18
100
AcDbEntity
  8
実線
100
AcDbLine
 10
292.3770762978532
 20
-2305.691602833295
 30
0.0
 11
278.3770762978532
 21
-2305.691602833295
 31
0.0
  0
LINE
  5
27C84
330
18
100
AcDbEntity
  8
実線
100
AcDbLine
 10
278.3770762978532
 20
-2290.691602833294
 30
0.0
 11
278.3770762978532
 21
-2305.691602833295
 31
0.0
  0
LINE
  5
27C8E
330
18
100
AcDbEntity
  8
実線
100
AcDbLine
 10
292.3770762978532
 20
-2305.691602833295
 30
0.0
 11
292.3770762978524
 21
-2299.691602833294
 31
0.0
  0
LINE
  5
27CC9
330
18
100
AcDbEntity
  8
実線
100
AcDbLine
 10
292.3770762978532
 20
-2225.691602833293
 30
0.0
 11
278.3770762978532
 21
-2225.691602833293
 31
0.0
  0
LINE
  5
27CCA
330
18
100
AcDbEntity
  8
実線
100
AcDbLine
 10
292.3770762978532
 20
-2225.691602833293
 30
0.0
 11
292.3770762978524
 21
-2231.691602833294
 31
0.0
  0
LINE
  5
27CCD
330
18
100
AcDbEntity
  8
実線
100
AcDbLine
 10
318.3770762978533
 20
-2225.691602833293
 30
0.0
 11
318.3770762978533
 21
-2243.691602833294
 31
0.0
  0
CIRCLE
  5
27CCE
330
18
100
AcDbEntity
  8
細線
  6
Continuous
100
AcDbCircle
 10
310.8770762978531
 20
-2235.691602833294
 30
0.0
 40
3.749999999999991
  0
CIRCLE
  5
27CCF
330
18
100
AcDbEntity
  8
細線
  6
Continuous
100
AcDbCircle
 10
310.8770762978531
 20
-2235.691602833294
 30
0.0
 40
4.25
  0
CIRCLE
  5
27CD0
330
18
100
AcDbEntity
  8
実線
100
AcDbCircle
 10
310.8770762978531
 20
-2235.691602833294
 30
0.0
 40
4.75
  0
LWPOLYLINE
  5
27CD1
330
18
100
AcDbEntity
  8
実線
100
AcDbPolyline
 90
        4
 70
     1
 43
0.0
 10
316.3770762978533
 20
-2229.691602833294
 10
304.3770762978533
 20
-2229.691602833294
 10
304.3770762978533
 20
-2301.691602833294
 10
316.3770762978533
 20
-2301.691602833294
  0
CIRCLE
  5
27CD2
330
18
100
AcDbEntity
  8
細線
  6
Continuous
100
AcDbCircle
 10
310.8770762978531
 20
-2295.691602833294
 30
0.0
 40
4.25
  0
CIRCLE
  5
27CD3
330
18
100
AcDbEntity
  8
実線
100
AcDbCircle
 10
310.8770762978531
 20
-2295.691602833294
 30
0.0
 40
4.75
  0
LINE
  5
27CD4
330
18
100
AcDbEntity
  8
細線
  6
Continuous
100
AcDbLine
 10
310.8770762978531
 20
-2293.382201833294
 30
0.0
 11
312.8770772978608
 21
-2294.536902633293
 31
0.0
  0
LINE
  5
27CD5
330
18
100
AcDbEntity
  8
細線
  6
Continuous
100
AcDbLine
 10
310.8770762978531
 20
-2293.382201333293
 30
0.0
 11
308.8770762978531
 21
-2294.536902233294
 31
0.0
  0
LINE
  5
27CD6
330
18
100
AcDbEntity
  8
細線
  6
Continuous
100
AcDbLine
 10
310.8770762978531
 20
-2298.001003833295
 30
0.0
 11
312.8770772978608
 21
-2296.846303033293
 31
0.0
  0
LINE
  5
27CD7
330
18
100
AcDbEntity
  8
細線
  6
Continuous
100
AcDbLine
 10
308.8770762978531
 20
-2296.846303433294
 30
0.0
 11
310.8770762978531
 21
-2298.001004333295
 31
0.0
  0
LINE
  5
27CD8
330
18
100
AcDbEntity
  8
細線
  6
Continuous
100
AcDbLine
 10
308.8770762978531
 20
-2294.536902333293
 30
0.0
 11
308.8770762978531
 21
-2296.846303333293
 31
0.0
  0
LINE
  5
27CD9
330
18
100
AcDbEntity
  8
細線
  6
Continuous
100
AcDbLine
 10
312.8770762978531
 20
-2294.536902333293
 30
0.0
 11
312.8770762978531
 21
-2296.846303333293
 31
0.0
  0
CIRCLE
  5
27CDA
330
18
100
AcDbEntity
  8
細線
  6
Continuous
100
AcDbCircle
 10
310.8770762978531
 20
-2295.691602833294
 30
0.0
 40
3.749999999999991
  0
LINE
  5
27CDB
330
18
100
AcDbEntity
  8
細線
  6
Continuous
100
AcDbLine
 10
310.8770762978531
 20
-2233.382201833293
 30
0.0
 11
312.8770772978608
 21
-2234.536902633293
 31
0.0
  0
LINE
  5
27CDC
330
18
100
AcDbEntity
  8
細線
  6
Continuous
100
AcDbLine
 10
310.8770762978531
 20
-2233.382201333293
 30
0.0
 11
308.8770762978531
 21
-2234.536902233294
 31
0.0
  0
LINE
  5
27CDD
330
18
100
AcDbEntity
  8
細線
  6
Continuous
100
AcDbLine
 10
308.8770762978531
 20
-2234.536902333293
 30
0.0
 11
308.8770762978531
 21
-2236.846303333293
 31
0.0
  0
LINE
  5
27CDE
330
18
100
AcDbEntity
  8
細線
  6
Continuous
100
AcDbLine
 10
312.8770762978531
 20
-2234.536902333293
 30
0.0
 11
312.8770762978531
 21
-2236.846303333293
 31
0.0
  0
LINE
  5
27CDF
330
18
100
AcDbEntity
  8
細線
  6
Continuous
100
AcDbLine
 10
310.8770762978531
 20
-2238.001003833295
 30
0.0
 11
312.8770772978608
 21
-2236.846303033293
 31
0.0
  0
LINE
  5
27CE0
330
18
100
AcDbEntity
  8
細線
  6
Continuous
100
AcDbLine
 10
308.8770762978531
 20
-2236.846303433294
 30
0.0
 11
310.8770762978531
 21
-2238.001004333295
 31
0.0
  0
LINE
  5
27CE1
330
18
100
AcDbEntity
  8
実線
100
AcDbLine
 10
317.9770762978533
 20
-2243.691602833294
 30
0.0
 11
317.9770762978533
 21
-2287.691602833294
 31
0.0
  0
LINE
  5
27CE2
330
18
100
AcDbEntity
  8
実線
100
AcDbLine
 10
318.3770762978533
 20
-2287.691602833294
 30
0.0
 11
316.3770762978533
 21
-2287.691602833294
 31
0.0
  0
LINE
  5
27CE3
330
18
100
AcDbEntity
  8
実線
100
AcDbLine
 10
318.3770762978533
 20
-2305.691602833295
 30
0.0
 11
318.3770762978533
 21
-2287.691602833294
 31
0.0
  0
LINE
  5
27CE4
330
18
100
AcDbEntity
  8
実線
100
AcDbLine
 10
318.3770762978533
 20
-2243.691602833294
 30
0.0
 11
316.3770762978533
 21
-2243.691602833294
 31
0.0
  0
LINE
  5
27CE7
330
18
100
AcDbEntity
  8
中心線
 48
0.5
100
AcDbLine
 10
417.931701924283
 20
-2240.691602833294
 30
0.0
 11
417.931701924283
 21
-2225.691602833293
 31
0.0
  0
CIRCLE
  5
27CE8
330
18
100
AcDbEntity
  8
細線
100
AcDbCircle
 10
417.931701924283
 20
-2233.191602833294
 30
0.0
 40
2.5
  0
CIRCLE
  5
27CE9
330
18
100
AcDbEntity
  8
実線
100
AcDbCircle
 10
417.931701924283
 20
-2233.191602833294
 30
0.0
 40
2.066999999999999
  0
LINE
  5
27CEA
330
18
100
AcDbEntity
  8
実線
100
AcDbLine
 10
402.1317019242831
 20
-2243.691602833294
 30
0.0
 11
402.1317019242832
 21
-2225.691602833293
 31
0.0
  0
LINE
  5
27CEB
330
18
100
AcDbEntity
  8
実線
100
AcDbLine
 10
401.931701924283
 20
-2301.691602833294
 30
0.0
 11
401.931701924283
 21
-2229.691602833293
 31
0.0
  0
LINE
  5
27CEC
330
18
100
AcDbEntity
  8
実線
100
AcDbLine
 10
387.9317019242831
 20
-2229.691602833293
 30
0.0
 11
387.9317019242831
 21
-2301.691602833294
 31
0.0
  0
LINE
  5
27CF0
330
18
100
AcDbEntity
  8
実線
100
AcDbLine
 10
387.9317019242831
 20
-2523.92413491554
 30
0.0
 11
401.931701924283
 21
-2523.92413491554
 31
0.0
  0
LINE
  5
27CF1
330
18
100
AcDbEntity
  8
実線
100
AcDbLine
 10
401.931701924283
 20
-2549.92413491554
 30
0.0
 11
387.9317019242831
 21
-2549.92413491554
 31
0.0
  0
LINE
  5
27CF2
330
18
100
AcDbEntity
  8
実線
100
AcDbLine
 10
387.9317019242831
 20
-2511.924134915541
 30
0.0
 11
401.931701924283
 21
-2511.924134915541
 31
0.0
  0
LINE
  5
27CF3
330
18
100
AcDbEntity
  8
実線
100
AcDbLine
 10
387.9317019242831
 20
-2549.92413491554
 30
0.0
 11
387.9317019242831
 21
-2511.924134915541
 31
0.0
  0
LINE
  5
27CF4
330
18
100
AcDbEntity
  8
実線
100
AcDbLine
 10
401.931701924283
 20
-2511.924134915541
 30
0.0
 11
401.931701924283
 21
-2549.92413491554
 31
0.0
  0
LINE
  5
27CF5
330
18
100
AcDbEntity
  8
実線
100
AcDbLine
 10
402.1317019242831
 20
-2509.92413491554
 30
0.0
 11
402.1317019242831
 21
-2535.92413491554
 31
0.0
  0
LINE
  5
27CF8
330
18
100
AcDbEntity
  8
実線
100
AcDbLine
 10
387.9317019242831
 20
-2301.691602833294
 30
0.0
 11
401.931701924283
 21
-2301.691602833294
 31
0.0
  0
LINE
  5
27CF9
330
18
100
AcDbEntity
  8
実線
100
AcDbLine
 10
402.1317019242832
 20
-2287.691602833294
 30
0.0
 11
402.1317019242832
 21
-2305.691602833293
 31
0.0
  0
LINE
  5
27CFA
330
18
100
AcDbEntity
  8
中心線
 48
0.5
100
AcDbLine
 10
417.931701924283
 20
-2290.691602833294
 30
0.0
 11
417.931701924283
 21
-2305.691602833293
 31
0.0
  0
CIRCLE
  5
27CFB
330
18
100
AcDbEntity
  8
実線
100
AcDbCircle
 10
417.931701924283
 20
-2298.191602833294
 30
0.0
 40
2.066999999999999
  0
CIRCLE
  5
27CFC
330
18
100
AcDbEntity
  8
細線
100
AcDbCircle
 10
417.931701924283
 20
-2298.191602833294
 30
0.0
 40
2.5
  0
LINE
  5
27CFD
330
18
100
AcDbEntity
  8
実線
100
AcDbLine
 10
401.931701924283
 20
-2229.691602833293
 30
0.0
 11
387.9317019242831
 21
-2229.691602833293
 31
0.0
  0
LWPOLYLINE
  5
27D0D
330
18
100
AcDbEntity
  8
実線
100
AcDbPolyline
 90
        4
 70
     1
 43
0.0
 10
895.9317019242829
 20
-2229.691602833293
 10
881.9317019242831
 20
-2229.691602833293
 10
881.9317019242831
 20
-2301.691602833294
 10
895.9317019242829
 20
-2301.691602833294
  0
LINE
  5
27D13
330
18
100
AcDbEntity
  8
中心線
 48
0.5
100
AcDbLine
 10
900.931701924283
 20
-2264.691602833293
 30
0.0
 11
876.931701924283
 21
-2264.691602833293
 31
0.0
  0
LINE
  5
27D14
330
18
100
AcDbEntity
  8
中心線
 48
0.5
100
AcDbLine
 10
900.931701924283
 20
-2288.691602833293
 30
0.0
 11
876.931701924283
 21
-2288.691602833293
 31
0.0
  0
LINE
  5
27D3D
330
18
100
AcDbEntity
  8
実線
100
AcDbLine
 10
881.731701924283
 20
-2243.691602833294
 30
0.0
 11
881.7317019242832
 21
-2225.691602833293
 31
0.0
  0
LINE
  5
27D53
330
18
100
AcDbEntity
  8
実線
100
AcDbLine
 10
881.7317019242821
 20
-2509.924134915541
 30
0.0
 11
881.7317019242821
 21
-2535.924134915541
 31
0.0
  0
LINE
  5
27D54
330
18
100
AcDbEntity
  8
実線
100
AcDbLine
 10
881.9317019242822
 20
-2549.924134915541
 30
0.0
 11
881.9317019242822
 21
-2511.924134915541
 31
0.0
  0
LINE
  5
27D5A
330
18
100
AcDbEntity
  8
実線
100
AcDbLine
 10
881.7317019242832
 20
-2287.691602833294
 30
0.0
 11
881.7317019242832
 21
-2305.691602833293
 31
0.0
  0
TEXT
  5
28C33
330
18
100
AcDbEntity
  8
0
100
AcDbText
 10
289.9358166135978
 20
-2256.488446291349
 30
0.0
 40
2.0
  1
SER No.******
 50
270.0
 41
1.199999999999999
  7
MS\U+FF7A\U+FF9E\U+FF7C\U+FF6F\U+FF78N
 11
289.5704728635977
 21
-2256.488446291349
 31
0.0
100
AcDbText
 73
     1
  0
TEXT
  5
28C34
330
18
100
AcDbEntity
  8
0
100
AcDbText
 10
292.7598084169783
 20
-2256.51557286416
 30
0.0
 40
2.6
  1
MODEL:CLM250M
 50
270.0
 41
1.199999999999999
  7
MS\U+FF7A\U+FF9E\U+FF7C\U+FF6F\U+FF78N
 11
292.2848615419783
 21
-2256.51557286416
 31
0.0
100
AcDbText
 73
     1
  0
HATCH
  5
28C35
330
18
100
AcDbEntity
  8
0
100
AcDbHatch
 10
0.0
 20
0.0
 30
0.0
210
0.0
220
0.0
230
1.0
  2
SOLID
 70
     1
 71
     1
 91
        2
 92
       17
 93
        1
 72
     2
 10
286.632349715855
 20
-2259.640649334373
 40
0.6007500000000002
 50
0.0
 51
360.0
 73
     1
 97
        1
330
28C3C
 92
        1
 93
        8
 72
     2
 10
286.6342125065525
 20
-2259.641580729722
 40
1.00311322310025
 50
23.58977727260604
 51
179.9468005913668
 73
     1
 72
     2
 10
286.4320997158551
 20
-2259.640649334373
 40
0.8009999999999999
 50
180.0
 51
360.0
 73
     1
 72
     1
 10
287.2330997158555
 20
-2259.640649334373
 11
287.2330997158555
 21
-2261.883449334373
 72
     1
 10
287.2330997158555
 20
-2261.883449334373
 11
285.230599715855
 21
-2261.643149334374
 72
     1
 10
285.230599715855
 20
-2261.643149334374
 11
285.230599715855
 21
-2257.237649334373
 72
     1
 10
285.230599715855
 20
-2257.237649334373
 11
288.4345997158547
 21
-2257.638149334372
 72
     1
 10
288.4345997158547
 20
-2257.638149334372
 11
288.4345997158547
 21
-2262.043649334373
 72
     1
 10
288.4345997158547
 20
-2262.043649334373
 11
287.5534997158551
 21
-2259.240149334373
 97
        8
330
28C42
330
28C3D
330
28C41
330
28C3F
330
28C37
330
28C47
330
28C36
330
28C40
 75
     0
 76
     1
 98
        1
 10
289.1118245316151
 20
-2058.162939240137
  0
LINE
  5
28C36
102
{ACAD_REACTORS
330
28C35
102
}
330
18
100
AcDbEntity
  8
0
100
AcDbLine
 10
288.4345997158547
 20
-2257.638149334372
 30
0.0
 11
288.4345997158547
 21
-2262.043649334373
 31
0.0
  0
LINE
  5
28C37
102
{ACAD_REACTORS
330
28C35
102
}
330
18
100
AcDbEntity
  8
0
100
AcDbLine
 10
285.230599715855
 20
-2257.237649334373
 30
0.0
 11
285.230599715855
 21
-2261.643149334374
 31
0.0
  0
LINE
  5
28C38
330
18
100
AcDbEntity
  8
0
100
AcDbLine
 10
296.3770762978533
 20
-2289.191602833295
 30
0.0
 11
296.3770762978533
 21
-2255.191602833294
 31
0.0
  0
LINE
  5
28C39
330
18
100
AcDbEntity
  8
0
100
AcDbLine
 10
289.3770762978533
 20
-2254.691602833295
 30
0.0
 11
289.3770762978533
 21
-2289.691602833295
 31
0.0
  0
LINE
  5
28C3A
330
18
100
AcDbEntity
  8
0
100
AcDbLine
 10
284.3770762978532
 20
-2255.191602833294
 30
0.0
 11
284.3770762978532
 21
-2289.191602833295
 31
0.0
  0
TEXT
  5
28C3B
330
18
100
AcDbEntity
  8
0
100
AcDbText
 10
285.278333854439
 20
-2262.85974855876
 30
0.0
 40
1.44
  1
DENSO
 50
270.0
 41
1.3
  7
TIMESNR
100
AcDbText
  0
CIRCLE
  5
28C3C
102
{ACAD_REACTORS
330
28C35
102
}
330
18
100
AcDbEntity
  8
0
100
AcDbCircle
 10
286.632349715855
 20
-2259.640649334373
 30
0.0
 40
0.6007500000000002
  0
ARC
  5
28C3D
102
{ACAD_REACTORS
330
28C35
102
}
330
18
100
AcDbEntity
  8
0
100
AcDbCircle
 10
286.4320997158551
 20
-2259.640649334373
 30
0.0
 40
0.8009999999999999
100
AcDbArc
 50
180.0
 51
0.0
  0
TEXT
  5
28C3E
330
18
100
AcDbEntity
  8
0
100
AcDbText
 10
286.9750962634247
 20
-2262.9811616689
 30
0.0
 40
1.44
  1
NIKKI
 50
270.0
 41
1.25
  7
TIMESNR
100
AcDbText
  0
LINE
  5
28C3F
102
{ACAD_REACTORS
330
28C35
102
}
330
18
100
AcDbEntity
  8
0
100
AcDbLine
 10
285.230599715855
 20
-2261.643149334374
 30
0.0
 11
287.2330997158555
 21
-2261.883449334373
 31
0.0
  0
LINE
  5
28C40
102
{ACAD_REACTORS
330
28C35
102
}
330
18
100
AcDbEntity
  8
0
100
AcDbLine
 10
288.4345997158547
 20
-2262.043649334373
 30
0.0
 11
287.5534997158551
 21
-2259.240149334373
 31
0.0
  0
LINE
  5
28C41
102
{ACAD_REACTORS
330
28C35
102
}
330
18
100
AcDbEntity
  8
0
100
AcDbLine
 10
287.2330997158555
 20
-2259.640649334373
 30
0.0
 11
287.2330997158555
 21
-2261.883449334373
 31
0.0
  0
ARC
  5
28C42
102
{ACAD_REACTORS
330
28C35
102
}
330
18
100
AcDbEntity
  8
0
100
AcDbCircle
 10
286.6342125065525
 20
-2259.641580729722
 30
0.0
 40
1.00311322310025
100
AcDbArc
 50
23.58977727260604
 51
179.9468005913668
  0
LINE
  5
28C43
330
18
100
AcDbEntity
  8
0
100
AcDbLine
 10
284.8770762978532
 20
-2289.691602833295
 30
0.0
 11
295.8770762978533
 21
-2289.691602833295
 31
0.0
  0
ARC
  5
28C44
330
18
100
AcDbEntity
  8
0
100
AcDbCircle
 10
295.8770762978533
 20
-2289.191602833295
 30
0.0
 40
0.5
100
AcDbArc
 50
270.0
 51
0.0
  0
ARC
  5
28C45
330
18
100
AcDbEntity
  8
0
100
AcDbCircle
 10
284.8770762978532
 20
-2289.191602833295
 30
0.0
 40
0.5
100
AcDbArc
 50
180.0
 51
270.0
  0
LINE
  5
28C46
330
18
100
AcDbEntity
  8
0
100
AcDbLine
 10
295.8770762978533
 20
-2254.691602833295
 30
0.0
 11
284.8770762978532
 21
-2254.691602833295
 31
0.0
  0
LINE
  5
28C47
102
{ACAD_REACTORS
330
28C35
102
}
330
18
100
AcDbEntity
  8
0
100
AcDbLine
 10
285.230599715855
 20
-2257.237649334373
 30
0.0
 11
288.4345997158547
 21
-2257.638149334372
 31
0.0
  0
ARC
  5
28C48
330
18
100
AcDbEntity
  8
0
100
AcDbCircle
 10
295.8770762978533
 20
-2255.191602833294
 30
0.0
 40
0.5
100
AcDbArc
 50
0.0
 51
90.0
  0
ARC
  5
28C49
330
18
100
AcDbEntity
  8
0
100
AcDbCircle
 10
284.8770762978532
 20
-2255.191602833294
 30
0.0
 40
0.5
100
AcDbArc
 50
90.0
 51
180.0
  0
TEXT
  5
28C4A
330
18
100
AcDbEntity
  8
0
100
AcDbText
 10
286.8815677116641
 20
-2274.313263227847
 30
137.5
 40
1.5
  1
SN-16140
 50
270.0
  7
MS\U+FF7A\U+FF9E\U+FF7C\U+FF6F\U+FF78N
 11
286.6075598991642
 21
-2274.313263227847
 31
137.5
100
AcDbText
 73
     1
  0
TEXT
  5
28C4B
330
18
100
AcDbEntity
  8
0
100
AcDbText
 10
285.0117816612779
 20
-2274.313263227847
 30
137.5
 40
1.5
  1
MADE IN JAPAN
 50
270.0
  7
MS\U+FF7A\U+FF9E\U+FF7C\U+FF6F\U+FF78N
 11
284.7377738487779
 21
-2274.313263227847
 31
137.5
100
AcDbText
 73
     1
  0
HATCH
  5
28C4C
330
18
100
AcDbEntity
  8
細線
100
AcDbHatch
 10
0.0
 20
0.0
 30
0.4990022692370815
210
0.0
220
0.0
230
1.0
  2
ANSI31
 70
     0
 71
     0
 91
        2
 92
        7
 72
     1
 73
     1
 93
        8
 10
285.5909263017224
 20
-2252.409984346082
 42
0.8256926312273156
 10
284.4017685997745
 20
-2246.239142048029
 42
0.0
 10
284.4017685997745
 20
-2245.705808714696
 42
0.0
 10
283.3351019331079
 20
-2246.772475381363
 42
0.0
 10
284.4017685997745
 20
-2247.839142048029
 42
0.0
 10
284.4017685997745
 20
-2247.305808714695
 42
-0.8235057969380607
 10
285.2048421166595
 20
-2251.415548898247
 42
0.0
 10
285.8951019331083
 20
-2252.105808714696
 42
0.0
 97
        0
 92
        7
 72
     1
 73
     1
 93
        8
 10
283.2126108978276
 20
-2246.468299749977
 42
0.8256926312273465
 10
284.4017685997745
 20
-2252.63914204803
 42
0.0
 10
284.4017685997745
 20
-2253.172475381362
 42
0.0
 10
285.4684352664411
 20
-2252.105808714696
 42
0.0
 10
284.4017685997745
 20
-2251.039142048029
 42
0.0
 10
284.4017685997745
 20
-2251.572475381363
 42
-0.8235057969380607
 10
283.5986950828896
 20
-2247.462735197811
 42
0.0
 10
282.9084352664416
 20
-2246.772475381363
 42
0.0
 97
        0
 75
     0
 76
     1
 52
270.0
 41
0.0106666666666667
 77
     0
 78
     1
 53
314.9999999999999
 43
173.8826455387237
 44
-1867.300582835764
 45
0.0239473496561844
 46
0.0239473496561844
 79
     0
 47
0.0
 98
        2
 10
286.6805417504369
 20
-2250.772036011633
 10
283.7190921637542
 20
-2252.081907944203
1001
ACAD
1010
0.0
1020
0.0
1030
0.0
  0
LINE
  5
28C4D
102
{ACAD_REACTORS
330
28C4C
102
}
330
18
100
AcDbEntity
  8
細線
100
AcDbLine
 10
284.4017685997745
 20
-2251.039142048029
 30
0.4990022692370815
 11
284.4017685997745
 21
-2251.572475381363
 31
0.4990022692370815
  0
LINE
  5
28C4E
102
{ACAD_REACTORS
330
28C4C
102
}
330
18
100
AcDbEntity
  8
細線
100
AcDbLine
 10
285.4684352664411
 20
-2252.105808714696
 30
0.4990022692370815
 11
284.4017685997745
 21
-2251.039142048029
 31
0.4990022692370815
  0
LINE
  5
28C4F
102
{ACAD_REACTORS
330
28C4C
102
}
330
18
100
AcDbEntity
  8
細線
100
AcDbLine
 10
285.4684352664411
 20
-2252.105808714696
 30
0.4990022692370815
 11
284.4017685997745
 21
-2253.172475381362
 31
0.4990022692370815
  0
LINE
  5
28C50
102
{ACAD_REACTORS
330
28C4C
102
}
330
18
100
AcDbEntity
  8
細線
100
AcDbLine
 10
284.4017685997745
 20
-2247.839142048029
 30
0.4990022692370815
 11
284.4017685997745
 21
-2247.305808714695
 31
0.4990022692370815
  0
LINE
  5
28C51
102
{ACAD_REACTORS
330
28C4C
102
}
330
18
100
AcDbEntity
  8
細線
100
AcDbLine
 10
283.3351019331079
 20
-2246.772475381363
 30
0.4990022692370815
 11
284.4017685997745
 21
-2247.839142048029
 31
0.4990022692370815
  0
LINE
  5
28C52
102
{ACAD_REACTORS
330
28C4C
102
}
330
18
100
AcDbEntity
  8
細線
100
AcDbLine
 10
283.3351019331079
 20
-2246.772475381363
 30
0.4990022692370815
 11
284.4017685997745
 21
-2245.705808714696
 31
0.4990022692370815
  0
MTEXT
  5
28C53
330
18
100
AcDbEntity
  8
細線
100
AcDbMText
 10
285.8557146234992
 20
-2247.696734302974
 30
0.4990022692370815
 40
2.933333333333333
 41
4.005499725684842
 71
     1
 72
     5
  1
{\fImpact|b0|i0|c128|p49;15}
  7
MS\U+FF7A\U+FF9E\U+FF7C\U+FF6F\U+FF78
 11
-0.0000000000000002
 21
-1.0
 31
0.0
 73
     1
 44
1.0
1001
ACAD
1000
MTEXTBEGIN
1070
    73
1070
     1
1070
    44
1040
1.0
1070
    74
1070
     0
1000
MTEXTEND
1000
ACAD_MTEXT_DEFINED_HEIGHT_BEGIN
1070
    46
1040
224.1841841841842
1000
ACAD_MTEXT_DEFINED_HEIGHT_END
  0
ARC
  5
28C54
102
{ACAD_REACTORS
330
28C4C
102
}
330
18
100
AcDbEntity
  8
細線
100
AcDbCircle
 10
284.4017685997745
 20
-2249.439142048029
 30
0.4990022692370815
 40
2.133333333333333
100
AcDbArc
 50
112.1133855977474
 51
270.0
  0
ARC
  5
28C55
102
{ACAD_REACTORS
330
28C4C
102
}
330
18
100
AcDbEntity
  8
細線
100
AcDbCircle
 10
284.4017685997745
 20
-2249.439142048029
 30
0.4990022692370815
 40
3.2
100
AcDbArc
 50
111.8150544339211
 51
270.0
  0
LINE
  5
28C56
102
{ACAD_REACTORS
330
28C4C
102
}
330
18
100
AcDbEntity
  8
細線
100
AcDbLine
 10
282.9084352664416
 20
-2246.772475381363
 30
0.4990022692370815
 11
283.5986950828896
 21
-2247.462735197811
 31
0.4990022692370815
  0
LINE
  5
28C57
102
{ACAD_REACTORS
330
28C4C
102
}
330
18
100
AcDbEntity
  8
細線
100
AcDbLine
 10
282.9084352664416
 20
-2246.772475381363
 30
0.4990022692370815
 11
283.2126108978276
 21
-2246.468299749977
 31
0.4990022692370815
  0
LINE
  5
28C58
102
{ACAD_REACTORS
330
28C4C
102
}
330
18
100
AcDbEntity
  8
細線
100
AcDbLine
 10
285.8951019331083
 20
-2252.105808714696
 30
0.4990022692370815
 11
285.2048421166595
 21
-2251.415548898247
 31
0.4990022692370815
  0
LINE
  5
28C59
102
{ACAD_REACTORS
330
28C4C
102
}
330
18
100
AcDbEntity
  8
細線
100
AcDbLine
 10
285.8951019331083
 20
-2252.105808714696
 30
0.4990022692370815
 11
285.5909263017224
 21
-2252.409984346082
 31
0.4990022692370815
  0
ARC
  5
28C5A
102
{ACAD_REACTORS
330
28C4C
102
}
330
18
100
AcDbEntity
  8
細線
100
AcDbCircle
 10
284.4017685997745
 20
-2249.439142048029
 30
0.4990022692370815
 40
2.133333333333333
100
AcDbArc
 50
292.1133855977474
 51
90.0
  0
ARC
  5
28C5B
102
{ACAD_REACTORS
330
28C4C
102
}
330
18
100
AcDbEntity
  8
細線
100
AcDbCircle
 10
284.4017685997745
 20
-2249.439142048029
 30
0.4990022692370815
 40
3.2
100
AcDbArc
 50
291.8150544339212
 51
90.0
  0
LINE
  5
28C5C
102
{ACAD_REACTORS
330
28C4C
102
}
330
18
100
AcDbEntity
  8
細線
100
AcDbLine
 10
284.4017685997745
 20
-2246.239142048029
 30
0.4990022692370815
 11
284.4017685997745
 21
-2245.705808714696
 31
0.4990022692370815
  0
LINE
  5
28C5D
102
{ACAD_REACTORS
330
28C4C
102
}
330
18
100
AcDbEntity
  8
細線
100
AcDbLine
 10
284.4017685997745
 20
-2252.63914204803
 30
0.4990022692370815
 11
284.4017685997745
 21
-2253.172475381362
 31
0.4990022692370815
  0
CIRCLE
  5
28C5E
330
18
100
AcDbEntity
  8
細線
100
AcDbCircle
 10
284.4017685997745
 20
-2249.439142048029
 30
0.4990022692370815
 40
4.0
  0
LINE
  5
28C5F
102
{ACAD_REACTORS
330
28C76
102
}
330
18
100
AcDbEntity
  8
細線
100
AcDbLine
 10
288.3770762978532
 20
-2242.191602833294
 30
0.0
 11
288.3770762978532
 21
-2254.191602833294
 31
0.0
  0
LINE
  5
28C60
102
{ACAD_REACTORS
330
28C76
102
}
330
18
100
AcDbEntity
  8
細線
100
AcDbLine
 10
292.8770762978532
 20
-2241.691602833295
 30
0.0
 11
292.8770762978532
 21
-2254.691602833295
 31
0.0
  0
LINE
  5
28C61
330
18
100
AcDbEntity
  8
細線
100
AcDbLine
 10
296.3770762978533
 20
-2254.191602833294
 30
0.0
 11
296.3770762978533
 21
-2242.191602833294
 31
0.0
  0
LINE
  5
28C62
102
{ACAD_REACTORS
330
28C76
102
}
330
18
100
AcDbEntity
  8
細線
100
AcDbLine
 10
295.8770762978533
 20
-2241.691602833295
 30
0.0
 11
288.8770762978532
 21
-2241.691602833295
 31
0.0
  0
LINE
  5
28C63
102
{ACAD_REACTORS
330
28C76
102
}
330
18
100
AcDbEntity
  8
細線
100
AcDbLine
 10
288.8770762978532
 20
-2254.691602833295
 30
0.0
 11
295.8770762978533
 21
-2254.691602833295
 31
0.0
  0
TEXT
  5
28C64
102
{ACAD_REACTORS
330
28C76
102
}
330
18
100
AcDbEntity
  8
細線
100
AcDbText
 10
291.1515364782348
 20
-2246.79153993843
 30
0.0
 40
1.08
  1
NIKKI
 50
270.0
 41
1.354166666666666
  7
TIMESNR
100
AcDbText
  0
LINE
  5
28C65
102
{ACAD_REACTORS
330
28C76
102
}
330
18
100
AcDbEntity
  8
細線
100
AcDbLine
 10
292.2461640675578
 20
-2246.029811166627
 30
0.0
 11
291.5853390675578
 21
-2243.751967416627
 31
0.0
  0
LINE
  5
28C66
102
{ACAD_REACTORS
330
28C76
102
}
330
18
100
AcDbEntity
  8
細線
100
AcDbLine
 10
289.8431640675575
 20
-2242.124936166627
 30
0.0
 11
292.2461640675578
 21
-2242.450342416628
 31
0.0
  0
TEXT
  5
28C67
102
{ACAD_REACTORS
330
28C76
102
}
330
18
100
AcDbEntity
  8
細線
100
AcDbText
 10
289.8789646714953
 20
-2246.692891786443
 30
0.0
 40
1.08
  1
DENSO
 50
270.0
 41
1.408333333333333
  7
TIMESNR
100
AcDbText
  0
LINE
  5
28C68
102
{ACAD_REACTORS
330
28C76
102
}
330
18
100
AcDbEntity
  8
細線
100
AcDbLine
 10
291.3450390675574
 20
-2244.077373666627
 30
0.0
 11
291.3450390675574
 21
-2245.899648666628
 31
0.0
  0
LINE
  5
28C69
102
{ACAD_REACTORS
330
28C76
102
}
330
18
100
AcDbEntity
  8
細線
100
AcDbLine
 10
289.8431640675575
 20
-2242.124936166627
 30
0.0
 11
289.8431640675575
 21
-2245.704404916627
 31
0.0
  0
ELLIPSE
  5
28C6A
102
{ACAD_REACTORS
330
28C76
102
}
330
18
100
AcDbEntity
  8
細線
100
AcDbEllipse
 10
290.8944765675573
 20
-2244.077373666627
 30
0.0
 11
-0.0000000000000001
 21
-0.488109375
 31
0.0
210
0.0
220
0.0
230
1.0
 40
0.9230769230769231
 41
0.0
 42
6.283185307179586
  0
ELLIPSE
  5
28C6B
102
{ACAD_REACTORS
330
28C76
102
}
330
18
100
AcDbEntity
  8
細線
100
AcDbEllipse
 10
290.8958736605804
 20
-2244.078130425349
 30
0.0
 11
-0.0000000000000001
 21
-0.8150294937689535
 31
0.0
210
0.0
220
0.0
230
1.0
 40
0.9230769230769231
 41
1.982515610014399
 42
4.711460475544681
  0
ELLIPSE
  5
28C6C
102
{ACAD_REACTORS
330
28C76
102
}
330
18
100
AcDbEntity
  8
細線
100
AcDbEllipse
 10
290.7442890675578
 20
-2244.077373666627
 30
0.0
 11
-0.0000000000000001
 21
-0.6508125000000002
 31
0.0
210
0.0
220
0.0
230
1.0
 40
0.9230769230769231
 41
4.712388980384689
 42
7.853981633974482
  0
LINE
  5
28C6D
102
{ACAD_REACTORS
330
28C76
102
}
330
18
100
AcDbEntity
  8
細線
100
AcDbLine
 10
289.8431640675575
 20
-2245.704404916627
 30
0.0
 11
291.3450390675574
 21
-2245.899648666628
 31
0.0
  0
LINE
  5
28C6E
102
{ACAD_REACTORS
330
28C76
102
}
330
18
100
AcDbEntity
  8
細線
100
AcDbLine
 10
292.2461640675578
 20
-2242.450342416628
 30
0.0
 11
292.2461640675578
 21
-2246.029811166627
 31
0.0
  0
TEXT
  5
28C6F
330
18
100
AcDbEntity
  8
細線
100
AcDbText
 10
293.6426663961242
 20
-2242.588180396943
 30
0.0
 40
2.0
  1
Certificate
 50
270.0
 41
0.8
  7
MS\U+FF7A\U+FF9E\U+FF7C\U+FF6F\U+FF78
100
AcDbText
  0
TEXT
  5
28C70
102
{ACAD_REACTORS
330
28C76
102
}
330
18
100
AcDbEntity
  8
細線
100
AcDbText
 10
288.8007180334938
 20
-2249.026422248385
 30
0.0
 40
0.8
  1
S20-0010A
 50
270.0
100
AcDbText
  0
LINE
  5
28C71
102
{ACAD_REACTORS
330
28C76
102
}
330
18
100
AcDbEntity
  8
細線
100
AcDbLine
 10
291.3864460085591
 20
-2243.460206171242
 30
0.0
 11
291.4662652797564
 21
-2243.546677048372
 31
0.0
  0
ARC
  5
28C72
102
{ACAD_REACTORS
330
28C76
102
}
330
18
100
AcDbEntity
  8
細線
100
AcDbCircle
 10
288.8770762978532
 20
-2242.191602833294
 30
0.0
 40
0.5
100
AcDbArc
 50
90.0
 51
180.0
  0
ARC
  5
28C73
102
{ACAD_REACTORS
330
28C76
102
}
330
18
100
AcDbEntity
  8
細線
100
AcDbCircle
 10
288.8770762978532
 20
-2254.191602833294
 30
0.0
 40
0.5
100
AcDbArc
 50
180.0
 51
270.0
  0
ARC
  5
28C74
330
18
100
AcDbEntity
  8
細線
100
AcDbCircle
 10
295.8770762978533
 20
-2254.191602833294
 30
0.0
 40
0.4999999999999999
100
AcDbArc
 50
270.0
 51
0.0
  0
ARC
  5
28C75
330
18
100
AcDbEntity
  8
細線
100
AcDbCircle
 10
295.8770762978533
 20
-2242.191602833294
 30
0.0
 40
0.5
100
AcDbArc
 50
0.0
 51
90.0
  0
HATCH
  5
28C76
330
18
100
AcDbEntity
  8
細線
100
AcDbHatch
 10
0.0
 20
0.0
 30
0.0
210
0.0
220
0.0
230
1.0
  2
ANSI31
 70
     0
 71
     1
 91
        5
 92
        1
 93
        6
 72
     1
 10
288.8770762978532
 20
-2254.691602833295
 11
295.8770762978533
 21
-2254.691602833295
 72
     1
 10
292.8770762978532
 20
-2241.691602833295
 11
292.8770762978532
 21
-2254.691602833295
 72
     1
 10
295.8770762978533
 20
-2241.691602833295
 11
288.8770762978532
 21
-2241.691602833295
 72
     2
 10
288.8770762978532
 20
-2242.191602833294
 40
0.5
 50
90.0
 51
180.0
 73
     1
 72
     1
 10
288.3770762978532
 20
-2242.191602833294
 11
288.3770762978532
 21
-2254.191602833294
 72
     2
 10
288.8770762978532
 20
-2254.191602833294
 40
0.5
 50
180.0
 51
270.0
 73
     1
 97
        6
330
28C63
330
28C60
330
28C62
330
28C72
330
28C5F
330
28C73
 92
        9
 93
        4
 72
     1
 10
288.5757180334938
 20
-2248.876422248385
 11
289.8257180334939
 21
-2248.876422248385
 72
     1
 10
289.8257180334938
 20
-2248.876422248385
 11
289.8257180334938
 21
-2254.293088915051
 72
     1
 10
289.8257180334938
 20
-2254.293088915051
 11
288.5757180334937
 21
-2254.293088915051
 72
     1
 10
288.5757180334938
 20
-2254.293088915051
 11
288.5757180334938
 21
-2248.876422248385
 97
        1
330
28C70
 92
       16
 93
       10
 72
     1
 10
289.8431640675575
 20
-2242.124936166627
 11
292.2461640675578
 21
-2242.450342416628
 72
     1
 10
292.2461640675578
 20
-2242.450342416628
 11
292.2461640675578
 21
-2246.029811166627
 72
     1
 10
292.2461640675578
 20
-2246.029811166627
 11
291.5853390675578
 21
-2243.751967416627
 72
     3
 10
290.8958736605804
 20
-2244.078130425349
 11
-0.0000000000000001
 21
-0.8150294937689535
 40
0.9230769230769231
 50
115.3172642090603
 51
269.9423673102363
 73
     1
 72
     1
 10
291.3864460085591
 20
-2243.460206171242
 11
291.4662652797564
 21
-2243.546677048372
 72
     3
 10
290.7442890675578
 20
-2244.077373666627
 11
-0.0000000000000001
 21
-0.6508125000000002
 40
0.9230769230769231
 50
270.0
 51
450.0
 73
     1
 72
     3
 10
290.8944765675573
 20
-2244.077373666627
 11
-0.0000000000000001
 21
-0.488109375
 40
0.9230769230769231
 50
0.0
 51
360.0
 73
     1
 72
     1
 10
291.3450390675574
 20
-2244.077373666627
 11
291.3450390675574
 21
-2245.899648666628
 72
     1
 10
289.8431640675575
 20
-2245.704404916627
 11
291.3450390675574
 21
-2245.899648666628
 72
     1
 10
289.8431640675575
 20
-2242.124936166627
 11
289.8431640675575
 21
-2245.704404916627
 97
       10
330
28C66
330
28C6E
330
28C65
330
28C6B
330
28C71
330
28C6C
330
28C6A
330
28C68
330
28C6D
330
28C69
 92
       24
 93
        4
 72
     1
 10
290.7742391809376
 20
-2246.403724623115
 11
292.5677526944513
 21
-2246.403724623115
 72
     1
 10
292.5677526944513
 20
-2246.403724623115
 11
292.5677526944513
 21
-2253.219670569061
 72
     1
 10
292.5677526944513
 20
-2253.219670569061
 11
290.7742391809376
 21
-2253.219670569061
 72
     1
 10
290.7742391809376
 20
-2253.219670569061
 11
290.7742391809376
 21
-2246.403724623115
 97
        1
330
28C64
 92
       24
 93
        4
 72
     1
 10
289.4951808877114
 20
-2246.372477372028
 11
291.3189646714954
 21
-2246.372477372028
 72
     1
 10
291.3189646714954
 20
-2246.372477372028
 11
291.3189646714954
 21
-2254.458441335992
 72
     1
 10
291.3189646714954
 20
-2254.458441335992
 11
289.4951808877114
 21
-2254.458441335992
 72
     1
 10
289.4951808877114
 20
-2254.458441335992
 11
289.4951808877114
 21
-2246.372477372029
 97
        1
330
28C67
 75
     0
 76
     1
 52
270.0
 41
5.0
 77
     0
 78
     1
 53
314.9999999999999
 43
117.0584668812984
 44
-2332.726121865318
 45
0.4419417382415923
 46
0.4419417382415922
 79
     0
 98
        2
 10
292.4223550104993
 20
-2245.239779994736
 10
292.4223550104993
 20
-2245.239779994736
1001
ACAD
1010
0.0
1020
0.0
1030
0.0
  0
LINE
  5
2AD72
330
18
100
AcDbEntity
  8
中心線
 48
0.5
100
AcDbLine
 10
489.431701924283
 20
-2233.191602833294
 30
0.0
 11
474.4317019242831
 21
-2233.191602833294
 31
0.0
  0
LINE
  5
2AD73
330
18
100
AcDbEntity
  8
中心線
 48
0.5
100
AcDbLine
 10
474.4317019242831
 20
-2298.191602833294
 30
0.0
 11
489.431701924283
 21
-2298.191602833294
 31
0.0
  0
LINE
  5
2AD74
330
18
100
AcDbEntity
  8
中心線
 48
0.5
100
AcDbLine
 10
481.931701924283
 20
-2240.691602833294
 30
0.0
 11
481.931701924283
 21
-2225.691602833293
 31
0.0
  0
CIRCLE
  5
2AD75
330
18
100
AcDbEntity
  8
細線
100
AcDbCircle
 10
481.931701924283
 20
-2233.191602833294
 30
0.0
 40
2.5
  0
CIRCLE
  5
2AD76
330
18
100
AcDbEntity
  8
実線
100
AcDbCircle
 10
481.931701924283
 20
-2233.191602833294
 30
0.0
 40
2.066999999999999
  0
LINE
  5
2AD77
330
18
100
AcDbEntity
  8
中心線
 48
0.5
100
AcDbLine
 10
481.931701924283
 20
-2290.691602833294
 30
0.0
 11
481.931701924283
 21
-2305.691602833293
 31
0.0
  0
CIRCLE
  5
2AD78
330
18
100
AcDbEntity
  8
実線
100
AcDbCircle
 10
481.931701924283
 20
-2298.191602833294
 30
0.0
 40
2.066999999999999
  0
CIRCLE
  5
2AD79
330
18
100
AcDbEntity
  8
細線
100
AcDbCircle
 10
481.931701924283
 20
-2298.191602833294
 30
0.0
 40
2.5
  0
LINE
  5
2AD7B
330
18
100
AcDbEntity
  8
中心線
 48
0.5
100
AcDbLine
 10
553.4317019242831
 20
-2233.191602833294
 30
0.0
 11
538.431701924283
 21
-2233.191602833294
 31
0.0
  0
LINE
  5
2AD7C
330
18
100
AcDbEntity
  8
中心線
 48
0.5
100
AcDbLine
 10
538.431701924283
 20
-2298.191602833294
 30
0.0
 11
553.4317019242831
 21
-2298.191602833294
 31
0.0
  0
LINE
  5
2AD7D
330
18
100
AcDbEntity
  8
中心線
 48
0.5
100
AcDbLine
 10
545.931701924283
 20
-2240.691602833294
 30
0.0
 11
545.931701924283
 21
-2225.691602833293
 31
0.0
  0
CIRCLE
  5
2AD7E
330
18
100
AcDbEntity
  8
細線
100
AcDbCircle
 10
545.931701924283
 20
-2233.191602833294
 30
0.0
 40
2.5
  0
CIRCLE
  5
2AD7F
330
18
100
AcDbEntity
  8
実線
100
AcDbCircle
 10
545.931701924283
 20
-2233.191602833294
 30
0.0
 40
2.066999999999999
  0
LINE
  5
2AD80
330
18
100
AcDbEntity
  8
中心線
 48
0.5
100
AcDbLine
 10
545.931701924283
 20
-2290.691602833294
 30
0.0
 11
545.931701924283
 21
-2305.691602833293
 31
0.0
  0
CIRCLE
  5
2AD81
330
18
100
AcDbEntity
  8
実線
100
AcDbCircle
 10
545.931701924283
 20
-2298.191602833294
 30
0.0
 40
2.066999999999999
  0
CIRCLE
  5
2AD82
330
18
100
AcDbEntity
  8
細線
100
AcDbCircle
 10
545.931701924283
 20
-2298.191602833294
 30
0.0
 40
2.5
  0
LINE
  5
2AD84
330
18
100
AcDbEntity
  8
中心線
 48
0.5
100
AcDbLine
 10
617.431701924283
 20
-2233.191602833294
 30
0.0
 11
602.431701924283
 21
-2233.191602833294
 31
0.0
  0
LINE
  5
2AD85
330
18
100
AcDbEntity
  8
中心線
 48
0.5
100
AcDbLine
 10
602.431701924283
 20
-2298.191602833294
 30
0.0
 11
617.431701924283
 21
-2298.191602833294
 31
0.0
  0
LINE
  5
2AD86
330
18
100
AcDbEntity
  8
中心線
 48
0.5
100
AcDbLine
 10
609.931701924283
 20
-2240.691602833294
 30
0.0
 11
609.931701924283
 21
-2225.691602833293
 31
0.0
  0
CIRCLE
  5
2AD87
330
18
100
AcDbEntity
  8
細線
100
AcDbCircle
 10
609.931701924283
 20
-2233.191602833294
 30
0.0
 40
2.5
  0
CIRCLE
  5
2AD88
330
18
100
AcDbEntity
  8
実線
100
AcDbCircle
 10
609.931701924283
 20
-2233.191602833294
 30
0.0
 40
2.066999999999999
  0
LINE
  5
2AD89
330
18
100
AcDbEntity
  8
中心線
 48
0.5
100
AcDbLine
 10
609.931701924283
 20
-2290.691602833294
 30
0.0
 11
609.931701924283
 21
-2305.691602833293
 31
0.0
  0
CIRCLE
  5
2AD8A
330
18
100
AcDbEntity
  8
実線
100
AcDbCircle
 10
609.931701924283
 20
-2298.191602833294
 30
0.0
 40
2.066999999999999
  0
CIRCLE
  5
2AD8B
330
18
100
AcDbEntity
  8
細線
100
AcDbCircle
 10
609.931701924283
 20
-2298.191602833294
 30
0.0
 40
2.5
  0
LINE
  5
2AD8D
330
18
100
AcDbEntity
  8
中心線
 48
0.5
100
AcDbLine
 10
681.431701924283
 20
-2233.191602833294
 30
0.0
 11
666.431701924283
 21
-2233.191602833294
 31
0.0
  0
LINE
  5
2AD8E
330
18
100
AcDbEntity
  8
中心線
 48
0.5
100
AcDbLine
 10
666.431701924283
 20
-2298.191602833294
 30
0.0
 11
681.431701924283
 21
-2298.191602833294
 31
0.0
  0
LINE
  5
2AD8F
330
18
100
AcDbEntity
  8
中心線
 48
0.5
100
AcDbLine
 10
673.9317019242831
 20
-2240.691602833294
 30
0.0
 11
673.9317019242831
 21
-2225.691602833293
 31
0.0
  0
CIRCLE
  5
2AD90
330
18
100
AcDbEntity
  8
細線
100
AcDbCircle
 10
673.9317019242831
 20
-2233.191602833294
 30
0.0
 40
2.5
  0
CIRCLE
  5
2AD91
330
18
100
AcDbEntity
  8
実線
100
AcDbCircle
 10
673.9317019242831
 20
-2233.191602833294
 30
0.0
 40
2.066999999999999
  0
LINE
  5
2AD92
330
18
100
AcDbEntity
  8
中心線
 48
0.5
100
AcDbLine
 10
673.9317019242831
 20
-2290.691602833294
 30
0.0
 11
673.9317019242831
 21
-2305.691602833293
 31
0.0
  0
CIRCLE
  5
2AD93
330
18
100
AcDbEntity
  8
実線
100
AcDbCircle
 10
673.9317019242831
 20
-2298.191602833294
 30
0.0
 40
2.066999999999999
  0
CIRCLE
  5
2AD94
330
18
100
AcDbEntity
  8
細線
100
AcDbCircle
 10
673.9317019242831
 20
-2298.191602833294
 30
0.0
 40
2.5
  0
LINE
  5
2AD96
330
18
100
AcDbEntity
  8
中心線
 48
0.5
100
AcDbLine
 10
745.431701924283
 20
-2233.191602833294
 30
0.0
 11
730.431701924283
 21
-2233.191602833294
 31
0.0
  0
LINE
  5
2AD97
330
18
100
AcDbEntity
  8
中心線
 48
0.5
100
AcDbLine
 10
730.431701924283
 20
-2298.191602833294
 30
0.0
 11
745.431701924283
 21
-2298.191602833294
 31
0.0
  0
LINE
  5
2AD98
330
18
100
AcDbEntity
  8
中心線
 48
0.5
100
AcDbLine
 10
737.931701924283
 20
-2240.691602833294
 30
0.0
 11
737.931701924283
 21
-2225.691602833293
 31
0.0
  0
CIRCLE
  5
2AD99
330
18
100
AcDbEntity
  8
細線
100
AcDbCircle
 10
737.931701924283
 20
-2233.191602833294
 30
0.0
 40
2.5
  0
CIRCLE
  5
2AD9A
330
18
100
AcDbEntity
  8
実線
100
AcDbCircle
 10
737.931701924283
 20
-2233.191602833294
 30
0.0
 40
2.066999999999999
  0
LINE
  5
2AD9B
330
18
100
AcDbEntity
  8
中心線
 48
0.5
100
AcDbLine
 10
737.931701924283
 20
-2290.691602833294
 30
0.0
 11
737.931701924283
 21
-2305.691602833293
 31
0.0
  0
CIRCLE
  5
2AD9C
330
18
100
AcDbEntity
  8
実線
100
AcDbCircle
 10
737.931701924283
 20
-2298.191602833294
 30
0.0
 40
2.066999999999999
  0
CIRCLE
  5
2AD9D
330
18
100
AcDbEntity
  8
細線
100
AcDbCircle
 10
737.931701924283
 20
-2298.191602833294
 30
0.0
 40
2.5
  0
LINE
  5
2AD9F
330
18
100
AcDbEntity
  8
中心線
 48
0.5
100
AcDbLine
 10
809.4317019242831
 20
-2233.191602833294
 30
0.0
 11
794.4317019242831
 21
-2233.191602833294
 31
0.0
  0
LINE
  5
2ADA0
330
18
100
AcDbEntity
  8
中心線
 48
0.5
100
AcDbLine
 10
794.4317019242831
 20
-2298.191602833294
 30
0.0
 11
809.4317019242831
 21
-2298.191602833294
 31
0.0
  0
LINE
  5
2ADA1
330
18
100
AcDbEntity
  8
中心線
 48
0.5
100
AcDbLine
 10
801.931701924283
 20
-2240.691602833294
 30
0.0
 11
801.931701924283
 21
-2225.691602833293
 31
0.0
  0
CIRCLE
  5
2ADA2
330
18
100
AcDbEntity
  8
細線
100
AcDbCircle
 10
801.931701924283
 20
-2233.191602833294
 30
0.0
 40
2.5
  0
CIRCLE
  5
2ADA3
330
18
100
AcDbEntity
  8
実線
100
AcDbCircle
 10
801.931701924283
 20
-2233.191602833294
 30
0.0
 40
2.066999999999999
  0
LINE
  5
2ADA4
330
18
100
AcDbEntity
  8
中心線
 48
0.5
100
AcDbLine
 10
801.931701924283
 20
-2290.691602833294
 30
0.0
 11
801.931701924283
 21
-2305.691602833293
 31
0.0
  0
CIRCLE
  5
2ADA5
330
18
100
AcDbEntity
  8
実線
100
AcDbCircle
 10
801.931701924283
 20
-2298.191602833294
 30
0.0
 40
2.066999999999999
  0
CIRCLE
  5
2ADA6
330
18
100
AcDbEntity
  8
細線
100
AcDbCircle
 10
801.931701924283
 20
-2298.191602833294
 30
0.0
 40
2.5
  0
LINE
  5
2ADA8
330
18
100
AcDbEntity
  8
中心線
 48
0.5
100
AcDbLine
 10
873.431701924283
 20
-2233.191602833294
 30
0.0
 11
858.4317019242829
 21
-2233.191602833294
 31
0.0
  0
LINE
  5
2ADA9
330
18
100
AcDbEntity
  8
中心線
 48
0.5
100
AcDbLine
 10
858.4317019242829
 20
-2298.191602833294
 30
0.0
 11
873.431701924283
 21
-2298.191602833294
 31
0.0
  0
LINE
  5
2ADAA
330
18
100
AcDbEntity
  8
中心線
 48
0.5
100
AcDbLine
 10
865.9317019242831
 20
-2240.691602833294
 30
0.0
 11
865.9317019242831
 21
-2225.691602833293
 31
0.0
  0
CIRCLE
  5
2ADAB
330
18
100
AcDbEntity
  8
細線
100
AcDbCircle
 10
865.9317019242831
 20
-2233.191602833294
 30
0.0
 40
2.5
  0
CIRCLE
  5
2ADAC
330
18
100
AcDbEntity
  8
実線
100
AcDbCircle
 10
865.9317019242831
 20
-2233.191602833294
 30
0.0
 40
2.066999999999999
  0
LINE
  5
2ADAD
330
18
100
AcDbEntity
  8
中心線
 48
0.5
100
AcDbLine
 10
865.9317019242831
 20
-2290.691602833294
 30
0.0
 11
865.9317019242831
 21
-2305.691602833293
 31
0.0
  0
CIRCLE
  5
2ADAE
330
18
100
AcDbEntity
  8
実線
100
AcDbCircle
 10
865.9317019242831
 20
-2298.191602833294
 30
0.0
 40
2.066999999999999
  0
CIRCLE
  5
2ADAF
330
18
100
AcDbEntity
  8
細線
100
AcDbCircle
 10
865.9317019242831
 20
-2298.191602833294
 30
0.0
 40
2.5
  0
LINE
  5
2B438
330
18
100
AcDbEntity
  8
実線
100
AcDbLine
 10
881.9317019242822
 20
-2511.924134915541
 30
0.0
 11
895.9317019242838
 21
-2511.924134915541
 31
0.0
  0
LINE
  5
2B439
330
18
100
AcDbEntity
  8
実線
100
AcDbLine
 10
895.9317019242822
 20
-2549.924134915541
 30
0.0
 11
881.9317019242822
 21
-2549.924134915541
 31
0.0
  0
LINE
  5
2B43A
330
18
100
AcDbEntity
  8
実線
100
AcDbLine
 10
881.9317019242822
 20
-2523.924134915541
 30
0.0
 11
895.9317019242822
 21
-2523.924134915541
 31
0.0
  0
LINE
  5
2B43E
330
18
100
AcDbEntity
  8
実線
100
AcDbLine
 10
895.9317019242838
 20
-2511.924134915541
 30
0.0
 11
895.9317019242828
 21
-2536.42413491554
 31
0.0
  0
LINE
  5
2B441
330
18
100
AcDbEntity
  8
実線
100
AcDbLine
 10
895.9317019242828
 20
-2544.42413491554
 30
0.0
 11
895.9317019242822
 21
-2549.924134915541
 31
0.0
  0
LINE
  5
2B473
330
18
100
AcDbEntity
  8
実線
100
AcDbLine
 10
894.9317019242824
 20
-2304.191602833295
 30
0.0
 11
894.9317019242824
 21
-2301.691602833294
 31
0.0
  0
LINE
  5
2B476
330
18
100
AcDbEntity
  8
中心線
 48
0.5
100
AcDbLine
 10
971.7605671308687
 20
-2307.817694659442
 30
0.0
 11
974.5028367177015
 21
-2292.265511007148
 31
0.0
  0
LINE
  5
2B477
330
18
100
AcDbEntity
  8
中心線
 48
0.5
100
AcDbLine
 10
973.7605671308688
 20
-2307.817694659442
 30
0.0
 11
976.5028367177015
 21
-2292.265511007148
 31
0.0
  0
LINE
  5
2B47A
330
18
100
AcDbEntity
  8
実線
100
AcDbLine
 10
1035.131701924285
 20
-2288.958586518905
 30
0.0
 11
1048.131701924285
 21
-2288.958586518905
 31
0.0
  0
LINE
  5
2B47B
330
18
100
AcDbEntity
  8
実線
100
AcDbLine
 10
1035.131701924285
 20
-2291.958586518906
 30
0.0
 11
1048.131701924285
 21
-2291.958586518906
 31
0.0
  0
LINE
  5
2B47C
330
18
100
AcDbEntity
  8
実線
100
AcDbLine
 10
1035.131701924285
 20
-2294.958586518906
 30
0.0
 11
1048.131701924285
 21
-2294.958586518906
 31
0.0
  0
LINE
  5
2B47D
330
18
100
AcDbEntity
  8
実線
100
AcDbLine
 10
1035.131701924285
 20
-2297.958586518905
 30
0.0
 11
1048.131701924285
 21
-2297.958586518905
 31
0.0
  0
LINE
  5
2B47E
330
18
100
AcDbEntity
  8
実線
100
AcDbLine
 10
1048.131701924285
 20
-2284.708586518906
 30
0.0
 11
1035.131701924285
 21
-2284.708586518906
 31
0.0
  0
LINE
  5
2B47F
330
18
100
AcDbEntity
  8
実線
100
AcDbLine
 10
1035.131701924285
 20
-2314.208586518906
 30
0.0
 11
1048.131701924285
 21
-2314.208586518906
 31
0.0
  0
LINE
  5
2B480
330
18
100
AcDbEntity
  8
実線
100
AcDbLine
 10
1035.131701924285
 20
-2303.958586518906
 30
0.0
 11
1048.131701924285
 21
-2303.958586518906
 31
0.0
  0
LINE
  5
2B481
330
18
100
AcDbEntity
  8
実線
100
AcDbLine
 10
1035.131701924285
 20
-2300.958586518905
 30
0.0
 11
1048.131701924285
 21
-2300.958586518905
 31
0.0
  0
LINE
  5
2B482
330
18
100
AcDbEntity
  8
実線
100
AcDbLine
 10
1035.131701924285
 20
-2306.958586518906
 30
0.0
 11
1048.131701924285
 21
-2306.958586518906
 31
0.0
  0
LINE
  5
2B483
330
18
100
AcDbEntity
  8
実線
100
AcDbLine
 10
1035.131701924285
 20
-2309.958586518906
 30
0.0
 11
1048.131701924285
 21
-2309.958586518906
 31
0.0
  0
LINE
  5
2B484
330
18
100
AcDbEntity
  8
実線
100
AcDbLine
 10
1035.131701924285
 20
-2294.958586518906
 30
0.0
 11
1035.131701924285
 21
-2291.958586518906
 31
0.0
  0
LINE
  5
2B485
330
18
100
AcDbEntity
  8
実線
100
AcDbLine
 10
1034.131701924285
 20
-2288.458586518906
 30
0.0
 11
1035.131701924285
 21
-2288.958586518905
 31
0.0
  0
LINE
  5
2B486
330
18
100
AcDbEntity
  8
実線
100
AcDbLine
 10
1035.131701924285
 20
-2284.708586518906
 30
0.0
 11
1034.131701924285
 21
-2288.458586518906
 31
0.0
  0
LINE
  5
2B487
330
18
100
AcDbEntity
  8
実線
100
AcDbLine
 10
1035.131701924285
 20
-2288.958586518905
 30
0.0
 11
1035.131701924285
 21
-2284.708586518906
 31
0.0
  0
LINE
  5
2B488
330
18
100
AcDbEntity
  8
実線
100
AcDbLine
 10
1034.131701924285
 20
-2288.458586518906
 30
0.0
 11
1010.131701924285
 21
-2288.458586518906
 31
0.0
  0
LINE
  5
2B489
330
18
100
AcDbEntity
  8
実線
100
AcDbLine
 10
1035.131701924285
 20
-2314.208586518906
 30
0.0
 11
1035.131701924285
 21
-2309.958586518906
 31
0.0
  0
LINE
  5
2B48A
330
18
100
AcDbEntity
  8
実線
100
AcDbLine
 10
1034.131701924285
 20
-2310.458586518906
 30
0.0
 11
1035.131701924285
 21
-2309.958586518906
 31
0.0
  0
LINE
  5
2B48B
330
18
100
AcDbEntity
  8
実線
100
AcDbLine
 10
1035.131701924285
 20
-2314.208586518906
 30
0.0
 11
1034.131701924285
 21
-2310.458586518906
 31
0.0
  0
LINE
  5
2B48C
330
18
100
AcDbEntity
  8
実線
100
AcDbLine
 10
1034.131701924285
 20
-2310.458586518906
 30
0.0
 11
1010.131701924285
 21
-2310.458586518906
 31
0.0
  0
LINE
  5
2B48D
330
18
100
AcDbEntity
  8
実線
100
AcDbLine
 10
1035.131701924285
 20
-2306.958586518906
 30
0.0
 11
1035.131701924285
 21
-2303.958586518906
 31
0.0
  0
LINE
  5
2B48E
330
18
100
AcDbEntity
  8
実線
100
AcDbLine
 10
1035.131701924285
 20
-2300.958586518905
 30
0.0
 11
1035.131701924285
 21
-2297.958586518905
 31
0.0
  0
LWPOLYLINE
  5
2B48F
330
18
100
AcDbEntity
  8
実線
100
AcDbPolyline
 90
        4
 70
   129
 43
0.0
 10
1057.131701924285
 20
-2314.208586518906
 10
1052.131701924285
 20
-2314.208586518906
 10
1052.131701924285
 20
-2284.708586518906
 10
1057.131701924285
 20
-2284.708586518906
  0
LWPOLYLINE
  5
2B490
330
18
100
AcDbEntity
  8
実線
100
AcDbPolyline
 90
        4
 70
   129
 43
0.0
 10
1052.131701924285
 20
-2316.308586518905
 10
1048.131701924285
 20
-2316.308586518905
 10
1048.131701924285
 20
-2282.608586518906
 10
1052.131701924285
 20
-2282.608586518906
  0
LINE
  5
2B491
330
18
100
AcDbEntity
  8
実線
100
AcDbLine
 10
1010.131701924285
 20
-2310.458586518906
 30
0.0
 11
1010.131701924285
 21
-2288.458586518906
 31
0.0
  0
LINE
  5
2B492
330
18
100
AcDbEntity
  8
実線
100
AcDbLine
 10
1010.131701924285
 20
-2306.833586518906
 30
0.0
 11
1010.131701924285
 21
-2292.083586518906
 31
0.0
  0
LINE
  5
2B493
330
18
100
AcDbEntity
  8
実線
100
AcDbLine
 10
989.9914650632981
 20
-2297.441602833294
 30
0.0
 11
1010.131701924285
 21
-2300.783586518905
 31
0.0
  0
LINE
  5
2B494
330
18
100
AcDbEntity
  8
実線
100
AcDbLine
 10
989.9914650632981
 20
-2299.441602833295
 30
0.0
 11
1010.131701924285
 21
-2302.783586518904
 31
0.0
  0
LINE
  5
2B495
330
18
100
AcDbEntity
  8
実線
100
AcDbLine
 10
990.58335695519
 20
-2297.541602833294
 30
0.0
 11
1010.131701924285
 21
-2293.583586518906
 31
0.0
  0
LINE
  5
2B496
330
18
100
AcDbEntity
  8
実線
100
AcDbLine
 10
989.9914650632981
 20
-2301.841602833294
 30
0.0
 11
1010.131701924285
 21
-2305.183586518905
 31
0.0
  0
LINE
  5
2B497
330
18
100
AcDbEntity
  8
実線
100
AcDbLine
 10
989.9914650632981
 20
-2299.841602833294
 30
0.0
 11
1010.131701924285
 21
-2303.183586518905
 31
0.0
  0
LINE
  5
2B498
330
18
100
AcDbEntity
  8
実線
100
AcDbLine
 10
999.7985062135162
 20
-2299.068940771491
 30
0.0
 11
1010.131701924285
 21
-2297.983586518905
 31
0.0
  0
LINE
  5
2B499
330
18
100
AcDbEntity
  8
実線
100
AcDbLine
 10
993.4008032872416
 20
-2298.00733365373
 30
0.0
 11
1010.131701924285
 21
-2295.983586518905
 31
0.0
  0
LINE
  5
2B49A
330
18
100
AcDbEntity
  8
実線
100
AcDbLine
 10
992.2331909512768
 20
-2297.813585119151
 30
0.0
 11
1010.131701924285
 21
-2295.583586518906
 31
0.0
  0
LINE
  5
2B49B
330
18
100
AcDbEntity
  8
実線
100
AcDbLine
 10
989.9914650632981
 20
-2295.691602833294
 30
0.0
 11
989.9914650632981
 21
-2303.691602833294
 31
0.0
  0
LINE
  5
2B49C
330
18
100
AcDbEntity
  8
実線
100
AcDbLine
 10
989.9914650632981
 20
-2302.091602833294
 30
0.0
 11
990.7263643921568
 21
-2301.965763907119
 31
0.0
  0
LINE
  5
2B49D
330
18
100
AcDbEntity
  8
実線
100
AcDbLine
 10
989.9914896684876
 20
-2296.691602833294
 30
0.0
 11
989.9914650632981
 21
-2297.341602836594
 31
0.0
  0
LINE
  5
2B49E
330
18
100
AcDbEntity
  8
実線
100
AcDbLine
 10
989.9914650632981
 20
-2302.341602829995
 30
0.0
 11
989.9914650632981
 21
-2302.691602833295
 31
0.0
  0
LINE
  5
2C920
330
18
100
AcDbEntity
  8
中心線
100
AcDbLine
 10
915.9317019242832
 20
-2540.42413491554
 30
0.0
 11
873.1156428011006
 21
-2540.42413491554
 31
0.0
  0
LINE
  5
2C926
330
18
100
AcDbEntity
  8
中心線
 48
0.5
100
AcDbLine
 10
969.1756340412741
 20
-2484.200226741688
 30
0.0
 11
971.9179036281069
 21
-2468.648043089393
 31
0.0
  0
LINE
  5
2C927
330
18
100
AcDbEntity
  8
中心線
 48
0.5
100
AcDbLine
 10
971.1756340412742
 20
-2484.200226741688
 30
0.0
 11
973.9179036281068
 21
-2468.648043089393
 31
0.0
  0
LINE
  5
2C928
330
18
100
AcDbEntity
  8
中心線
100
AcDbLine
 10
959.9317019242832
 20
-2476.42413491554
 30
0.0
 11
1060.313034039337
 21
-2476.42413491554
 31
0.0
  0
LINE
  5
2C929
330
18
100
AcDbEntity
  8
実線
100
AcDbLine
 10
1034.131701924285
 20
-2484.050934496029
 30
0.0
 11
1010.131701924286
 21
-2484.050934496029
 31
0.0
  0
LINE
  5
2C92A
330
18
100
AcDbEntity
  8
実線
100
AcDbLine
 10
1034.131701924285
 20
-2468.925934496029
 30
0.0
 11
1010.131701924286
 21
-2468.925934496029
 31
0.0
  0
LINE
  5
2C92B
330
18
100
AcDbEntity
  8
実線
100
AcDbLine
 10
988.2317019242861
 20
-2474.15093449603
 30
0.0
 11
1010.131701924286
 21
-2477.850934496029
 31
0.0
  0
LINE
  5
2C92C
330
18
100
AcDbEntity
  8
実線
100
AcDbLine
 10
988.2317019242861
 20
-2476.55093449603
 30
0.0
 11
1010.131701924286
 21
-2480.250934496031
 31
0.0
  0
LINE
  5
2C92D
330
18
100
AcDbEntity
  8
実線
100
AcDbLine
 10
988.2317019242861
 20
-2476.15093449603
 30
0.0
 11
1010.131701924286
 21
-2479.850934496029
 31
0.0
  0
LINE
  5
2C92E
330
18
100
AcDbEntity
  8
実線
100
AcDbLine
 10
988.2317019242861
 20
-2478.55093449603
 30
0.0
 11
1010.131701924286
 21
-2482.250934496031
 31
0.0
  0
LINE
  5
2C92F
330
18
100
AcDbEntity
  8
実線
100
AcDbLine
 10
988.8235938161768
 20
-2474.25093449603
 30
0.0
 11
1010.131701924286
 21
-2470.65093449603
 31
0.0
  0
LINE
  5
2C930
330
18
100
AcDbEntity
  8
実線
100
AcDbLine
 10
1001.900829441064
 20
-2476.460330469184
 30
0.0
 11
1010.131701924286
 21
-2475.05093449603
 31
0.0
  0
LINE
  5
2C931
330
18
100
AcDbEntity
  8
実線
100
AcDbLine
 10
995.9262965188816
 20
-2475.450934496029
 30
0.0
 11
1010.131701924286
 21
-2473.05093449603
 31
0.0
  0
LINE
  5
2C932
330
18
100
AcDbEntity
  8
実線
100
AcDbLine
 10
994.8457958840178
 20
-2475.268384160459
 30
0.0
 11
1010.131701924286
 21
-2472.650934496031
 31
0.0
  0
LINE
  5
2C933
330
18
100
AcDbEntity
  8
実線
100
AcDbLine
 10
994.8457958840178
 20
-2477.668384160459
 30
0.0
 11
996.0216348101919
 21
-2477.46704187858
 31
0.0
  0
LINE
  5
2C934
330
18
100
AcDbEntity
  8
実線
100
AcDbLine
 10
1010.131701924286
 20
-2469.17593449603
 30
0.0
 11
1010.131701924286
 21
-2483.92593449603
 31
0.0
  0
LINE
  5
2C935
330
18
100
AcDbEntity
  8
実線
100
AcDbLine
 10
1010.131701924286
 20
-2468.925934496029
 30
0.0
 11
1010.131701924286
 21
-2484.050934496029
 31
0.0
  0
LINE
  5
2C936
330
18
100
AcDbEntity
  8
実線
100
AcDbLine
 10
1048.131701924285
 20
-2489.90093449603
 30
0.0
 11
1052.131701924285
 21
-2489.90093449603
 31
0.0
  0
LINE
  5
2C937
330
18
100
AcDbEntity
  8
実線
100
AcDbLine
 10
1035.131701924285
 20
-2478.05093449603
 30
0.0
 11
1048.131701924285
 21
-2478.05093449603
 31
0.0
  0
LINE
  5
2C938
330
18
100
AcDbEntity
  8
実線
100
AcDbLine
 10
1035.131701924285
 20
-2475.05093449603
 30
0.0
 11
1048.131701924285
 21
-2475.05093449603
 31
0.0
  0
LINE
  5
2C939
330
18
100
AcDbEntity
  8
実線
100
AcDbLine
 10
1048.131701924285
 20
-2487.80093449603
 30
0.0
 11
1035.131701924285
 21
-2487.80093449603
 31
0.0
  0
LINE
  5
2C93A
330
18
100
AcDbEntity
  8
実線
100
AcDbLine
 10
1035.131701924285
 20
-2484.05093449603
 30
0.0
 11
1048.131701924285
 21
-2484.05093449603
 31
0.0
  0
LINE
  5
2C93B
330
18
100
AcDbEntity
  8
実線
100
AcDbLine
 10
1035.131701924285
 20
-2487.05093449603
 30
0.0
 11
1048.131701924285
 21
-2487.05093449603
 31
0.0
  0
LINE
  5
2C93C
330
18
100
AcDbEntity
  8
実線
100
AcDbLine
 10
1035.131701924285
 20
-2481.05093449603
 30
0.0
 11
1048.131701924285
 21
-2481.05093449603
 31
0.0
  0
LINE
  5
2C93D
330
18
100
AcDbEntity
  8
実線
100
AcDbLine
 10
1035.131701924285
 20
-2472.05093449603
 30
0.0
 11
1048.131701924285
 21
-2472.05093449603
 31
0.0
  0
LINE
  5
2C93E
330
18
100
AcDbEntity
  8
実線
100
AcDbLine
 10
1035.131701924285
 20
-2469.05093449603
 30
0.0
 11
1048.131701924285
 21
-2469.05093449603
 31
0.0
  0
LINE
  5
2C93F
330
18
100
AcDbEntity
  8
実線
100
AcDbLine
 10
1035.131701924285
 20
-2466.05093449603
 30
0.0
 11
1048.131701924285
 21
-2466.05093449603
 31
0.0
  0
LINE
  5
2C940
330
18
100
AcDbEntity
  8
実線
100
AcDbLine
 10
1035.131701924285
 20
-2465.300934496029
 30
0.0
 11
1048.131701924285
 21
-2465.300934496029
 31
0.0
  0
LINE
  5
2C941
330
18
100
AcDbEntity
  8
実線
100
AcDbLine
 10
1035.131701924285
 20
-2475.05093449603
 30
0.0
 11
1035.131701924285
 21
-2478.05093449603
 31
0.0
  0
LINE
  5
2C942
330
18
100
AcDbEntity
  8
実線
100
AcDbLine
 10
1035.131701924285
 20
-2483.55093449603
 30
0.0
 11
1035.131701924285
 21
-2487.80093449603
 31
0.0
  0
LINE
  5
2C943
330
18
100
AcDbEntity
  8
実線
100
AcDbLine
 10
1034.131701924285
 20
-2484.05093449603
 30
0.0
 11
1035.131701924285
 21
-2483.55093449603
 31
0.0
  0
LINE
  5
2C944
330
18
100
AcDbEntity
  8
実線
100
AcDbLine
 10
1035.131701924285
 20
-2487.80093449603
 30
0.0
 11
1034.131701924285
 21
-2484.05093449603
 31
0.0
  0
LINE
  5
2C945
330
18
100
AcDbEntity
  8
実線
100
AcDbLine
 10
1035.131701924285
 20
-2481.05093449603
 30
0.0
 11
1035.131701924285
 21
-2484.05093449603
 31
0.0
  0
LINE
  5
2C946
330
18
100
AcDbEntity
  8
実線
100
AcDbLine
 10
1035.131701924285
 20
-2469.05093449603
 30
0.0
 11
1035.131701924285
 21
-2472.05093449603
 31
0.0
  0
LINE
  5
2C947
330
18
100
AcDbEntity
  8
実線
100
AcDbLine
 10
1035.131701924285
 20
-2465.300934496029
 30
0.0
 11
1035.131701924285
 21
-2469.550934496029
 31
0.0
  0
LINE
  5
2C948
330
18
100
AcDbEntity
  8
実線
100
AcDbLine
 10
1035.131701924285
 20
-2465.300934496029
 30
0.0
 11
1034.131701924285
 21
-2468.925934496029
 31
0.0
  0
LINE
  5
2C949
330
18
100
AcDbEntity
  8
実線
100
AcDbLine
 10
1034.131701924285
 20
-2468.925934496029
 30
0.0
 11
1035.131701924285
 21
-2469.550934496029
 31
0.0
  0
LINE
  5
2C94A
330
18
100
AcDbEntity
  8
実線
100
AcDbLine
 10
1048.131701924285
 20
-2463.200934496029
 30
0.0
 11
1048.131701924285
 21
-2489.90093449603
 31
0.0
  0
LINE
  5
2C94B
330
18
100
AcDbEntity
  8
実線
100
AcDbLine
 10
1052.131701924285
 20
-2487.80093449603
 30
0.0
 11
1057.131701924285
 21
-2487.80093449603
 31
0.0
  0
LINE
  5
2C94C
330
18
100
AcDbEntity
  8
実線
100
AcDbLine
 10
1052.131701924285
 20
-2463.200934496029
 30
0.0
 11
1052.131701924285
 21
-2489.90093449603
 31
0.0
  0
LINE
  5
2C94D
330
18
100
AcDbEntity
  8
実線
100
AcDbLine
 10
1057.131701924285
 20
-2465.300934496029
 30
0.0
 11
1052.131701924285
 21
-2465.300934496029
 31
0.0
  0
LINE
  5
2C94E
330
18
100
AcDbEntity
  8
実線
100
AcDbLine
 10
1052.131701924285
 20
-2489.90093449603
 30
0.0
 11
1052.131701924285
 21
-2463.200934496029
 31
0.0
  0
LINE
  5
2C94F
330
18
100
AcDbEntity
  8
実線
100
AcDbLine
 10
1052.131701924285
 20
-2463.200934496029
 30
0.0
 11
1048.131701924285
 21
-2463.200934496029
 31
0.0
  0
LINE
  5
2C950
330
18
100
AcDbEntity
  8
実線
100
AcDbLine
 10
1057.131701924284
 20
-2487.80093449603
 30
0.0
 11
1057.131701924285
 21
-2465.300934496029
 31
0.0
  0
LINE
  5
2C951
330
18
100
AcDbEntity
  8
実線
 48
10.0
100
AcDbLine
 10
894.9317019242828
 20
-2535.92413491554
 30
0.0
 11
881.9317019242822
 21
-2535.92413491554
 31
0.0
  0
LINE
  5
2C952
330
18
100
AcDbEntity
  8
実線
 48
10.0
100
AcDbLine
 10
894.9317019242828
 20
-2535.92413491554
 30
0.0
 11
894.9317019242824
 21
-2544.92413491554
 31
0.0
  0
LINE
  5
2C953
330
18
100
AcDbEntity
  8
実線
 48
10.0
100
AcDbLine
 10
894.9317019242824
 20
-2544.92413491554
 30
0.0
 11
881.9317019242822
 21
-2544.92413491554
 31
0.0
  0
LINE
  5
2C956
330
18
100
AcDbEntity
  8
実線
 48
10.0
100
AcDbLine
 10
933.9317019242832
 20
-2498.42413491554
 30
0.0
 11
933.9317019242832
 21
-2518.42413491554
 31
0.0
  0
LINE
  5
2C95A
330
18
100
AcDbEntity
  8
実線
 48
10.0
100
AcDbLine
 10
959.9317019242832
 20
-2480.42413491554
 30
0.0
 11
969.8414609118566
 21
-2480.42413491554
 31
0.0
  0
LINE
  5
2C95B
330
18
100
AcDbEntity
  8
実線
 48
10.0
100
AcDbLine
 10
959.9317019242832
 20
-2472.42413491554
 30
0.0
 11
971.2520767575243
 21
-2472.42413491554
 31
0.0
  0
LINE
  5
2C95C
330
18
100
AcDbEntity
  8
実線
 48
10.0
100
AcDbLine
 10
915.9317019242832
 20
-2536.42413491554
 30
0.0
 11
894.9317019242828
 21
-2536.42413491554
 31
0.0
  0
LINE
  5
2C95D
330
18
100
AcDbEntity
  8
実線
 48
10.0
100
AcDbLine
 10
915.9317019242832
 20
-2544.42413491554
 30
0.0
 11
894.9317019242824
 21
-2544.42413491554
 31
0.0
  0
LINE
  5
2C95E
330
18
100
AcDbEntity
  8
実線
100
AcDbLine
 10
988.2317019242838
 20
-2472.42413491554
 30
0.0
 11
988.2317019242844
 21
-2480.42413491554
 31
0.0
  0
ARC
  5
2C95F
330
18
100
AcDbEntity
  8
実線
 48
10.0
100
AcDbCircle
 10
915.9317019242832
 20
-2518.42413491554
 30
0.0
 40
18.0
100
AcDbArc
 50
270.0
 51
0.0
  0
LINE
  5
2C964
330
18
100
AcDbEntity
  8
実線
 48
10.0
100
AcDbLine
 10
941.9317019242832
 20
-2498.42413491554
 30
0.0
 11
941.9317019242832
 21
-2518.42413491554
 31
0.0
  0
ARC
  5
2C965
330
18
100
AcDbEntity
  8
実線
 48
10.0
100
AcDbCircle
 10
959.9317019242832
 20
-2498.42413491554
 30
0.0
 40
18.0
100
AcDbArc
 50
90.0
 51
180.0
  0
ARC
  5
2C967
330
18
100
AcDbEntity
  8
実線
 48
10.0
100
AcDbCircle
 10
915.9317019242832
 20
-2518.42413491554
 30
0.0
 40
26.0
100
AcDbArc
 50
270.0
 51
2.795537696517015
  0
ARC
  5
2C968
330
18
100
AcDbEntity
  8
中心線
100
AcDbCircle
 10
959.9317019242832
 20
-2498.42413491554
 30
0.0
 40
22.0
100
AcDbArc
 50
90.0
 51
180.0
  0
ARC
  5
2C969
330
18
100
AcDbEntity
  8
実線
 48
10.0
100
AcDbCircle
 10
959.9317019242832
 20
-2498.42413491554
 30
0.0
 40
26.0
100
AcDbArc
 50
90.0
 51
180.0
  0
LINE
  5
2C96B
330
18
100
AcDbEntity
  8
中心線
100
AcDbLine
 10
937.9317019242833
 20
-2498.42413491554
 30
0.0
 11
937.9317019242833
 21
-2518.42413491554
 31
0.0
  0
ARC
  5
2C96D
330
18
100
AcDbEntity
  8
中心線
100
AcDbCircle
 10
915.9317019242832
 20
-2518.42413491554
 30
0.0
 40
22.0
100
AcDbArc
 50
270.0
 51
0.0
  0
LINE
  5
2C98C
330
18
100
AcDbEntity
  8
実線
 48
10.0
100
AcDbLine
 10
973.2520767575243
 20
-2472.42413491554
 30
0.0
 11
988.2317019242844
 21
-2472.42413491554
 31
0.0
  0
LINE
  5
2C98D
330
18
100
AcDbEntity
  8
実線
 48
10.0
100
AcDbLine
 10
971.8414609118566
 20
-2480.42413491554
 30
0.0
 11
988.2317019242844
 21
-2480.42413491554
 31
0.0
  0
LINE
  5
2C990
330
18
100
AcDbEntity
  8
実線
 48
10.0
100
AcDbLine
 10
894.9317019242824
 20
-2303.691602833294
 30
0.0
 11
972.4881084446993
 21
-2303.691602833294
 31
0.0
  0
LINE
  5
2C991
330
18
100
AcDbEntity
  8
実線
 48
10.0
100
AcDbLine
 10
895.9317019242829
 20
-2295.691602833294
 30
0.0
 11
973.898724290367
 21
-2295.691602833294
 31
0.0
  0
LINE
  5
2C992
330
18
100
AcDbEntity
  8
実線
100
AcDbLine
 10
881.7317019242832
 20
-2304.191602833295
 30
0.0
 11
894.9317019242824
 21
-2304.191602833295
 31
0.0
  0
LINE
  5
2C993
330
18
100
AcDbEntity
  8
実線
 48
10.0
100
AcDbLine
 10
975.8987242903669
 20
-2295.691602833294
 30
0.0
 11
989.9914650632984
 21
-2295.691602833294
 31
0.0
  0
LINE
  5
2C994
330
18
100
AcDbEntity
  8
実線
 48
10.0
100
AcDbLine
 10
974.4881084446992
 20
-2303.691602833294
 30
0.0
 11
989.9914650632984
 21
-2303.691602833294
 31
0.0
  0
LINE
  5
2CDCE
330
18
100
AcDbEntity
  8
破線
 48
0.03
100
AcDbLine
 10
895.9317019242833
 20
-2286.941602833294
 30
0.0
 11
883.9317019242834
 21
-2286.941602833294
 31
0.0
  0
LINE
  5
2CDCF
330
18
100
AcDbEntity
  8
破線
 48
0.03
100
AcDbLine
 10
895.9317019242833
 20
-2286.691602833293
 30
0.0
 11
885.9317019242833
 21
-2286.691602833293
 31
0.0
  0
LINE
  5
2CDD0
330
18
100
AcDbEntity
  8
破線
 48
0.03
100
AcDbLine
 10
882.9213389531968
 20
-2288.691602833293
 30
0.0
 11
883.9317019242834
 21
-2286.941602833294
 31
0.0
  0
LINE
  5
2CDD1
330
18
100
AcDbEntity
  8
破線
 48
0.03
100
AcDbLine
 10
883.9317019242834
 20
-2290.441602833293
 30
0.0
 11
883.9317019242834
 21
-2286.941602833294
 31
0.0
  0
LINE
  5
2CDD2
330
18
100
AcDbEntity
  8
破線
 48
0.03
100
AcDbLine
 10
885.9317019242833
 20
-2286.691602833293
 30
0.0
 11
885.498689222385
 21
-2286.941602833294
 31
0.0
  0
LINE
  5
2CDD3
330
18
100
AcDbEntity
  8
破線
 48
0.03
100
AcDbLine
 10
885.9317019242833
 20
-2290.691602833294
 30
0.0
 11
885.9317019242833
 21
-2286.691602833293
 31
0.0
  0
LINE
  5
2CDD4
330
18
100
AcDbEntity
  8
破線
 48
0.03
100
AcDbLine
 10
882.9213389531968
 20
-2288.691602833293
 30
0.0
 11
883.9317019242834
 21
-2290.441602833293
 31
0.0
  0
LINE
  5
2CDD5
330
18
100
AcDbEntity
  8
破線
 48
0.03
100
AcDbLine
 10
895.9317019242833
 20
-2290.691602833294
 30
0.0
 11
885.9317019242833
 21
-2290.691602833294
 31
0.0
  0
LINE
  5
2CDD6
330
18
100
AcDbEntity
  8
破線
 48
0.03
100
AcDbLine
 10
895.9317019242833
 20
-2290.441602833293
 30
0.0
 11
883.9317019242834
 21
-2290.441602833293
 31
0.0
  0
LINE
  5
2CDD7
330
18
100
AcDbEntity
  8
破線
 48
0.03
100
AcDbLine
 10
885.9317019242833
 20
-2290.691602833294
 30
0.0
 11
885.498689222385
 21
-2290.441602833293
 31
0.0
  0
LINE
  5
2CDD8
330
18
100
AcDbEntity
  8
中心線
 48
0.5
100
AcDbLine
 10
900.931701924283
 20
-2264.691602833293
 30
0.0
 11
876.931701924283
 21
-2264.691602833293
 31
0.0
  0
LINE
  5
2CDD9
330
18
100
AcDbEntity
  8
破線
 48
0.03
100
AcDbLine
 10
895.9317019242833
 20
-2262.941602833294
 30
0.0
 11
883.9317019242834
 21
-2262.941602833294
 31
0.0
  0
LINE
  5
2CDDA
330
18
100
AcDbEntity
  8
破線
 48
0.03
100
AcDbLine
 10
895.9317019242833
 20
-2262.691602833294
 30
0.0
 11
885.9317019242833
 21
-2262.691602833294
 31
0.0
  0
LINE
  5
2CDDB
330
18
100
AcDbEntity
  8
破線
 48
0.03
100
AcDbLine
 10
882.9213389531968
 20
-2264.691602833293
 30
0.0
 11
883.9317019242834
 21
-2262.941602833294
 31
0.0
  0
LINE
  5
2CDDC
330
18
100
AcDbEntity
  8
破線
 48
0.03
100
AcDbLine
 10
883.9317019242834
 20
-2266.441602833293
 30
0.0
 11
883.9317019242834
 21
-2262.941602833294
 31
0.0
  0
LINE
  5
2CDDD
330
18
100
AcDbEntity
  8
破線
 48
0.03
100
AcDbLine
 10
885.9317019242833
 20
-2262.691602833294
 30
0.0
 11
885.498689222385
 21
-2262.941602833294
 31
0.0
  0
LINE
  5
2CDDE
330
18
100
AcDbEntity
  8
破線
 48
0.03
100
AcDbLine
 10
885.9317019242833
 20
-2266.691602833294
 30
0.0
 11
885.9317019242833
 21
-2262.691602833294
 31
0.0
  0
LINE
  5
2CDDF
330
18
100
AcDbEntity
  8
破線
 48
0.03
100
AcDbLine
 10
882.9213389531968
 20
-2264.691602833293
 30
0.0
 11
883.9317019242834
 21
-2266.441602833293
 31
0.0
  0
LINE
  5
2CDE0
330
18
100
AcDbEntity
  8
破線
 48
0.03
100
AcDbLine
 10
895.9317019242833
 20
-2266.691602833294
 30
0.0
 11
885.9317019242833
 21
-2266.691602833294
 31
0.0
  0
LINE
  5
2CDE1
330
18
100
AcDbEntity
  8
破線
 48
0.03
100
AcDbLine
 10
895.9317019242833
 20
-2266.441602833293
 30
0.0
 11
883.9317019242834
 21
-2266.441602833293
 31
0.0
  0
LINE
  5
2CDE2
330
18
100
AcDbEntity
  8
破線
 48
0.03
100
AcDbLine
 10
885.9317019242833
 20
-2266.691602833294
 30
0.0
 11
885.498689222385
 21
-2266.441602833293
 31
0.0
  0
LINE
  5
2CF39
330
18
100
AcDbEntity
  8
中心線
 48
0.5
100
AcDbLine
 10
1197.249043325116
 20
-2265.691602833294
 30
0.0
 11
1139.249043325116
 21
-2265.691602833294
 31
0.0
  0
LWPOLYLINE
  5
2CF3A
330
18
100
AcDbEntity
  8
実線
100
AcDbPolyline
 90
        4
 70
     1
 43
0.0
 10
1161.249043325116
 20
-2290.691602833294
 10
1161.249043325116
 20
-2240.691602833294
 10
1187.249043325116
 20
-2240.691602833294
 10
1187.249043325116
 20
-2290.691602833294
  0
LINE
  5
2CF3B
330
18
100
AcDbEntity
  8
実線
100
AcDbLine
 10
1161.249043325116
 20
-2299.691602833294
 30
0.0
 11
1173.249043325116
 21
-2299.691602833294
 31
0.0
  0
LINE
  5
2CF3C
330
18
100
AcDbEntity
  8
実線
100
AcDbLine
 10
1147.249043325116
 20
-2305.691602833294
 30
0.0
 11
1173.249043325115
 21
-2305.691602833294
 31
0.0
  0
LINE
  5
2CF3D
330
18
100
AcDbEntity
  8
実線
100
AcDbLine
 10
1147.249043325116
 20
-2225.691602833293
 30
0.0
 11
1173.249043325115
 21
-2225.691602833293
 31
0.0
  0
LINE
  5
2CF3E
330
18
100
AcDbEntity
  8
実線
100
AcDbLine
 10
1161.249043325116
 20
-2231.691602833293
 30
0.0
 11
1173.249043325116
 21
-2231.691602833293
 31
0.0
  0
LINE
  5
2CF3F
102
{ACAD_REACTORS
330
2CF41
102
}
330
18
100
AcDbEntity
  8
中心線
 48
0.5
100
AcDbLine
 10
1184.749043325116
 20
-2299.691602833294
 30
0.0
 11
1170.749043325116
 21
-2299.691602833294
 31
0.0
  0
CIRCLE
  5
2CF40
102
{ACAD_REACTORS
330
2CF41
102
}
330
18
100
AcDbEntity
  8
実線
 48
0.2
100
AcDbCircle
 10
1177.749043325116
 20
-2299.691602833294
 30
0.0
 40
4.5
  0
HATCH
  5
2CF41
330
18
100
AcDbEntity
  8
細線
100
AcDbHatch
 10
0.0
 20
0.0
 30
0.0
210
0.0
220
0.0
230
1.0
  2
ANSI31
 70
     0
 71
     1
 91
        2
 92
        7
 72
     1
 73
     1
 93
        3
 10
1182.249043325116
 20
-2299.691602833294
 42
0.4142135623730961
 10
1177.749043325116
 20
-2295.191602833294
 42
0.0
 10
1177.749043325116
 20
-2299.691602833294
 42
0.0
 97
        3
330
2CF40
330
2CF6E
330
2CF3F
 92
        7
 72
     1
 73
     1
 93
        3
 10
1177.749043325116
 20
-2304.191602833294
 42
0.0
 10
1177.749043325116
 20
-2299.691602833294
 42
0.0
 10
1173.249043325117
 20
-2299.691602833294
 42
0.4142135623731675
 97
        3
330
2CF6E
330
2CF3F
330
2CF40
 75
     0
 76
     1
 52
0.0
 41
5.0
 77
     0
 78
     1
 53
45.0
 43
294.8269168664205
 44
-5.241745667821305
 45
-0.4419417382415922
 46
0.4419417382415923
 79
     0
 47
0.0648433176565354
 98
        2
 10
1180.630994271363
 20
-2298.220571519687
 10
1176.414254466976
 20
-2301.397894195674
  0
CIRCLE
  5
2CF43
330
18
100
AcDbEntity
  8
実線
100
AcDbCircle
 10
1154.749043325116
 20
-2235.691602833294
 30
0.0
 40
4.75
  0
CIRCLE
  5
2CF44
330
18
100
AcDbEntity
  8
細線
  6
Continuous
100
AcDbCircle
 10
1154.749043325116
 20
-2235.691602833294
 30
0.0
 40
4.25
  0
CIRCLE
  5
2CF45
330
18
100
AcDbEntity
  8
細線
  6
Continuous
100
AcDbCircle
 10
1154.749043325116
 20
-2235.691602833294
 30
0.0
 40
3.749999999999991
  0
LWPOLYLINE
  5
2CF46
330
18
100
AcDbEntity
  8
実線
100
AcDbPolyline
 90
        4
 70
     1
 43
0.0
 10
1149.249043325116
 20
-2229.691602833293
 10
1161.249043325116
 20
-2229.691602833293
 10
1161.249043325116
 20
-2301.691602833294
 10
1149.249043325116
 20
-2301.691602833294
  0
LINE
  5
2CF47
330
18
100
AcDbEntity
  8
実線
100
AcDbLine
 10
1147.249043325116
 20
-2225.691602833293
 30
0.0
 11
1147.249043325116
 21
-2243.691602833293
 31
0.0
  0
LINE
  5
2CF4E
330
18
100
AcDbEntity
  8
中心線
 48
0.5
100
AcDbLine
 10
1142.249043325116
 20
-2233.191602833293
 30
0.0
 11
1157.249043325116
 21
-2233.191602833293
 31
0.0
  0
LINE
  5
2CF4F
330
18
100
AcDbEntity
  8
中心線
 48
0.5
100
AcDbLine
 10
1142.249043325116
 20
-2298.191602833293
 30
0.0
 11
1157.249043325116
 21
-2298.191602833293
 31
0.0
  0
LINE
  5
2CF52
330
18
100
AcDbEntity
  8
中心線
 48
0.5
100
AcDbLine
 10
1155.249043325116
 20
-2292.457602233294
 30
0.0
 11
1155.249043325116
 21
-2260.925603433293
 31
0.0
  0
LINE
  5
2CF53
330
18
100
AcDbEntity
  8
実線
100
AcDbLine
 10
1147.649043325116
 20
-2243.691602833293
 30
0.0
 11
1147.649043325116
 21
-2287.691602833294
 31
0.0
  0
CIRCLE
  5
2CF54
330
18
100
AcDbEntity
  8
細線
 48
2.0
100
AcDbCircle
 10
1155.249043325116
 20
-2288.691602833293
 30
0.0
 40
2.0
  0
CIRCLE
  5
2CF55
330
18
100
AcDbEntity
  8
実線
100
AcDbCircle
 10
1155.249043325116
 20
-2288.691602833293
 30
0.0
 40
1.75
  0
LINE
  5
2CF56
330
18
100
AcDbEntity
  8
細線
  6
Continuous
100
AcDbLine
 10
1154.749043325116
 20
-2293.382201333293
 30
0.0
 11
1156.749043325116
 21
-2294.536902233293
 31
0.0
  0
LINE
  5
2CF57
330
18
100
AcDbEntity
  8
細線
  6
Continuous
100
AcDbLine
 10
1156.749043325116
 20
-2296.846303433293
 30
0.0
 11
1154.749043325116
 21
-2298.001004333294
 31
0.0
  0
CIRCLE
  5
2CF58
330
18
100
AcDbEntity
  8
実線
100
AcDbCircle
 10
1154.749043325116
 20
-2295.691602833294
 30
0.0
 40
4.75
  0
LINE
  5
2CF59
330
18
100
AcDbEntity
  8
中心線
 48
0.2
100
AcDbLine
 10
1151.483043325117
 20
-2288.691602833293
 30
0.0
 11
1159.015042725117
 21
-2288.691602833293
 31
0.0
  0
CIRCLE
  5
2CF5A
330
18
100
AcDbEntity
  8
細線
  6
Continuous
100
AcDbCircle
 10
1154.749043325116
 20
-2295.691602833294
 30
0.0
 40
4.25
  0
CIRCLE
  5
2CF5B
330
18
100
AcDbEntity
  8
細線
  6
Continuous
100
AcDbCircle
 10
1154.749043325116
 20
-2295.691602833294
 30
0.0
 40
3.749999999999991
  0
LINE
  5
2CF5C
330
18
100
AcDbEntity
  8
細線
  6
Continuous
100
AcDbLine
 10
1154.749043325116
 20
-2293.382201833293
 30
0.0
 11
1152.749042325108
 21
-2294.536902633293
 31
0.0
  0
LINE
  5
2CF5D
330
18
100
AcDbEntity
  8
細線
  6
Continuous
100
AcDbLine
 10
1154.749043325116
 20
-2298.001003833294
 30
0.0
 11
1152.749042325108
 21
-2296.846303033293
 31
0.0
  0
LINE
  5
2CF5E
330
18
100
AcDbEntity
  8
細線
  6
Continuous
100
AcDbLine
 10
1152.749043325116
 20
-2294.536902333292
 30
0.0
 11
1152.749043325116
 21
-2296.846303333293
 31
0.0
  0
LINE
  5
2CF5F
330
18
100
AcDbEntity
  8
実線
100
AcDbLine
 10
1147.249043325116
 20
-2287.691602833294
 30
0.0
 11
1149.249043325116
 21
-2287.691602833294
 31
0.0
  0
LINE
  5
2CF60
330
18
100
AcDbEntity
  8
実線
100
AcDbLine
 10
1147.249043325116
 20
-2305.691602833294
 30
0.0
 11
1147.249043325116
 21
-2287.691602833294
 31
0.0
  0
LINE
  5
2CF61
330
18
100
AcDbEntity
  8
細線
  6
Continuous
100
AcDbLine
 10
1156.749043325116
 20
-2294.536902333292
 30
0.0
 11
1156.749043325116
 21
-2296.846303333293
 31
0.0
  0
LINE
  5
2CF62
330
18
100
AcDbEntity
  8
細線
  6
Continuous
100
AcDbLine
 10
1156.749043325116
 20
-2236.846303433294
 30
0.0
 11
1154.749043325116
 21
-2238.001004333294
 31
0.0
  0
LINE
  5
2CF63
330
18
100
AcDbEntity
  8
細線
  6
Continuous
100
AcDbLine
 10
1154.749043325116
 20
-2233.382201333293
 30
0.0
 11
1156.749043325116
 21
-2234.536902233294
 31
0.0
  0
CIRCLE
  5
2CF64
330
18
100
AcDbEntity
  8
実線
100
AcDbCircle
 10
1155.249043325116
 20
-2264.691602833293
 30
0.0
 40
1.75
  0
CIRCLE
  5
2CF65
330
18
100
AcDbEntity
  8
細線
 48
2.0
100
AcDbCircle
 10
1155.249043325116
 20
-2264.691602833293
 30
0.0
 40
2.0
  0
LINE
  5
2CF66
330
18
100
AcDbEntity
  8
中心線
 48
0.2
100
AcDbLine
 10
1151.483043325117
 20
-2264.691602833293
 30
0.0
 11
1159.015042725117
 21
-2264.691602833293
 31
0.0
  0
LINE
  5
2CF67
330
18
100
AcDbEntity
  8
細線
  6
Continuous
100
AcDbLine
 10
1154.749043325116
 20
-2233.382201833293
 30
0.0
 11
1152.749042325108
 21
-2234.536902633293
 31
0.0
  0
LINE
  5
2CF68
330
18
100
AcDbEntity
  8
細線
  6
Continuous
100
AcDbLine
 10
1154.749043325116
 20
-2238.001003833294
 30
0.0
 11
1152.749042325108
 21
-2236.846303033292
 31
0.0
  0
LINE
  5
2CF69
330
18
100
AcDbEntity
  8
細線
  6
Continuous
100
AcDbLine
 10
1152.749043325116
 20
-2234.536902333292
 30
0.0
 11
1152.749043325116
 21
-2236.846303333293
 31
0.0
  0
LINE
  5
2CF6A
330
18
100
AcDbEntity
  8
実線
100
AcDbLine
 10
1147.249043325116
 20
-2243.691602833293
 30
0.0
 11
1149.249043325116
 21
-2243.691602833293
 31
0.0
  0
LINE
  5
2CF6B
330
18
100
AcDbEntity
  8
細線
  6
Continuous
100
AcDbLine
 10
1156.749043325116
 20
-2234.536902333292
 30
0.0
 11
1156.749043325116
 21
-2236.846303333293
 31
0.0
  0
LINE
  5
2CF6C
330
18
100
AcDbEntity
  8
実線
100
AcDbLine
 10
1187.249043325116
 20
-2240.691602833294
 30
0.0
 11
1187.249043325116
 21
-2225.691602833293
 31
0.0
  0
LINE
  5
2CF6D
330
18
100
AcDbEntity
  8
実線
100
AcDbLine
 10
1173.249043325116
 20
-2305.691602833294
 30
0.0
 11
1187.249043325116
 21
-2305.691602833294
 31
0.0
  0
LINE
  5
2CF6E
102
{ACAD_REACTORS
330
2CF41
102
}
330
18
100
AcDbEntity
  8
中心線
 48
0.5
100
AcDbLine
 10
1177.749043325116
 20
-2292.691602833294
 30
0.0
 11
1177.749043325116
 21
-2306.691602833294
 31
0.0
  0
LINE
  5
2CF6F
330
18
100
AcDbEntity
  8
実線
100
AcDbLine
 10
1173.249043325116
 20
-2305.691602833294
 30
0.0
 11
1173.249043325117
 21
-2299.691602833294
 31
0.0
  0
LINE
  5
2CF70
330
18
100
AcDbEntity
  8
実線
100
AcDbLine
 10
1187.249043325116
 20
-2290.691602833294
 30
0.0
 11
1187.249043325116
 21
-2305.691602833294
 31
0.0
  0
LINE
  5
2CF71
330
18
100
AcDbEntity
  8
実線
100
AcDbLine
 10
1173.249043325116
 20
-2225.691602833293
 30
0.0
 11
1187.249043325116
 21
-2225.691602833293
 31
0.0
  0
LINE
  5
2CF72
330
18
100
AcDbEntity
  8
実線
100
AcDbLine
 10
1173.249043325116
 20
-2225.691602833293
 30
0.0
 11
1173.249043325117
 21
-2231.691602833293
 31
0.0
  0
LINE
  5
2CFF9
330
18
100
AcDbEntity
  8
中心線
100
AcDbLine
 10
904.3774797554522
 20
-2265.691602833294
 30
0.0
 11
375.6793583909383
 21
-2265.691602833294
 31
0.0
  0
LINE
  5
2D7D4
330
18
100
AcDbEntity
  8
破線
 48
0.03
100
AcDbLine
 10
415.8317019242827
 20
-2522.924134915541
 30
0.0
 11
420.0317019242834
 21
-2522.924134915541
 31
0.0
  0
LINE
  5
2D7D5
330
18
100
AcDbEntity
  8
破線
 48
0.03
100
AcDbLine
 10
420.4317019242812
 20
-2519.924134915541
 30
0.0
 11
415.431701924283
 21
-2519.924134915541
 31
0.0
  0
LINE
  5
2D7D6
330
18
100
AcDbEntity
  8
破線
 48
0.03
100
AcDbLine
 10
420.431701924283
 20
-2519.924134915541
 30
0.0
 11
420.0317019242834
 21
-2520.616955238576
 31
0.0
  0
LINE
  5
2D7D7
330
18
100
AcDbEntity
  8
破線
 48
0.03
100
AcDbLine
 10
420.0317019242834
 20
-2509.924134915541
 30
0.0
 11
420.0317019242834
 21
-2522.924134915541
 31
0.0
  0
LINE
  5
2D7D8
330
18
100
AcDbEntity
  8
破線
 48
0.03
100
AcDbLine
 10
420.431701924283
 20
-2509.924134915541
 30
0.0
 11
420.431701924283
 21
-2519.924134915541
 31
0.0
  0
LINE
  5
2D7D9
330
18
100
AcDbEntity
  8
破線
 48
0.03
100
AcDbLine
 10
415.431701924283
 20
-2519.924134915541
 30
0.0
 11
415.8317019242827
 21
-2520.616955238576
 31
0.0
  0
LINE
  5
2D7DA
330
18
100
AcDbEntity
  8
破線
 48
0.03
100
AcDbLine
 10
415.8317019242827
 20
-2509.924134915541
 30
0.0
 11
415.8317019242827
 21
-2522.924134915541
 31
0.0
  0
LINE
  5
2D7DB
330
18
100
AcDbEntity
  8
中心線
 48
0.5
100
AcDbLine
 10
417.931701924283
 20
-2507.900395295173
 30
0.0
 11
417.931701924283
 21
-2525.722018716317
 31
0.0
  0
LINE
  5
2D7DC
330
18
100
AcDbEntity
  8
破線
 48
0.03
100
AcDbLine
 10
415.431701924283
 20
-2509.924134915541
 30
0.0
 11
415.431701924283
 21
-2519.924134915541
 31
0.0
  0
LINE
  5
2D7DD
330
18
100
AcDbEntity
  8
破線
 48
0.03
100
AcDbLine
 10
420.431701924283
 20
-2509.924134915541
 30
0.0
 11
415.431701924283
 21
-2509.924134915541
 31
0.0
  0
LINE
  5
2D7DE
330
18
100
AcDbEntity
  8
破線
 48
0.03
100
AcDbLine
 10
417.931701924283
 20
-2524.136570480848
 30
0.0
 11
420.0317019242834
 21
-2522.924134915541
 31
0.0
  0
LINE
  5
2D7DF
330
18
100
AcDbEntity
  8
破線
 48
0.03
100
AcDbLine
 10
417.931701924283
 20
-2524.136570480848
 30
0.0
 11
415.8317019242827
 21
-2522.924134915541
 31
0.0
  0
LINE
  5
2D7E0
330
18
100
AcDbEntity
  8
破線
 48
0.03
100
AcDbLine
 10
479.8317019242826
 20
-2522.924134915541
 30
0.0
 11
484.0317019242834
 21
-2522.924134915541
 31
0.0
  0
LINE
  5
2D7E1
330
18
100
AcDbEntity
  8
破線
 48
0.03
100
AcDbLine
 10
484.4317019242812
 20
-2519.924134915541
 30
0.0
 11
479.431701924283
 21
-2519.924134915541
 31
0.0
  0
LINE
  5
2D7E2
330
18
100
AcDbEntity
  8
破線
 48
0.03
100
AcDbLine
 10
484.431701924283
 20
-2519.924134915541
 30
0.0
 11
484.0317019242834
 21
-2520.616955238576
 31
0.0
  0
LINE
  5
2D7E3
330
18
100
AcDbEntity
  8
破線
 48
0.03
100
AcDbLine
 10
484.0317019242834
 20
-2509.924134915541
 30
0.0
 11
484.0317019242834
 21
-2522.924134915541
 31
0.0
  0
LINE
  5
2D7E4
330
18
100
AcDbEntity
  8
破線
 48
0.03
100
AcDbLine
 10
484.431701924283
 20
-2509.924134915541
 30
0.0
 11
484.431701924283
 21
-2519.924134915541
 31
0.0
  0
LINE
  5
2D7E5
330
18
100
AcDbEntity
  8
破線
 48
0.03
100
AcDbLine
 10
479.431701924283
 20
-2519.924134915541
 30
0.0
 11
479.8317019242826
 21
-2520.616955238576
 31
0.0
  0
LINE
  5
2D7E6
330
18
100
AcDbEntity
  8
破線
 48
0.03
100
AcDbLine
 10
479.8317019242826
 20
-2509.924134915541
 30
0.0
 11
479.8317019242826
 21
-2522.924134915541
 31
0.0
  0
LINE
  5
2D7E7
330
18
100
AcDbEntity
  8
中心線
 48
0.5
100
AcDbLine
 10
481.931701924283
 20
-2507.900395295173
 30
0.0
 11
481.931701924283
 21
-2525.722018716317
 31
0.0
  0
LINE
  5
2D7E8
330
18
100
AcDbEntity
  8
破線
 48
0.03
100
AcDbLine
 10
479.431701924283
 20
-2509.924134915541
 30
0.0
 11
479.431701924283
 21
-2519.924134915541
 31
0.0
  0
LINE
  5
2D7E9
330
18
100
AcDbEntity
  8
破線
 48
0.03
100
AcDbLine
 10
484.431701924283
 20
-2509.924134915541
 30
0.0
 11
479.431701924283
 21
-2509.924134915541
 31
0.0
  0
LINE
  5
2D7EA
330
18
100
AcDbEntity
  8
破線
 48
0.03
100
AcDbLine
 10
481.931701924283
 20
-2524.136570480848
 30
0.0
 11
484.0317019242834
 21
-2522.924134915541
 31
0.0
  0
LINE
  5
2D7EB
330
18
100
AcDbEntity
  8
破線
 48
0.03
100
AcDbLine
 10
481.931701924283
 20
-2524.136570480848
 30
0.0
 11
479.8317019242826
 21
-2522.924134915541
 31
0.0
  0
LINE
  5
2D7EC
330
18
100
AcDbEntity
  8
破線
 48
0.03
100
AcDbLine
 10
543.8317019242827
 20
-2522.924134915541
 30
0.0
 11
548.0317019242834
 21
-2522.924134915541
 31
0.0
  0
LINE
  5
2D7ED
330
18
100
AcDbEntity
  8
破線
 48
0.03
100
AcDbLine
 10
548.4317019242812
 20
-2519.924134915541
 30
0.0
 11
543.431701924283
 21
-2519.924134915541
 31
0.0
  0
LINE
  5
2D7EE
330
18
100
AcDbEntity
  8
破線
 48
0.03
100
AcDbLine
 10
548.431701924283
 20
-2519.924134915541
 30
0.0
 11
548.0317019242834
 21
-2520.616955238576
 31
0.0
  0
LINE
  5
2D7EF
330
18
100
AcDbEntity
  8
破線
 48
0.03
100
AcDbLine
 10
548.0317019242834
 20
-2509.924134915541
 30
0.0
 11
548.0317019242834
 21
-2522.924134915541
 31
0.0
  0
LINE
  5
2D7F0
330
18
100
AcDbEntity
  8
破線
 48
0.03
100
AcDbLine
 10
548.431701924283
 20
-2509.924134915541
 30
0.0
 11
548.431701924283
 21
-2519.924134915541
 31
0.0
  0
LINE
  5
2D7F1
330
18
100
AcDbEntity
  8
破線
 48
0.03
100
AcDbLine
 10
543.431701924283
 20
-2519.924134915541
 30
0.0
 11
543.8317019242827
 21
-2520.616955238576
 31
0.0
  0
LINE
  5
2D7F2
330
18
100
AcDbEntity
  8
破線
 48
0.03
100
AcDbLine
 10
543.8317019242827
 20
-2509.924134915541
 30
0.0
 11
543.8317019242827
 21
-2522.924134915541
 31
0.0
  0
LINE
  5
2D7F3
330
18
100
AcDbEntity
  8
中心線
 48
0.5
100
AcDbLine
 10
545.931701924283
 20
-2507.900395295173
 30
0.0
 11
545.931701924283
 21
-2525.722018716317
 31
0.0
  0
LINE
  5
2D7F4
330
18
100
AcDbEntity
  8
破線
 48
0.03
100
AcDbLine
 10
543.431701924283
 20
-2509.924134915541
 30
0.0
 11
543.431701924283
 21
-2519.924134915541
 31
0.0
  0
LINE
  5
2D7F5
330
18
100
AcDbEntity
  8
破線
 48
0.03
100
AcDbLine
 10
548.431701924283
 20
-2509.924134915541
 30
0.0
 11
543.431701924283
 21
-2509.924134915541
 31
0.0
  0
LINE
  5
2D7F6
330
18
100
AcDbEntity
  8
破線
 48
0.03
100
AcDbLine
 10
545.931701924283
 20
-2524.136570480848
 30
0.0
 11
548.0317019242834
 21
-2522.924134915541
 31
0.0
  0
LINE
  5
2D7F7
330
18
100
AcDbEntity
  8
破線
 48
0.03
100
AcDbLine
 10
545.931701924283
 20
-2524.136570480848
 30
0.0
 11
543.8317019242827
 21
-2522.924134915541
 31
0.0
  0
LINE
  5
2D7F8
330
18
100
AcDbEntity
  8
破線
 48
0.03
100
AcDbLine
 10
607.8317019242827
 20
-2522.924134915541
 30
0.0
 11
612.0317019242834
 21
-2522.924134915541
 31
0.0
  0
LINE
  5
2D7F9
330
18
100
AcDbEntity
  8
破線
 48
0.03
100
AcDbLine
 10
612.4317019242812
 20
-2519.924134915541
 30
0.0
 11
607.4317019242831
 21
-2519.924134915541
 31
0.0
  0
LINE
  5
2D7FA
330
18
100
AcDbEntity
  8
破線
 48
0.03
100
AcDbLine
 10
612.431701924283
 20
-2519.924134915541
 30
0.0
 11
612.0317019242834
 21
-2520.616955238576
 31
0.0
  0
LINE
  5
2D7FB
330
18
100
AcDbEntity
  8
破線
 48
0.03
100
AcDbLine
 10
612.0317019242834
 20
-2509.924134915541
 30
0.0
 11
612.0317019242834
 21
-2522.924134915541
 31
0.0
  0
LINE
  5
2D7FC
330
18
100
AcDbEntity
  8
破線
 48
0.03
100
AcDbLine
 10
612.431701924283
 20
-2509.924134915541
 30
0.0
 11
612.431701924283
 21
-2519.924134915541
 31
0.0
  0
LINE
  5
2D7FD
330
18
100
AcDbEntity
  8
破線
 48
0.03
100
AcDbLine
 10
607.4317019242831
 20
-2519.924134915541
 30
0.0
 11
607.8317019242827
 21
-2520.616955238576
 31
0.0
  0
LINE
  5
2D7FE
330
18
100
AcDbEntity
  8
破線
 48
0.03
100
AcDbLine
 10
607.8317019242827
 20
-2509.924134915541
 30
0.0
 11
607.8317019242827
 21
-2522.924134915541
 31
0.0
  0
LINE
  5
2D7FF
330
18
100
AcDbEntity
  8
中心線
 48
0.5
100
AcDbLine
 10
609.931701924283
 20
-2507.900395295173
 30
0.0
 11
609.931701924283
 21
-2525.722018716317
 31
0.0
  0
LINE
  5
2D800
330
18
100
AcDbEntity
  8
破線
 48
0.03
100
AcDbLine
 10
607.4317019242831
 20
-2509.924134915541
 30
0.0
 11
607.4317019242831
 21
-2519.924134915541
 31
0.0
  0
LINE
  5
2D801
330
18
100
AcDbEntity
  8
破線
 48
0.03
100
AcDbLine
 10
612.431701924283
 20
-2509.924134915541
 30
0.0
 11
607.4317019242831
 21
-2509.924134915541
 31
0.0
  0
LINE
  5
2D802
330
18
100
AcDbEntity
  8
破線
 48
0.03
100
AcDbLine
 10
609.931701924283
 20
-2524.136570480848
 30
0.0
 11
612.0317019242834
 21
-2522.924134915541
 31
0.0
  0
LINE
  5
2D803
330
18
100
AcDbEntity
  8
破線
 48
0.03
100
AcDbLine
 10
609.931701924283
 20
-2524.136570480848
 30
0.0
 11
607.8317019242827
 21
-2522.924134915541
 31
0.0
  0
LINE
  5
2D804
330
18
100
AcDbEntity
  8
破線
 48
0.03
100
AcDbLine
 10
671.8317019242826
 20
-2522.924134915541
 30
0.0
 11
676.0317019242834
 21
-2522.924134915541
 31
0.0
  0
LINE
  5
2D805
330
18
100
AcDbEntity
  8
破線
 48
0.03
100
AcDbLine
 10
676.4317019242812
 20
-2519.924134915541
 30
0.0
 11
671.431701924283
 21
-2519.924134915541
 31
0.0
  0
LINE
  5
2D806
330
18
100
AcDbEntity
  8
破線
 48
0.03
100
AcDbLine
 10
676.431701924283
 20
-2519.924134915541
 30
0.0
 11
676.0317019242834
 21
-2520.616955238576
 31
0.0
  0
LINE
  5
2D807
330
18
100
AcDbEntity
  8
破線
 48
0.03
100
AcDbLine
 10
676.0317019242834
 20
-2509.924134915541
 30
0.0
 11
676.0317019242834
 21
-2522.924134915541
 31
0.0
  0
LINE
  5
2D808
330
18
100
AcDbEntity
  8
破線
 48
0.03
100
AcDbLine
 10
676.431701924283
 20
-2509.924134915541
 30
0.0
 11
676.431701924283
 21
-2519.924134915541
 31
0.0
  0
LINE
  5
2D809
330
18
100
AcDbEntity
  8
破線
 48
0.03
100
AcDbLine
 10
671.431701924283
 20
-2519.924134915541
 30
0.0
 11
671.8317019242826
 21
-2520.616955238576
 31
0.0
  0
LINE
  5
2D80A
330
18
100
AcDbEntity
  8
破線
 48
0.03
100
AcDbLine
 10
671.8317019242826
 20
-2509.924134915541
 30
0.0
 11
671.8317019242826
 21
-2522.924134915541
 31
0.0
  0
LINE
  5
2D80B
330
18
100
AcDbEntity
  8
中心線
 48
0.5
100
AcDbLine
 10
673.9317019242831
 20
-2507.900395295173
 30
0.0
 11
673.9317019242831
 21
-2525.722018716317
 31
0.0
  0
LINE
  5
2D80C
330
18
100
AcDbEntity
  8
破線
 48
0.03
100
AcDbLine
 10
671.431701924283
 20
-2509.924134915541
 30
0.0
 11
671.431701924283
 21
-2519.924134915541
 31
0.0
  0
LINE
  5
2D80D
330
18
100
AcDbEntity
  8
破線
 48
0.03
100
AcDbLine
 10
676.431701924283
 20
-2509.924134915541
 30
0.0
 11
671.431701924283
 21
-2509.924134915541
 31
0.0
  0
LINE
  5
2D80E
330
18
100
AcDbEntity
  8
破線
 48
0.03
100
AcDbLine
 10
673.9317019242831
 20
-2524.136570480848
 30
0.0
 11
676.0317019242834
 21
-2522.924134915541
 31
0.0
  0
LINE
  5
2D80F
330
18
100
AcDbEntity
  8
破線
 48
0.03
100
AcDbLine
 10
673.9317019242831
 20
-2524.136570480848
 30
0.0
 11
671.8317019242826
 21
-2522.924134915541
 31
0.0
  0
LINE
  5
2D810
330
18
100
AcDbEntity
  8
破線
 48
0.03
100
AcDbLine
 10
735.8317019242827
 20
-2522.924134915541
 30
0.0
 11
740.0317019242834
 21
-2522.924134915541
 31
0.0
  0
LINE
  5
2D811
330
18
100
AcDbEntity
  8
破線
 48
0.03
100
AcDbLine
 10
740.4317019242812
 20
-2519.924134915541
 30
0.0
 11
735.431701924283
 21
-2519.924134915541
 31
0.0
  0
LINE
  5
2D812
330
18
100
AcDbEntity
  8
破線
 48
0.03
100
AcDbLine
 10
740.4317019242831
 20
-2519.924134915541
 30
0.0
 11
740.0317019242834
 21
-2520.616955238576
 31
0.0
  0
LINE
  5
2D813
330
18
100
AcDbEntity
  8
破線
 48
0.03
100
AcDbLine
 10
740.0317019242834
 20
-2509.924134915541
 30
0.0
 11
740.0317019242834
 21
-2522.924134915541
 31
0.0
  0
LINE
  5
2D814
330
18
100
AcDbEntity
  8
破線
 48
0.03
100
AcDbLine
 10
740.4317019242831
 20
-2509.924134915541
 30
0.0
 11
740.4317019242831
 21
-2519.924134915541
 31
0.0
  0
LINE
  5
2D815
330
18
100
AcDbEntity
  8
破線
 48
0.03
100
AcDbLine
 10
735.431701924283
 20
-2519.924134915541
 30
0.0
 11
735.8317019242827
 21
-2520.616955238576
 31
0.0
  0
LINE
  5
2D816
330
18
100
AcDbEntity
  8
破線
 48
0.03
100
AcDbLine
 10
735.8317019242827
 20
-2509.924134915541
 30
0.0
 11
735.8317019242827
 21
-2522.924134915541
 31
0.0
  0
LINE
  5
2D817
330
18
100
AcDbEntity
  8
中心線
 48
0.5
100
AcDbLine
 10
737.931701924283
 20
-2507.900395295173
 30
0.0
 11
737.931701924283
 21
-2525.722018716317
 31
0.0
  0
LINE
  5
2D818
330
18
100
AcDbEntity
  8
破線
 48
0.03
100
AcDbLine
 10
735.431701924283
 20
-2509.924134915541
 30
0.0
 11
735.431701924283
 21
-2519.924134915541
 31
0.0
  0
LINE
  5
2D819
330
18
100
AcDbEntity
  8
破線
 48
0.03
100
AcDbLine
 10
740.4317019242831
 20
-2509.924134915541
 30
0.0
 11
735.431701924283
 21
-2509.924134915541
 31
0.0
  0
LINE
  5
2D81A
330
18
100
AcDbEntity
  8
破線
 48
0.03
100
AcDbLine
 10
737.931701924283
 20
-2524.136570480848
 30
0.0
 11
740.0317019242834
 21
-2522.924134915541
 31
0.0
  0
LINE
  5
2D81B
330
18
100
AcDbEntity
  8
破線
 48
0.03
100
AcDbLine
 10
737.931701924283
 20
-2524.136570480848
 30
0.0
 11
735.8317019242827
 21
-2522.924134915541
 31
0.0
  0
LINE
  5
2D81C
330
18
100
AcDbEntity
  8
破線
 48
0.03
100
AcDbLine
 10
799.8317019242827
 20
-2522.924134915541
 30
0.0
 11
804.0317019242834
 21
-2522.924134915541
 31
0.0
  0
LINE
  5
2D81D
330
18
100
AcDbEntity
  8
破線
 48
0.03
100
AcDbLine
 10
804.4317019242813
 20
-2519.924134915541
 30
0.0
 11
799.4317019242831
 21
-2519.924134915541
 31
0.0
  0
LINE
  5
2D81E
330
18
100
AcDbEntity
  8
破線
 48
0.03
100
AcDbLine
 10
804.431701924283
 20
-2519.924134915541
 30
0.0
 11
804.0317019242834
 21
-2520.616955238576
 31
0.0
  0
LINE
  5
2D81F
330
18
100
AcDbEntity
  8
破線
 48
0.03
100
AcDbLine
 10
804.0317019242834
 20
-2509.924134915541
 30
0.0
 11
804.0317019242834
 21
-2522.924134915541
 31
0.0
  0
LINE
  5
2D820
330
18
100
AcDbEntity
  8
破線
 48
0.03
100
AcDbLine
 10
804.431701924283
 20
-2509.924134915541
 30
0.0
 11
804.431701924283
 21
-2519.924134915541
 31
0.0
  0
LINE
  5
2D821
330
18
100
AcDbEntity
  8
破線
 48
0.03
100
AcDbLine
 10
799.4317019242831
 20
-2519.924134915541
 30
0.0
 11
799.8317019242827
 21
-2520.616955238576
 31
0.0
  0
LINE
  5
2D822
330
18
100
AcDbEntity
  8
破線
 48
0.03
100
AcDbLine
 10
799.8317019242827
 20
-2509.924134915541
 30
0.0
 11
799.8317019242827
 21
-2522.924134915541
 31
0.0
  0
LINE
  5
2D823
330
18
100
AcDbEntity
  8
中心線
 48
0.5
100
AcDbLine
 10
801.931701924283
 20
-2507.900395295173
 30
0.0
 11
801.931701924283
 21
-2525.722018716317
 31
0.0
  0
LINE
  5
2D824
330
18
100
AcDbEntity
  8
破線
 48
0.03
100
AcDbLine
 10
799.4317019242831
 20
-2509.924134915541
 30
0.0
 11
799.4317019242831
 21
-2519.924134915541
 31
0.0
  0
LINE
  5
2D825
330
18
100
AcDbEntity
  8
破線
 48
0.03
100
AcDbLine
 10
804.431701924283
 20
-2509.924134915541
 30
0.0
 11
799.4317019242831
 21
-2509.924134915541
 31
0.0
  0
LINE
  5
2D826
330
18
100
AcDbEntity
  8
破線
 48
0.03
100
AcDbLine
 10
801.931701924283
 20
-2524.136570480848
 30
0.0
 11
804.0317019242834
 21
-2522.924134915541
 31
0.0
  0
LINE
  5
2D827
330
18
100
AcDbEntity
  8
破線
 48
0.03
100
AcDbLine
 10
801.931701924283
 20
-2524.136570480848
 30
0.0
 11
799.8317019242827
 21
-2522.924134915541
 31
0.0
  0
LINE
  5
2D828
330
18
100
AcDbEntity
  8
破線
 48
0.03
100
AcDbLine
 10
863.8317019242826
 20
-2522.924134915541
 30
0.0
 11
868.0317019242833
 21
-2522.924134915541
 31
0.0
  0
LINE
  5
2D829
330
18
100
AcDbEntity
  8
破線
 48
0.03
100
AcDbLine
 10
868.4317019242811
 20
-2519.924134915541
 30
0.0
 11
863.431701924283
 21
-2519.924134915541
 31
0.0
  0
LINE
  5
2D82A
330
18
100
AcDbEntity
  8
破線
 48
0.03
100
AcDbLine
 10
868.4317019242831
 20
-2519.924134915541
 30
0.0
 11
868.0317019242833
 21
-2520.616955238576
 31
0.0
  0
LINE
  5
2D82B
330
18
100
AcDbEntity
  8
破線
 48
0.03
100
AcDbLine
 10
868.0317019242833
 20
-2509.924134915541
 30
0.0
 11
868.0317019242833
 21
-2522.924134915541
 31
0.0
  0
LINE
  5
2D82C
330
18
100
AcDbEntity
  8
破線
 48
0.03
100
AcDbLine
 10
868.4317019242831
 20
-2509.924134915541
 30
0.0
 11
868.4317019242831
 21
-2519.924134915541
 31
0.0
  0
LINE
  5
2D82D
330
18
100
AcDbEntity
  8
破線
 48
0.03
100
AcDbLine
 10
863.431701924283
 20
-2519.924134915541
 30
0.0
 11
863.8317019242826
 21
-2520.616955238576
 31
0.0
  0
LINE
  5
2D82E
330
18
100
AcDbEntity
  8
破線
 48
0.03
100
AcDbLine
 10
863.8317019242826
 20
-2509.924134915541
 30
0.0
 11
863.8317019242826
 21
-2522.924134915541
 31
0.0
  0
LINE
  5
2D82F
330
18
100
AcDbEntity
  8
中心線
 48
0.5
100
AcDbLine
 10
865.9317019242831
 20
-2507.900395295173
 30
0.0
 11
865.9317019242831
 21
-2525.722018716317
 31
0.0
  0
LINE
  5
2D830
330
18
100
AcDbEntity
  8
破線
 48
0.03
100
AcDbLine
 10
863.431701924283
 20
-2509.924134915541
 30
0.0
 11
863.431701924283
 21
-2519.924134915541
 31
0.0
  0
LINE
  5
2D831
330
18
100
AcDbEntity
  8
破線
 48
0.03
100
AcDbLine
 10
868.4317019242831
 20
-2509.924134915541
 30
0.0
 11
863.431701924283
 21
-2509.924134915541
 31
0.0
  0
LINE
  5
2D832
330
18
100
AcDbEntity
  8
破線
 48
0.03
100
AcDbLine
 10
865.9317019242831
 20
-2524.136570480848
 30
0.0
 11
868.0317019242833
 21
-2522.924134915541
 31
0.0
  0
LINE
  5
2D833
330
18
100
AcDbEntity
  8
破線
 48
0.03
100
AcDbLine
 10
865.9317019242831
 20
-2524.136570480848
 30
0.0
 11
863.8317019242826
 21
-2522.924134915541
 31
0.0
  0
LINE
  5
2D834
330
18
100
AcDbEntity
  8
破線
 48
0.03
100
AcDbLine
 10
895.9317019242838
 20
-2516.174134915541
 30
0.0
 11
883.9317019242839
 21
-2516.174134915541
 31
0.0
  0
LINE
  5
2D835
330
18
100
AcDbEntity
  8
破線
 48
0.03
100
AcDbLine
 10
895.9317019242838
 20
-2515.924134915541
 30
0.0
 11
885.9317019242839
 21
-2515.924134915541
 31
0.0
  0
LINE
  5
2D836
330
18
100
AcDbEntity
  8
破線
 48
0.03
100
AcDbLine
 10
882.9213389531972
 20
-2517.924134915541
 30
0.0
 11
883.9317019242839
 21
-2516.174134915541
 31
0.0
  0
LINE
  5
2D837
330
18
100
AcDbEntity
  8
破線
 48
0.03
100
AcDbLine
 10
883.9317019242839
 20
-2519.674134915541
 30
0.0
 11
883.9317019242839
 21
-2516.174134915541
 31
0.0
  0
LINE
  5
2D838
330
18
100
AcDbEntity
  8
破線
 48
0.03
100
AcDbLine
 10
885.9317019242839
 20
-2515.924134915541
 30
0.0
 11
885.4986892223854
 21
-2516.174134915541
 31
0.0
  0
LINE
  5
2D839
330
18
100
AcDbEntity
  8
破線
 48
0.03
100
AcDbLine
 10
885.9317019242839
 20
-2519.924134915541
 30
0.0
 11
885.9317019242839
 21
-2515.924134915541
 31
0.0
  0
LINE
  5
2D83A
330
18
100
AcDbEntity
  8
破線
 48
0.03
100
AcDbLine
 10
882.9213389531972
 20
-2517.924134915541
 30
0.0
 11
883.9317019242839
 21
-2519.674134915541
 31
0.0
  0
LINE
  5
2D83B
330
18
100
AcDbEntity
  8
破線
 48
0.03
100
AcDbLine
 10
895.9317019242838
 20
-2519.924134915541
 30
0.0
 11
885.9317019242839
 21
-2519.924134915541
 31
0.0
  0
LINE
  5
2D83C
330
18
100
AcDbEntity
  8
破線
 48
0.03
100
AcDbLine
 10
895.9317019242838
 20
-2519.674134915541
 30
0.0
 11
883.9317019242839
 21
-2519.674134915541
 31
0.0
  0
LINE
  5
2D83D
330
18
100
AcDbEntity
  8
破線
 48
0.03
100
AcDbLine
 10
885.9317019242839
 20
-2519.924134915541
 30
0.0
 11
885.4986892223854
 21
-2519.674134915541
 31
0.0
  0
LINE
  5
2D83E
330
18
100
AcDbEntity
  8
中心線
 48
0.5
100
AcDbLine
 10
900.9317019242839
 20
-2517.924134915541
 30
0.0
 11
876.9317019242839
 21
-2517.924134915541
 31
0.0
  0
TEXT
  5
2E079
330
18
100
AcDbEntity
  8
細線
  6
Continuous
100
AcDbText
 10
1143.541886035814
 20
-2555.786182485745
 30
0.0
 40
3.2
  1
CLMA750MA
100
AcDbText
  0
TEXT
  5
2E07A
330
18
100
AcDbEntity
  8
細線
100
AcDbText
 10
1138.903267383875
 20
-2566.33542148886
 30
0.0
 40
5.0
  1
外形図_コイルユニット単体
 41
0.9
100
AcDbText
  0
TEXT
  5
2E07B
330
18
100
AcDbEntity
  8
細線
100
AcDbText
 10
1139.016827602052
 20
-2578.08106900253
 30
0.0
 40
6.0
  1
ＳＥ－８７３１０
 41
1.1
100
AcDbText
  0
VIEWPORT
  5
2E080
102
{ACAD_XDICTIONARY
360
2E1CB
102
}
330
2E07C
100
AcDbEntity
 67
     1
  8
0
100
AcDbViewport
 10
8.67707053219771
 20
3.525703868594451
 30
0.0
 40
12.29934212738509
 41
7.884193671400701
 68
     1
 69
     1
 12
8.67707053219771
 22
3.525703868594451
 13
0.0
 23
0.0
 14
0.5
 24
0.5
 15
0.0
 25
0.0
 16
0.0
 26
0.0
 36
1.0
 17
0.0
 27
0.0
 37
0.0
 42
50.0
 43
0.0
 44
0.0
 45
7.884193671400701
 50
0.0
 51
0.0
 72
   100
 90
   557152
  1

281
     0
 71
     1
 74
     0
110
0.0
120
0.0
130
0.0
111
1.0
121
0.0
131
0.0
112
0.0
122
1.0
132
0.0
 79
     0
146
0.0
  0
VIEWPORT
  5
2E081
102
{ACAD_XDICTIONARY
360
2E082
102
}
330
2E07C
100
AcDbEntity
 67
     1
  8
0
100
AcDbViewport
 10
5.25
 20
3.5
 30
0.0
 40
8.4
 41
5.6
 68
     2
 69
     2
 12
739.5388856364438
 22
-2380.546293676631
 13
0.0
 23
0.0
 14
0.5
 24
0.5
 15
0.0
 25
0.0
 16
0.0
 26
0.0
 36
1.0
 17
0.0
 27
0.0
 37
0.0
 42
50.0
 43
0.0
 44
0.0
 45
640.7800607004832
 50
0.0
 51
0.0
 72
   100
341
E
 90
   557152
  1

281
     0
 71
     1
 74
     0
110
0.0
120
0.0
130
0.0
111
1.0
121
0.0
131
0.0
112
0.0
122
1.0
132
0.0
 79
     0
146
0.0
  0
ENDSEC
  0
SECTION
  2
OBJECTS
  0
DICTIONARY
  5
C
330
0
100
AcDbDictionary
281
     1
  3
ACAD_2007HEADERVARS_RT
350
2E190
  3
ACAD_CIP_PREVIOUS_PRODUCT_INFO
350
2E0D0
  3
ACAD_COLOR
350
2E0C0
  3
ACAD_DETAILVIEWSTYLE
350
28920
  3
ACAD_GROUP
350
D
  3
ACAD_IMAGE_VARS
350
283ED
  3
ACAD_LAYOUT
350
DB2
  3
ACAD_MATERIAL
350
2E035
  3
ACAD_MLEADERSTYLE
350
2E03B
  3
ACAD_MLINESTYLE
350
1B
  3
ACAD_PLOTSETTINGS
350
DB3
  3
ACAD_PLOTSTYLENAME
350
FB5B
  3
ACAD_SCALELIST
350
283C1
  3
ACAD_SECTIONVIEWSTYLE
350
28921
  3
ACAD_TABLESTYLE
350
2E039
  3
ACAD_VISUALSTYLE
350
2E01C
  3
AcadDim
350
264CA
  3
ACDB_RECOMPOSE_DATA
350
2E18E
  3
AcDbVariableDictionary
350
106A6
  3
APPDATA
350
283EB
  3
ASE_INDEX_DICTIONARY
350
1A99F
  3
DWGPROPS
350
2E18F
  3
FX_DICT_DIMENSION_PALETTE
350
28918
  3
FX_DICT_DIMENSION_PALETTE_RECENTLIST
350
28919
  0
DICTIONARY
  5
2E0E0
330
8
100
AcDbDictionary
280
     1
281
     1
  0
DICTIONARY
  5
254EC
330
2
100
AcDbDictionary
280
     1
281
     1
  3
ACAD_LAYERSTATES
360
254F9
  3
ACLYDICTIONARY
360
2E0AA
  0
DICTIONARY
  5
2B969
330
2B968
100
AcDbDictionary
280
     1
281
     1
  3
ADSK_XREC_LAYER_RECONCILED
360
2B96A
  0
DICTIONARY
  5
2B7B2
330
18
100
AcDbDictionary
280
     1
281
     1
  3
ACAD_SORTENTS
360
2B7B3
  0
DICTIONARY
  5
2E1CB
330
2E080
100
AcDbDictionary
280
     1
281
     1
  3
ACAD_XREC_ROUNDTRIP
360
2E1CC
  0
DICTIONARY
  5
2E082
330
2E081
100
AcDbDictionary
280
     1
281
     1
  3
ACAD_XREC_ROUNDTRIP
360
2E1CD
  3
ASDK_XREC_ANNOTATION_SCALE_INFO
360
2E083
  0
DICTIONARY
  5
2E190
102
{ACAD_REACTORS
330
C
102
}
330
C
100
AcDbDictionary
281
     1
  3
INTERFERECOLOR
350
2E191
  0
XRECORD
  5
2E0D0
102
{ACAD_REACTORS
330
C
102
}
330
C
100
AcDbXrecord
280
     1
300
ACDLT
300
2019
300
87085ACDLT_2019_0F
  0
DICTIONARY
  5
2E0C0
102
{ACAD_REACTORS
330
C
102
}
330
C
100
AcDbDictionary
281
     1
  0
DICTIONARY
  5
28920
102
{ACAD_REACTORS
330
C
102
}
330
C
100
AcDbDictionary
281
     1
  3
Imperial24
350
2E0C2
  0
DICTIONARY
  5
D
102
{ACAD_REACTORS
330
C
102
}
330
C
100
AcDbDictionary
281
     1
  0
RASTERVARIABLES
  5
283ED
102
{ACAD_REACTORS
330
C
102
}
330
C
100
AcDbRasterVariables
 90
        0
 70
     1
 71
     1
 72
     0
  0
DICTIONARY
  5
DB2
102
{ACAD_REACTORS
330
C
102
}
330
C
100
AcDbDictionary
281
     1
  3
Model
350
FB5D
  3
Sheet1
350
2E07D
  0
DICTIONARY
  5
2E035
102
{ACAD_REACTORS
330
C
102
}
330
C
100
AcDbDictionary
281
     1
  3
ByBlock
350
2E0B8
  3
ByLayer
350
2E036
  3
Global
350
2E038
  0
DICTIONARY
  5
2E03B
102
{ACAD_REACTORS
330
C
102
}
330
C
100
AcDbDictionary
281
     1
  3
Standard
350
2E03C
  0
DICTIONARY
  5
1B
102
{ACAD_REACTORS
330
C
102
}
330
C
100
AcDbDictionary
281
     1
  3
STANDARD
350
1C
  0
DICTIONARY
  5
DB3
102
{ACAD_REACTORS
330
C
102
}
330
C
100
AcDbDictionary
281
     1
  0
ACDBDICTIONARYWDFLT
  5
FB5B
102
{ACAD_REACTORS
330
C
102
}
330
C
100
AcDbDictionary
281
     1
  3
Normal
350
FB5C
100
AcDbDictionaryWithDefault
340
FB5C
  0
DICTIONARY
  5
283C1
102
{ACAD_REACTORS
330
C
102
}
330
C
100
AcDbDictionary
281
     1
  3
A0
350
283C2
  3
A1
350
283C3
  3
A2
350
283C4
  3
A3
350
283C5
  3
A4
350
283C6
  3
A5
350
283C7
  3
A6
350
283C8
  3
A7
350
283C9
  3
A8
350
283CA
  3
A9
350
283CB
  3
B0
350
283CC
  3
B1
350
283CD
  3
B2
350
283CE
  3
B3
350
283CF
  3
B4
350
283D0
  3
B5
350
283D1
  3
B6
350
283D2
  3
B7
350
283D3
  3
B8
350
283D4
  3
B9
350
283D5
  3
C0
350
283D6
  3
C1
350
283D7
  3
C2
350
283D8
  3
C3
350
283D9
  3
C4
350
283DA
  3
C5
350
283DB
  3
C6
350
283DC
  3
C7
350
283DD
  3
C8
350
283DE
  3
C9
350
283DF
  3
D0
350
283E0
  3
D1
350
283E1
  3
D2
350
283E2
  0
DICTIONARY
  5
28921
102
{ACAD_REACTORS
330
C
102
}
330
C
100
AcDbDictionary
281
     1
  3
Imperial24
350
2E0C1
  0
DICTIONARY
  5
2E039
102
{ACAD_REACTORS
330
C
102
}
330
C
100
AcDbDictionary
281
     1
  3
Standard
350
2E03A
  0
DICTIONARY
  5
2E01C
102
{ACAD_REACTORS
330
C
102
}
330
C
100
AcDbDictionary
281
     1
  3
2dWireframe
350
2E021
  3
Basic
350
2E024
  3
Brighten
350
2E028
  3
ColorChange
350
2E02C
  3
Conceptual
350
2E026
  3
Dim
350
2E027
  3
EdgeColorOff
350
2E02F
  3
Facepattern
350
2E02B
  3
Flat
350
2E01D
  3
FlatWithEdges
350
2E01E
  3
Gouraud
350
2E01F
  3
GouraudWithEdges
350
2E020
  3
Hidden
350
2E023
  3
JitterOff
350
2E02D
  3
Linepattern
350
2E02A
  3
OverhangOff
350
2E02E
  3
Realistic
350
2E025
  3
Shaded
350
2E034
  3
Shaded with edges
350
2E033
  3
Shades of Gray
350
2E030
  3
Sketchy
350
2E031
  3
Thicken
350
2E029
  3
Wireframe
350
2E022
  3
X-Ray
350
2E032
  0
XRECORD
  5
264CA
102
{ACAD_REACTORS
330
C
102
}
330
C
100
AcDbXrecord
280
     1
 90
   990106
  3

 60
     0
 61
     0
 62
     4
 63
     4
 64
     1
 65
     0
 66
     0
 67
     3
 68
     1
 69
     0
 70
     0
 71
     0
 72
     0
 40
0.0
170
     2
340
0
  0
XRECORD
  5
2E18E
102
{ACAD_REACTORS
330
C
102
}
330
C
100
AcDbXrecord
280
     1
 90
        1
330
2E03A
  0
DICTIONARY
  5
106A6
102
{ACAD_REACTORS
330
C
102
}
330
C
100
AcDbDictionary
281
     1
  3
CANNOSCALE
350
2E03E
  3
CMLEADERSTYLE
350
2E040
  3
CTABLESTYLE
350
2E03F
  3
CVIEWDETAILSTYLE
350
2E124
  3
CVIEWSECTIONSTYLE
350
2E125
  3
DGNFRAME
350
2E12C
  3
DIMASSOC
350
2E12B
  3
HIDETEXT
350
2E12A
  3
INDEXCTL
350
2E129
  3
LAYEREVAL
350
2E127
  3
LAYERNOTIFY
350
2E128
  3
LIGHTINGUNITS
350
2E126
  3
MSLTSCALE
350
2E041
  3
SORTENTS
350
106A7
  3
XCLIPFRAME
350
2E18C
  0
DICTIONARY
  5
283EB
102
{ACAD_REACTORS
330
C
102
}
330
C
100
AcDbDictionary
281
     1
  0
DICTIONARY
  5
1A99F
102
{ACAD_REACTORS
330
C
102
}
330
C
100
AcDbDictionary
281
     1
  3
ASEBlockHierarchyIndexRecord
350
1A9A1
1001
DCO15
1040
1464612067.17
  0
XRECORD
  5
2E18F
102
{ACAD_REACTORS
330
C
102
}
330
C
100
AcDbXrecord
280
     1
  1
DWGPROPS COOKIE
  2

  3

  4

  6

  7

  8
NI0949
  9

300
=
301
=
302
=
303
=
304
=
305
=
306
=
307
=
308
=
309
=
 40
0.0782690972222222
 41
2451224.660162037
 42
2458549.470578704
  1

 90
        0
  0
DICTIONARY
  5
28918
102
{ACAD_REACTORS
330
C
102
}
330
C
100
AcDbDictionary
281
     1
  0
DICTIONARY
  5
28919
102
{ACAD_REACTORS
330
C
102
}
330
C
100
AcDbDictionary
281
     1
  3
11
350
2D085
  3
12
350
2D089
  3
13
350
2D08C
  3
14
350
2D851
  3
15
350
2D852
  3
16
350
2D853
  3
17
350
2D8F0
  3
18
350
2D8F1
  3
19
350
2DDCA
  3
20
350
2DE23
  0
DICTIONARY
  5
254F9
102
{ACAD_REACTORS
330
254EC
102
}
330
254EC
100
AcDbDictionary
281
     1
  0
DICTIONARY
  5
2E0AA
102
{ACAD_REACTORS
330
254EC
102
}
330
254EC
100
AcDbDictionary
281
     1
  3
*A1
350
2E0AB
  3
*A10
350
2E0B0
  3
*A11
350
2E0B1
  3
*A2
350
2E0B2
  3
*A3
350
2E0B3
  3
*A4
350
2E0B4
  3
*A5
350
2E0B5
  3
*A6
350
2E0AC
  3
*A7
350
2E0AD
  3
*A8
350
2E0AE
  3
*A9
350
2E0AF
1001
ACAD
1000
<All
  0
XRECORD
  5
2B96A
102
{ACAD_REACTORS
330
2B969
102
}
330
2B969
100
AcDbXrecord
280
     1
290
     1
  0
SORTENTSTABLE
  5
2B7B3
102
{ACAD_REACTORS
330
2B7B2
102
}
330
2B7B2
100
AcDbSortentsTable
330
18
331
176FC
  5
187D6
331
187C8
  5
187D7
331
187C9
  5
216E7
331
187CB
  5
21ACC
331
187CC
  5
27C69
331
187CD
  5
27C6A
331
187CE
  5
27C6C
331
187CF
  5
27C6D
331
187D0
  5
27C6E
331
187D1
  5
27C6F
331
187D2
  5
27C70
331
187D3
  5
27C71
331
187D4
  5
27C72
331
187D5
  5
27C73
331
187D6
  5
27C74
331
187D7
  5
27C75
331
216E7
  5
27C76
331
21ACC
  5
27C77
331
27C69
  5
27C79
331
27C6A
  5
27C7A
331
27C6C
  5
27C7B
331
27C6D
  5
27C7D
331
27C6E
  5
27C7E
331
27C6F
  5
27C7F
331
27C70
  5
27C80
331
27C71
  5
27C81
331
27C72
  5
27C83
331
27C75
  5
27CC9
331
27C76
  5
27CCA
331
27C77
  5
27CCC
331
27C79
  5
27CCD
331
27C7A
  5
27CCE
331
27C7B
  5
27CCF
331
27C7D
  5
27CD0
331
27C83
  5
27CD5
331
27C84
  5
27CD6
331
27C8E
  5
27CD7
331
27CC9
  5
27CD8
331
27CCA
  5
27CD9
331
27CCD
  5
27CDB
331
27CCE
  5
27CDC
331
27CCF
  5
27CDD
331
27CD0
  5
27CDE
331
27CD1
  5
27CDF
331
27CD2
  5
27CE0
331
27CD3
  5
27CE1
331
27CD4
  5
27CE2
331
27CD5
  5
27CE3
331
27CD6
  5
27CE4
331
27CD7
  5
27CE7
331
27CD8
  5
27CE8
331
27CD9
  5
27CE9
331
27CDA
  5
27CEA
331
27CDB
  5
27CEB
331
27CDC
  5
27CEC
331
27CDD
  5
27CED
331
27CDE
  5
27CEE
331
27CDF
  5
27CEF
331
27CE0
  5
27CF0
331
27CE1
  5
27CF1
331
27CE2
  5
27CF2
331
27CE3
  5
27CF3
331
27CE4
  5
27CF4
331
27CE7
  5
27CF5
331
27CE8
  5
27CF6
331
27CE9
  5
27CF7
331
27CEA
  5
27CF8
331
27CEB
  5
27CF9
331
27CEC
  5
27CFA
331
27CF0
  5
27D02
331
27CF1
  5
27D03
331
27CF2
  5
27D04
331
27CF3
  5
27D05
331
27CF4
  5
27D06
331
27CF5
  5
27D3D
331
27CF8
  5
27D54
331
27CF9
  5
27D5A
331
27CFA
  5
27D6B
331
27CFB
  5
27D9B
331
27CFC
  5
27D9C
331
27CFD
  5
27D9D
331
27D0D
  5
27D9F
331
27D13
  5
28C38
331
27D14
  5
28C39
331
27D3D
  5
28C3C
331
27D53
  5
28C3D
331
27D54
  5
28C3E
331
27D5A
  5
28C3F
331
28C33
  5
28C41
331
28C34
  5
28C42
331
28C35
  5
28C43
331
28C36
  5
28C44
331
28C37
  5
28C45
331
28C38
  5
28C46
331
28C39
  5
28C47
331
28C3A
  5
28C48
331
28C3B
  5
28C49
331
28C3C
  5
28C4A
331
28C3D
  5
28C4B
331
28C3E
  5
28C4C
331
28C3F
  5
28C4D
331
28C40
  5
28C4E
331
28C41
  5
28C4F
331
28C42
  5
28C50
331
28C43
  5
28C51
331
28C44
  5
28C52
331
28C45
  5
28C53
331
28C46
  5
28C54
331
28C47
  5
28C55
331
28C48
  5
28C56
331
28C49
  5
28C57
331
28C4A
  5
28C58
331
28C4B
  5
28C59
331
28C4C
  5
28C5A
331
28C4D
  5
28C5B
331
28C4E
  5
28C5C
331
28C4F
  5
28C5D
331
28C50
  5
28C5E
331
28C51
  5
28C5F
331
28C52
  5
28C60
331
28C53
  5
28C61
331
28C54
  5
28C62
331
28C55
  5
28C63
331
28C56
  5
28C64
331
28C57
  5
28C65
331
28C58
  5
28C66
331
28C59
  5
28C67
331
28C5A
  5
28C68
331
28C5B
  5
28C69
331
28C5C
  5
28C6A
331
28C5D
  5
28C6B
331
28C5E
  5
28C6C
331
28C5F
  5
28C6D
331
28C60
  5
28C6E
331
28C61
  5
28C6F
331
28C62
  5
28C70
331
28C63
  5
28C71
331
28C64
  5
28C72
331
28C65
  5
28C73
331
28C66
  5
28C74
331
28C67
  5
28C75
331
28C68
  5
28C76
331
28C69
  5
28CF1
331
28C6A
  5
28CF2
331
28C6B
  5
29BE5
331
28C6C
  5
29BE6
331
28C6D
  5
29BE7
331
28C6E
  5
29BE8
331
28C6F
  5
29BE9
331
28C70
  5
29BEA
331
28C71
  5
29BEB
331
28C72
  5
29BEC
331
28C73
  5
29BED
331
28C74
  5
29BEE
331
28C75
  5
29BEF
331
28C76
  5
29D2D
331
2AD72
  5
2AD80
331
2AD73
  5
2AD81
331
2AD74
  5
2AD82
331
2AD75
  5
2AD83
331
2AD76
  5
2AD84
331
2AD77
  5
2AD85
331
2AD78
  5
2AD86
331
2AD79
  5
2AD88
331
2AD7B
  5
2AD89
331
2AD7C
  5
2AD8A
331
2AD7D
  5
2AD8B
331
2AD7E
  5
2AD8C
331
2AD7F
  5
2AD8D
331
2AD80
  5
2AD8E
331
2AD81
  5
2AD8F
331
2AD82
  5
2AD91
331
2AD84
  5
2AD92
331
2AD85
  5
2AD93
331
2AD86
  5
2AD94
331
2AD87
  5
2AD95
331
2AD88
  5
2AD96
331
2AD89
  5
2AD97
331
2AD8A
  5
2AD98
331
2AD8B
  5
2AD9A
331
2AD8D
  5
2AD9B
331
2AD8E
  5
2AD9C
331
2AD8F
  5
2AD9D
331
2AD90
  5
2AD9E
331
2AD91
  5
2AD9F
331
2AD92
  5
2ADA0
331
2AD93
  5
2ADA1
331
2AD94
  5
2ADA3
331
2AD96
  5
2ADA4
331
2AD97
  5
2ADA5
331
2AD98
  5
2ADA6
331
2AD99
  5
2ADA7
331
2AD9A
  5
2ADA8
331
2AD9B
  5
2ADA9
331
2AD9C
  5
2ADAA
331
2AD9D
  5
2ADAC
331
2AD9F
  5
2ADAD
331
2ADA0
  5
2ADAE
331
2ADA1
  5
2ADAF
331
2ADA2
  5
2ADB0
331
2ADA3
  5
2ADD2
331
2ADA4
  5
2ADD3
331
2ADA5
  5
2ADD4
331
2ADA6
  5
2ADD6
331
2ADA8
  5
2ADD7
331
2ADA9
  5
2ADD8
331
2ADAA
  5
2ADD9
331
2ADAB
  5
2ADDA
331
2ADAC
  5
2ADDB
331
2ADAD
  5
2ADDC
331
2ADAE
  5
2ADEE
331
2ADAF
  5
2B47F
331
2B438
  5
2B480
331
2B439
  5
2B481
331
2B43A
  5
2B482
331
2B43E
  5
2B483
331
2B441
  5
2B484
331
2B473
  5
2B485
331
2B476
  5
2B486
331
2B477
  5
2B487
331
2B47A
  5
2B488
331
2B47B
  5
2B489
331
2B47C
  5
2B48A
331
2B47D
  5
2B48B
331
2B47E
  5
2B48C
331
2B47F
  5
2B48D
331
2B480
  5
2B48E
331
2B481
  5
2B48F
331
2B482
  5
2B490
331
2B483
  5
2B491
331
2B484
  5
2B492
331
2B485
  5
2B493
331
2B486
  5
2B494
331
2B487
  5
2B495
331
2B488
  5
2B496
331
2B489
  5
2B497
331
2B48A
  5
2B498
331
2B48B
  5
2B499
331
2B48C
  5
2B49A
331
2B48D
  5
2B49B
331
2B48E
  5
2B49C
331
2B48F
  5
2B49D
331
2B490
  5
2B49E
331
2B491
  5
2B6E3
331
2B492
  5
2B7B4
331
2B493
  5
2B7B5
331
2B494
  5
2B7B6
331
2B495
  5
2B7B7
331
2B496
  5
2B7B8
331
2B497
  5
2B7B9
331
2B498
  5
2B7BA
331
2B499
  5
2B7BB
331
2B49A
  5
2B7BC
331
2B49B
  5
2B7BD
331
2B49C
  5
2B7BE
331
2B49D
  5
2B7BF
331
2B49E
  5
2C92E
331
2C920
  5
2C92F
331
2C926
  5
2C932
331
2C927
  5
2C933
331
2C928
  5
2C934
331
2C929
  5
2C935
331
2C92A
  5
2C936
331
2C92B
  5
2C937
331
2C92C
  5
2C938
331
2C92D
  5
2C939
331
2C92E
  5
2C93A
331
2C92F
  5
2C93B
331
2C930
  5
2C93C
331
2C931
  5
2C93D
331
2C932
  5
2C93E
331
2C933
  5
2C93F
331
2C934
  5
2C940
331
2C935
  5
2C941
331
2C936
  5
2C942
331
2C937
  5
2C943
331
2C938
  5
2C944
331
2C939
  5
2C945
331
2C93A
  5
2C946
331
2C93B
  5
2C947
331
2C93C
  5
2C948
331
2C93D
  5
2C949
331
2C93E
  5
2C94A
331
2C93F
  5
2C94B
331
2C940
  5
2C94C
331
2C941
  5
2C94D
331
2C942
  5
2C94E
331
2C943
  5
2C94F
331
2C944
  5
2C950
331
2C945
  5
2C951
331
2C946
  5
2C952
331
2C947
  5
2C953
331
2C948
  5
2C954
331
2C949
  5
2C955
331
2C94A
  5
2C956
331
2C94B
  5
2C959
331
2C94C
  5
2C95D
331
2C94D
  5
2C95E
331
2C94E
  5
2C95F
331
2C94F
  5
2C964
331
2C950
  5
2C965
331
2C951
  5
2C966
331
2C952
  5
2C967
331
2C953
  5
2C968
331
2C956
  5
2C96A
331
2C95A
  5
2C96B
331
2C95B
  5
2C96C
331
2C95C
  5
2C96E
331
2C95D
  5
2C97C
331
2C95E
  5
2C97E
331
2C95F
  5
2C98C
331
2C964
  5
2C98D
331
2C965
  5
2C98F
331
2C967
  5
2C990
331
2C968
  5
2C992
331
2C969
  5
2C993
331
2C96B
  5
2C994
331
2C96D
  5
2CC05
331
2C98C
  5
2CC0A
331
2C98D
  5
2CC0B
331
2C990
  5
2CC0C
331
2C991
  5
2CC0D
331
2C992
  5
2CC0E
331
2C993
  5
2CC0F
331
2C994
  5
2CDD8
331
2CDCE
  5
2CDD9
331
2CDCF
  5
2CDDA
331
2CDD0
  5
2CDDB
331
2CDD1
  5
2CDDC
331
2CDD2
  5
2CDDD
331
2CDD3
  5
2CDDE
331
2CDD4
  5
2CDDF
331
2CDD5
  5
2CDE0
331
2CDD6
  5
2CDE1
331
2CDD7
  5
2CDE2
331
2CDD8
  5
2CDE3
331
2CDD9
  5
2CDE4
331
2CDDA
  5
2CDE5
331
2CDDB
  5
2CDE6
331
2CDDC
  5
2CDE7
331
2CDDD
  5
2CDE8
331
2CDDE
  5
2CDE9
331
2CDDF
  5
2CDEA
331
2CDE0
  5
2CDEB
331
2CDE1
  5
2CDEC
331
2CDE2
  5
2CF41
331
2CF39
  5
2CF42
331
2CF3A
  5
2CF43
331
2CF3B
  5
2CF44
331
2CF3C
  5
2CF45
331
2CF3D
  5
2CF46
331
2CF3E
  5
2CF47
331
2CF3F
  5
2CF48
331
2CF40
  5
2CF49
331
2CF41
  5
2CF4A
331
2CF43
  5
2CF4C
331
2CF44
  5
2CF4D
331
2CF45
  5
2CF4E
331
2CF46
  5
2CF4F
331
2CF47
  5
2CF50
331
2CF4E
  5
2CF57
331
2CF4F
  5
2CF58
331
2CF52
  5
2CF5B
331
2CF53
  5
2CF5C
331
2CF54
  5
2CF5D
331
2CF55
  5
2CF5E
331
2CF56
  5
2CF5F
331
2CF57
  5
2CF60
331
2CF58
  5
2CF61
331
2CF59
  5
2CF62
331
2CF5A
  5
2CF63
331
2CF5B
  5
2CF64
331
2CF5C
  5
2CF65
331
2CF5D
  5
2CF66
331
2CF5E
  5
2CF67
331
2CF5F
  5
2CF68
331
2CF60
  5
2CF69
331
2CF61
  5
2CF6A
331
2CF62
  5
2CF6B
331
2CF63
  5
2CF6C
331
2CF64
  5
2CF6D
331
2CF65
  5
2CF6E
331
2CF66
  5
2CF6F
331
2CF67
  5
2CF70
331
2CF68
  5
2CF71
331
2CF69
  5
2CF72
331
2CF6A
  5
2CF73
331
2CF6B
  5
2CF74
331
2CF6C
  5
2CF75
331
2CF6D
  5
2CF76
331
2CF6E
  5
2CF77
331
2CF6F
  5
2CFF9
331
2CF70
  5
2D4AC
331
2CF71
  5
2D4AD
331
2CF72
  5
2D4AE
331
2CFF9
  5
2D7D4
331
2D7D4
  5
2D7D5
331
2D7D5
  5
2D7D6
331
2D7D6
  5
2D7D7
331
2D7D7
  5
2D7D8
331
2D7D8
  5
2D7D9
331
2D7D9
  5
2D7DA
331
2D7DA
  5
2D7DB
331
2D7DB
  5
2D7DC
331
2D7DC
  5
2D7DD
331
2D7DD
  5
2D7DE
331
2D7DE
  5
2D7DF
331
2D7DF
  5
2D7E0
331
2D7E0
  5
2D7E1
331
2D7E1
  5
2D7E2
331
2D7E2
  5
2D7E3
331
2D7E3
  5
2D7E4
331
2D7E4
  5
2D7E5
331
2D7E5
  5
2D7E6
331
2D7E6
  5
2D7E7
331
2D7E7
  5
2D7E8
331
2D7E8
  5
2D7E9
331
2D7E9
  5
2D7EA
331
2D7EA
  5
2D7EB
331
2D7EB
  5
2D7EC
331
2D7EC
  5
2D7ED
331
2D7ED
  5
2D7EE
331
2D7EE
  5
2D7EF
331
2D7EF
  5
2D7F0
331
2D7F0
  5
2D7F1
331
2D7F1
  5
2D7F2
331
2D7F2
  5
2D7F3
331
2D7F3
  5
2D7F4
331
2D7F4
  5
2D7F5
331
2D7F5
  5
2D7F6
331
2D7F6
  5
2D7F7
331
2D7F7
  5
2D7F8
331
2D7F8
  5
2D7F9
331
2D7F9
  5
2D7FA
331
2D7FA
  5
2D7FB
331
2D7FB
  5
2D7FC
331
2D7FC
  5
2D7FD
331
2D7FD
  5
2D7FE
331
2D7FE
  5
2D7FF
331
2D7FF
  5
2D800
331
2D800
  5
2D801
331
2D801
  5
2D802
331
2D802
  5
2D803
331
2D803
  5
2D804
331
2D804
  5
2D805
331
2D805
  5
2D806
331
2D806
  5
2D807
331
2D807
  5
2D808
331
2D808
  5
2D809
331
2D809
  5
2D80A
331
2D80A
  5
2D80B
331
2D80B
  5
2D80C
331
2D80C
  5
2D80D
331
2D80D
  5
2D80E
331
2D80E
  5
2D80F
331
2D80F
  5
2D810
331
2D810
  5
2D811
331
2D811
  5
2D812
331
2D812
  5
2D813
331
2D813
  5
2D814
331
2D814
  5
2D815
331
2D815
  5
2D816
331
2D816
  5
2D817
331
2D817
  5
2D818
331
2D818
  5
2D819
331
2D819
  5
2D81A
331
2D81A
  5
2D81B
331
2D81B
  5
2D81C
331
2D81C
  5
2D81D
331
2D81D
  5
2D81E
331
2D81E
  5
2D81F
331
2D81F
  5
2D820
331
2D820
  5
2D821
331
2D821
  5
2D822
331
2D822
  5
2D823
331
2D823
  5
2D824
331
2D824
  5
2D825
331
2D825
  5
2D826
331
2D826
  5
2D827
331
2D827
  5
2D828
331
2D828
  5
2D829
331
2D829
  5
2D82A
331
2D82A
  5
2D82B
331
2D82B
  5
2D82C
331
2D82C
  5
2D82D
331
2D82D
  5
2D82E
331
2D82E
  5
2D82F
331
2D82F
  5
2D830
331
2D830
  5
2D831
331
2D831
  5
2D832
331
2D832
  5
2D833
331
2D833
  5
2D834
331
2D834
  5
2D835
331
2D835
  5
2D836
331
2D836
  5
2D837
331
2D837
  5
2D838
331
2D838
  5
2D839
331
2D839
  5
2D83A
331
2D83A
  5
2D83B
331
2D83B
  5
2D83C
331
2D83C
  5
2D83D
331
2D83D
  5
2D83E
331
2D83E
  5
2D83F
  0
XRECORD
  5
2E1CC
102
{ACAD_REACTORS
330
2E1CB
102
}
330
2E1CB
100
AcDbXrecord
280
     1
102
SHADEPLOT
 70
     0
  0
XRECORD
  5
2E1CD
102
{ACAD_REACTORS
330
2E082
102
}
330
2E082
100
AcDbXrecord
280
     1
102
SHADEPLOT
 70
     0
  0
XRECORD
  5
2E083
102
{ACAD_REACTORS
330
2E082
102
}
330
2E082
100
AcDbXrecord
280
     1
 90
        1
340
283C2
  0
XRECORD
  5
2E191
102
{ACAD_REACTORS
330
2E190
102
}
330
2E190
100
AcDbXrecord
280
     1
1004
1800000001000000000000C0000000000000000000000000
  0
ACDBDETAILVIEWSTYLE
  5
2E0C2
102
{ACAD_XDICTIONARY
360
2E1D1
102
}
102
{ACAD_REACTORS
330
28920
102
}
330
28920
100
AcDbModelDocViewStyle
 70
     0
  3
Imperial24
290
     0
100
AcDbDetailViewStyle
 70
     0
 71
     0
 90
        3
 71
     1
340
F
 40
0.24
340
0
 40
0.24
300

 40
0.36
280
     3
 71
     2
340
14
 90
       25
 71
     3
340
F
 40
0.24
 90
        1
 40
0.75
 90
        1
300
%<\AcVar ViewType \f "%tc1">% %<\AcVar ViewDetailId>%\PSCALE %<\AcVar ViewScale \f "%sn">%
 71
     4
340
14
 90
       25
340
14
 90
       25
280
     0
  0
LAYOUT
  5
FB5D
102
{ACAD_XDICTIONARY
360
2E192
102
}
102
{ACAD_REACTORS
330
DB2
102
}
330
DB2
100
AcDbPlotSettings
  1

  2
\\HONAMI\LBP-910
  4
A3
  6

 40
5.873749732971191
 41
5.873747825622558
 42
5.873748779296875
 43
5.873748779296875
 44
296.9259948730469
 45
419.9466552734374
 46
0.0
 47
0.0
 48
-134.0496161171158
 49
-116.2294073187233
140
1105.745250909008
141
633.2284101676227
142
1.0
143
2.866823569012708
 70
 11952
 72
     1
 73
     1
 74
     1
  7
monochrome.ctb
 75
     0
147
0.3488181173089717
148
98.7130430422485
149
74.96499340265336
100
AcDbLayout
  1
Model
 70
     1
 71
     0
 10
0.0
 20
0.0
 11
12.0
 21
9.0
 12
0.0
 22
0.0
 32
0.0
 14
268.3770762978532
 24
-2577.28106900253
 34
0.0
 15
1207.153267383875
 25
-2225.691602833293
 35
137.5
146
0.0
 13
0.0
 23
0.0
 33
0.0
 16
1.0
 26
0.0
 36
0.0
 17
0.0
 27
1.0
 37
0.0
 76
     0
330
18
  0
LAYOUT
  5
2E07D
102
{ACAD_XDICTIONARY
360
2E1C9
102
}
102
{ACAD_REACTORS
330
DB2
102
}
330
DB2
100
AcDbPlotSettings
  1

  2
none_device
  4
ANSI_A_(11.00_x_8.50_Inches)
  6

 40
6.349999999999999
 41
19.05
 42
6.349999999999999
 43
19.05
 44
279.4
 45
215.9
 46
0.0
 47
0.0
 48
0.0
 49
0.0
140
0.0
141
0.0
142
1.0
143
1.0
 70
   688
 72
     0
 73
     0
 74
     5
  7

 75
    16
147
1.0
148
0.0
149
0.0
100
AcDbLayout
  1
Sheet1
 70
     1
 71
     1
 10
0.0
 20
0.0
 11
0.0
 21
0.0
 12
0.0
 22
0.0
 32
0.0
 14
1.049999999999999
 24
0.6999999999999998
 34
0.0
 15
9.449999999999999
 25
6.3
 35
0.0
146
0.0
 13
0.0
 23
0.0
 33
0.0
 16
1.0
 26
0.0
 36
0.0
 17
0.0
 27
1.0
 37
0.0
 76
     0
330
2E07C
331
2E080
  0
MATERIAL
  5
2E0B8
102
{ACAD_XDICTIONARY
360
2E0B9
102
}
102
{ACAD_REACTORS
330
2E035
102
}
330
2E035
100
AcDbMaterial
  1
ByBlock
 72
     0
 43
0.0208333333333333
 43
0.0
 43
0.0
 43
0.0
 43
0.0
 43
0.0208333333333333
 43
0.0
 43
0.0
 43
0.0
 43
0.0
 43
1.0
 43
0.0
 43
0.0
 43
0.0
 43
0.0
 43
1.0
 77
     0
 47
0.0208333333333333
 47
0.0
 47
0.0
 47
0.0
 47
0.0
 47
0.0208333333333333
 47
0.0
 47
0.0
 47
0.0
 47
0.0
 47
1.0
 47
0.0
 47
0.0
 47
0.0
 47
0.0
 47
1.0
171
     0
 49
0.0208333333333333
 49
0.0
 49
0.0
 49
0.0
 49
0.0
 49
0.0208333333333333
 49
0.0
 49
0.0
 49
0.0
 49
0.0
 49
1.0
 49
0.0
 49
0.0
 49
0.0
 49
0.0
 49
1.0
175
     0
142
0.0208333333333333
142
0.0
142
0.0
142
0.0
142
0.0
142
0.0208333333333333
142
0.0
142
0.0
142
0.0
142
0.0
142
1.0
142
0.0
142
0.0
142
0.0
142
0.0
142
1.0
179
     0
144
0.0208333333333333
144
0.0
144
0.0
144
0.0
144
0.0
144
0.0208333333333333
144
0.0
144
0.0
144
0.0
144
0.0
144
1.0
144
0.0
144
0.0
144
0.0
144
0.0
144
1.0
147
0.0208333333333333
147
0.0
147
0.0
147
0.0
147
0.0
147
0.0208333333333333
147
0.0
147
0.0
147
0.0
147
0.0
147
1.0
147
0.0
147
0.0
147
0.0
147
0.0
147
1.0
  0
MATERIAL
  5
2E036
102
{ACAD_XDICTIONARY
360
2E1C4
102
}
102
{ACAD_REACTORS
330
2E035
102
}
330
2E035
100
AcDbMaterial
  1
ByLayer
 73
     1
 78
     1
172
     1
176
     1
270
     1
274
     1
  0
MATERIAL
  5
2E038
102
{ACAD_XDICTIONARY
360
2E1C6
102
}
102
{ACAD_REACTORS
330
2E035
102
}
330
2E035
100
AcDbMaterial
  1
Global
 73
     1
 78
     1
172
     1
176
     1
270
     1
274
     1
  0
MLEADERSTYLE
  5
2E03C
102
{ACAD_REACTORS
330
2E03B
102
}
330
2E03B
100
AcDbMLeaderStyle
170
     2
171
     1
172
     0
 90
        2
 40
0.0
 41
0.0
173
     1
 91
-1056964608
340
12
 92
       -2
290
     1
 42
0.09
291
     1
 43
0.36
  3
Standard
 44
0.18
300

342
F
174
     1
178
     6
175
     1
176
     0
 93
-1056964608
 45
0.18
292
     0
297
     0
 46
0.18
 94
-1056964608
 47
1.0
 49
1.0
140
1.0
293
     1
141
0.0
294
     1
177
     0
142
1.0
295
     0
296
     0
143
0.125
1001
ACAD_MLEADERVER
1070
     2
  0
MLINESTYLE
  5
1C
102
{ACAD_REACTORS
330
1B
102
}
330
1B
100
AcDbMlineStyle
  2
STANDARD
 70
     0
  3

 62
   256
 51
90.0
 52
90.0
 71
     2
 49
0.5
 62
   256
  6
BYLAYER
 49
-0.5
 62
   256
  6
BYLAYER
  0
ACDBPLACEHOLDER
  5
FB5C
102
{ACAD_REACTORS
330
FB5B
102
}
330
FB5B
  0
SCALE
  5
283C2
102
{ACAD_REACTORS
330
283C1
102
}
330
283C1
100
AcDbScale
 70
     0
300
1:1
140
1.0
141
1.0
290
     1
  0
SCALE
  5
283C3
102
{ACAD_REACTORS
330
283C1
102
}
330
283C1
100
AcDbScale
 70
     0
300
1:2
140
1.0
141
2.0
290
     0
  0
SCALE
  5
283C4
102
{ACAD_REACTORS
330
283C1
102
}
330
283C1
100
AcDbScale
 70
     0
300
1:4
140
1.0
141
4.0
290
     0
  0
SCALE
  5
283C5
102
{ACAD_REACTORS
330
283C1
102
}
330
283C1
100
AcDbScale
 70
     0
300
1:5
140
1.0
141
5.0
290
     0
  0
SCALE
  5
283C6
102
{ACAD_REACTORS
330
283C1
102
}
330
283C1
100
AcDbScale
 70
     0
300
1:8
140
1.0
141
8.0
290
     0
  0
SCALE
  5
283C7
102
{ACAD_REACTORS
330
283C1
102
}
330
283C1
100
AcDbScale
 70
     0
300
1:10
140
1.0
141
10.0
290
     0
  0
SCALE
  5
283C8
102
{ACAD_REACTORS
330
283C1
102
}
330
283C1
100
AcDbScale
 70
     0
300
1:16
140
1.0
141
16.0
290
     0
  0
SCALE
  5
283C9
102
{ACAD_REACTORS
330
283C1
102
}
330
283C1
100
AcDbScale
 70
     0
300
1:20
140
1.0
141
20.0
290
     0
  0
SCALE
  5
283CA
102
{ACAD_REACTORS
330
283C1
102
}
330
283C1
100
AcDbScale
 70
     0
300
1:30
140
1.0
141
30.0
290
     0
  0
SCALE
  5
283CB
102
{ACAD_REACTORS
330
283C1
102
}
330
283C1
100
AcDbScale
 70
     0
300
1:40
140
1.0
141
40.0
290
     0
  0
SCALE
  5
283CC
102
{ACAD_REACTORS
330
283C1
102
}
330
283C1
100
AcDbScale
 70
     0
300
1:50
140
1.0
141
50.0
290
     0
  0
SCALE
  5
283CD
102
{ACAD_REACTORS
330
283C1
102
}
330
283C1
100
AcDbScale
 70
     0
300
1:100
140
1.0
141
100.0
290
     0
  0
SCALE
  5
283CE
102
{ACAD_REACTORS
330
283C1
102
}
330
283C1
100
AcDbScale
 70
     0
300
2:1
140
2.0
141
1.0
290
     0
  0
SCALE
  5
283CF
102
{ACAD_REACTORS
330
283C1
102
}
330
283C1
100
AcDbScale
 70
     0
300
4:1
140
4.0
141
1.0
290
     0
  0
SCALE
  5
283D0
102
{ACAD_REACTORS
330
283C1
102
}
330
283C1
100
AcDbScale
 70
     0
300
8:1
140
8.0
141
1.0
290
     0
  0
SCALE
  5
283D1
102
{ACAD_REACTORS
330
283C1
102
}
330
283C1
100
AcDbScale
 70
     0
300
10:1
140
10.0
141
1.0
290
     0
  0
SCALE
  5
283D2
102
{ACAD_REACTORS
330
283C1
102
}
330
283C1
100
AcDbScale
 70
     0
300
100:1
140
100.0
141
1.0
290
     0
  0
SCALE
  5
283D3
102
{ACAD_REACTORS
330
283C1
102
}
330
283C1
100
AcDbScale
 70
     0
300
1/128" = 1'-0"
140
0.0078125
141
12.0
290
     0
  0
SCALE
  5
283D4
102
{ACAD_REACTORS
330
283C1
102
}
330
283C1
100
AcDbScale
 70
     0
300
1/64" = 1'-0"
140
0.015625
141
12.0
290
     0
  0
SCALE
  5
283D5
102
{ACAD_REACTORS
330
283C1
102
}
330
283C1
100
AcDbScale
 70
     0
300
1/32" = 1'-0"
140
0.03125
141
12.0
290
     0
  0
SCALE
  5
283D6
102
{ACAD_REACTORS
330
283C1
102
}
330
283C1
100
AcDbScale
 70
     0
300
1/16" = 1'-0"
140
0.0625
141
12.0
290
     0
  0
SCALE
  5
283D7
102
{ACAD_REACTORS
330
283C1
102
}
330
283C1
100
AcDbScale
 70
     0
300
3/32" = 1'-0"
140
0.09375
141
12.0
290
     0
  0
SCALE
  5
283D8
102
{ACAD_REACTORS
330
283C1
102
}
330
283C1
100
AcDbScale
 70
     0
300
1/8" = 1'-0"
140
0.125
141
12.0
290
     0
  0
SCALE
  5
283D9
102
{ACAD_REACTORS
330
283C1
102
}
330
283C1
100
AcDbScale
 70
     0
300
3/16" = 1'-0"
140
0.1875
141
12.0
290
     0
  0
SCALE
  5
283DA
102
{ACAD_REACTORS
330
283C1
102
}
330
283C1
100
AcDbScale
 70
     0
300
1/4" = 1'-0"
140
0.25
141
12.0
290
     0
  0
SCALE
  5
283DB
102
{ACAD_REACTORS
330
283C1
102
}
330
283C1
100
AcDbScale
 70
     0
300
3/8" = 1'-0"
140
0.375
141
12.0
290
     0
  0
SCALE
  5
283DC
102
{ACAD_REACTORS
330
283C1
102
}
330
283C1
100
AcDbScale
 70
     0
300
1/2" = 1'-0"
140
0.5
141
12.0
290
     0
  0
SCALE
  5
283DD
102
{ACAD_REACTORS
330
283C1
102
}
330
283C1
100
AcDbScale
 70
     0
300
3/4" = 1'-0"
140
0.75
141
12.0
290
     0
  0
SCALE
  5
283DE
102
{ACAD_REACTORS
330
283C1
102
}
330
283C1
100
AcDbScale
 70
     0
300
1" = 1'-0"
140
1.0
141
12.0
290
     0
  0
SCALE
  5
283DF
102
{ACAD_REACTORS
330
283C1
102
}
330
283C1
100
AcDbScale
 70
     0
300
1-1/2" = 1'-0"
140
1.5
141
12.0
290
     0
  0
SCALE
  5
283E0
102
{ACAD_REACTORS
330
283C1
102
}
330
283C1
100
AcDbScale
 70
     0
300
3" = 1'-0"
140
3.0
141
12.0
290
     0
  0
SCALE
  5
283E1
102
{ACAD_REACTORS
330
283C1
102
}
330
283C1
100
AcDbScale
 70
     0
300
6" = 1'-0"
140
6.0
141
12.0
290
     0
  0
SCALE
  5
283E2
102
{ACAD_REACTORS
330
283C1
102
}
330
283C1
100
AcDbScale
 70
     0
300
1'-0" = 1'-0"
140
12.0
141
12.0
290
     0
  0
ACDBSECTIONVIEWSTYLE
  5
2E0C1
102
{ACAD_XDICTIONARY
360
2E1CF
102
}
102
{ACAD_REACTORS
330
28921
102
}
330
28921
100
AcDbModelDocViewStyle
 70
     0
  3
Imperial24
290
     0
100
AcDbSectionViewStyle
 70
     0
 71
     0
 90
       78
 71
     1
340
F
 40
0.24
340
0
340
0
 40
0.24
300
I, O, Q, S, X, Z
 40
0.48
 90
        3
 40
0.18
 90
        1
 71
     2
340
14
 90
       25
340
14
 90
       50
 40
0.24
 40
0.0
 40
0.24
 71
     3
340
F
 40
0.24
 90
        1
 40
0.75
 90
        1
300
%<\AcVar ViewType \f "%tc1">% %<\AcVar ViewSectionStartId>%-%<\AcVar ViewSectionEndId>%\PSCALE %<\AcVar ViewScale \f "%sn">%
 71
     4
300
ANSI31
 40
1.0
 90
        0
290
     0
290
     0
 90
        6
 40
0.0
 40
1.570796326794896
 40
0.2617993877991494
 40
1.308996938995747
 40
-0.2617993877991494
 40
1.832595714594046
  0
TABLESTYLE
  5
2E03A
102
{ACAD_XDICTIONARY
360
2E0D1
102
}
102
{ACAD_REACTORS
330
2E039
102
}
330
2E039
100
AcDbTableStyle
  3
Standard
 70
     0
 71
     0
 40
0.06
 41
0.06
280
     0
281
     0
  7
STANDARD
140
0.18
170
     2
 62
     0
 63
     7
283
     0
274
    -2
284
     1
 64
     0
275
    -2
285
     1
 65
     0
276
    -2
286
     1
 66
     0
277
    -2
287
     1
 67
     0
278
    -2
288
     1
 68
     0
279
    -2
289
     1
 69
     0
  7
STANDARD
140
0.25
170
     5
 62
     0
 63
     7
283
     0
274
    -2
284
     1
 64
     0
275
    -2
285
     1
 65
     0
276
    -2
286
     1
 66
     0
277
    -2
287
     1
 67
     0
278
    -2
288
     1
 68
     0
279
    -2
289
     1
 69
     0
  7
STANDARD
140
0.18
170
     5
 62
     0
 63
     7
283
     0
274
    -2
284
     1
 64
     0
275
    -2
285
     1
 65
     0
276
    -2
286
     1
 66
     0
277
    -2
287
     1
 67
     0
278
    -2
288
     1
 68
     0
279
    -2
289
     1
 69
     0
  0
VISUALSTYLE
  5
2E021
102
{ACAD_XDICTIONARY
360
2E19C
102
}
102
{ACAD_REACTORS
330
2E01C
102
}
330
2E01C
100
AcDbVisualStyle
  2
2dWireframe
 70
     4
 71
     0
 72
     2
 73
     0
 90
        0
 40
-0.6
 41
-30.0
 62
     5
 63
     7
 74
     1
 91
        4
 64
     7
 65
   257
 75
     1
175
     1
 42
1.0
 92
        0
 66
   257
 43
1.0
 76
     1
 77
     6
 78
     2
 67
     7
 79
     5
170
     0
171
     0
290
     0
174
     0
 93
        1
 44
0.0
173
     0
291
     0
 45
0.0
1001
ACAD
1000
AcDbSavedByObjectVersion
1070
     0
  0
VISUALSTYLE
  5
2E024
102
{ACAD_XDICTIONARY
360
2E1A2
102
}
102
{ACAD_REACTORS
330
2E01C
102
}
330
2E01C
100
AcDbVisualStyle
  2
Basic
 70
     7
 71
     1
 72
     0
 73
     1
 90
        0
 40
-0.6
 41
-30.0
 62
     5
 63
     7
 74
     0
 91
        4
 64
     7
 65
   257
 75
     1
175
     1
 42
1.0
 92
        8
 66
     7
 43
1.0
 76
     1
 77
     6
 78
     2
 67
     7
 79
     5
170
     0
171
     0
290
     0
174
     0
 93
        1
 44
0.0
173
     0
291
     1
 45
0.0
1001
ACAD
1000
AcDbSavedByObjectVersion
1070
     0
  0
VISUALSTYLE
  5
2E028
102
{ACAD_XDICTIONARY
360
2E1AA
102
}
102
{ACAD_REACTORS
330
2E01C
102
}
330
2E01C
100
AcDbVisualStyle
  2
Brighten
 70
    12
 71
     2
 72
     2
 73
     0
 90
        0
 40
-0.6
 41
-30.0
 62
     5
 63
     7
 74
     1
 91
        4
 64
     7
 65
   257
 75
     1
175
     1
 42
1.0
 92
        8
 66
     7
 43
1.0
 76
     1
 77
     6
 78
     2
 67
     7
 79
     5
170
     0
171
     0
290
     0
174
     0
 93
        1
 44
50.0
173
     0
291
     1
 45
0.0
1001
ACAD
1000
AcDbSavedByObjectVersion
1070
     0
  0
VISUALSTYLE
  5
2E02C
102
{ACAD_XDICTIONARY
360
2E1B2
102
}
102
{ACAD_REACTORS
330
2E01C
102
}
330
2E01C
100
AcDbVisualStyle
  2
ColorChange
 70
    16
 71
     2
 72
     2
 73
     3
 90
        0
 40
-0.6
 41
-30.0
 62
     5
 63
     8
 74
     1
 91
        4
 64
     7
 65
   257
 75
     1
175
     1
 42
1.0
 92
        8
 66
     8
 43
1.0
 76
     1
 77
     6
 78
     2
 67
     7
 79
     5
170
     0
171
     0
290
     0
174
     0
 93
        1
 44
0.0
173
     0
291
     1
 45
0.0
1001
ACAD
1000
AcDbSavedByObjectVersion
1070
     0
  0
VISUALSTYLE
  5
2E026
102
{ACAD_XDICTIONARY
360
2E1A6
102
}
102
{ACAD_REACTORS
330
2E01C
102
}
330
2E01C
100
AcDbVisualStyle
  2
Conceptual
 70
     9
 71
     3
 72
     2
 73
     0
 90
        0
 40
-0.6
 41
-30.0
 62
     5
 63
     7
 74
     2
 91
        2
 64
     7
 65
   257
 75
     1
175
     1
 42
179.0
 92
        8
 66
     7
 43
1.0
 76
     1
 77
     6
 78
     2
 67
     7
 79
     3
170
     0
171
     0
290
     0
174
     0
 93
        1
 44
0.0
173
     0
291
     0
 45
0.0
1001
ACAD
1000
AcDbSavedByObjectVersion
1070
     0
  0
VISUALSTYLE
  5
2E027
102
{ACAD_XDICTIONARY
360
2E1A8
102
}
102
{ACAD_REACTORS
330
2E01C
102
}
330
2E01C
100
AcDbVisualStyle
  2
Dim
 70
    11
 71
     2
 72
     2
 73
     0
 90
        0
 40
-0.6
 41
-30.0
 62
     5
 63
     7
 74
     1
 91
        4
 64
     7
 65
   257
 75
     1
175
     1
 42
1.0
 92
        8
 66
     7
 43
1.0
 76
     1
 77
     6
 78
     2
 67
     7
 79
     5
170
     0
171
     0
290
     0
174
     0
 93
        1
 44
-50.0
173
     0
291
     1
 45
0.0
1001
ACAD
1000
AcDbSavedByObjectVersion
1070
     0
  0
VISUALSTYLE
  5
2E02F
102
{ACAD_XDICTIONARY
360
2E1B8
102
}
102
{ACAD_REACTORS
330
2E01C
102
}
330
2E01C
100
AcDbVisualStyle
  2
EdgeColorOff
 70
    22
 71
     2
 72
     2
 73
     0
 90
        0
 40
-0.6
 41
-30.0
 62
     5
 63
     7
 74
     1
 91
        4
 64
     7
 65
   257
 75
     1
175
     1
 42
1.0
 92
        8
 66
     7
 43
1.0
 76
     1
 77
     6
 78
     2
 67
     7
 79
     5
170
     0
171
     0
290
     0
174
     0
 93
        1
 44
0.0
173
     0
291
     1
 45
0.0
1001
ACAD
1000
AcDbSavedByObjectVersion
1070
     0
  0
VISUALSTYLE
  5
2E02B
102
{ACAD_XDICTIONARY
360
2E1B0
102
}
102
{ACAD_REACTORS
330
2E01C
102
}
330
2E01C
100
AcDbVisualStyle
  2
Facepattern
 70
    15
 71
     2
 72
     2
 73
     0
 90
        0
 40
-0.6
 41
-30.0
 62
     5
 63
     7
 74
     1
 91
        4
 64
     7
 65
   257
 75
     1
175
     1
 42
1.0
 92
        8
 66
     7
 43
1.0
 76
     1
 77
     6
 78
     2
 67
     7
 79
     5
170
     0
171
     0
290
     0
174
     0
 93
        1
 44
0.0
173
     0
291
     1
 45
0.0
1001
ACAD
1000
AcDbSavedByObjectVersion
1070
     0
  0
VISUALSTYLE
  5
2E01D
102
{ACAD_XDICTIONARY
360
2E194
102
}
102
{ACAD_REACTORS
330
2E01C
102
}
330
2E01C
100
AcDbVisualStyle
  2
Flat
 70
     0
 71
     2
 72
     1
 73
     1
 90
        2
 40
-0.6
 41
30.0
 62
     5
 63
     7
 74
     0
 91
        0
 64
     7
 65
   257
 75
     1
175
     1
 42
1.0
 92
        8
 66
     7
 43
1.0
 76
     1
 77
     6
 78
     2
 67
     7
 79
     5
170
     0
171
     0
290
     0
174
     0
 93
       13
 44
0.0
173
     0
291
     1
 45
0.0
1001
ACAD
1000
AcDbSavedByObjectVersion
1070
     0
  0
VISUALSTYLE
  5
2E01E
102
{ACAD_XDICTIONARY
360
2E196
102
}
102
{ACAD_REACTORS
330
2E01C
102
}
330
2E01C
100
AcDbVisualStyle
  2
FlatWithEdges
 70
     1
 71
     2
 72
     1
 73
     1
 90
        2
 40
-0.6
 41
30.0
 62
     5
 63
     7
 74
     1
 91
        0
 64
     7
 65
   257
 75
     1
175
     1
 42
1.0
 92
        0
 66
   257
 43
1.0
 76
     1
 77
     6
 78
     2
 67
     7
 79
     5
170
     0
171
     0
290
     0
174
     0
 93
       13
 44
0.0
173
     0
291
     1
 45
0.0
1001
ACAD
1000
AcDbSavedByObjectVersion
1070
     0
  0
VISUALSTYLE
  5
2E01F
102
{ACAD_XDICTIONARY
360
2E198
102
}
102
{ACAD_REACTORS
330
2E01C
102
}
330
2E01C
100
AcDbVisualStyle
  2
Gouraud
 70
     2
 71
     2
 72
     2
 73
     1
 90
        2
 40
-0.6
 41
30.0
 62
     5
 63
     7
 74
     0
 91
        0
 64
     7
 65
   257
 75
     1
175
     1
 42
1.0
 92
        0
 66
     7
 43
1.0
 76
     1
 77
     6
 78
     2
 67
     7
 79
     5
170
     0
171
     0
290
     0
174
     0
 93
       13
 44
0.0
173
     0
291
     1
 45
0.0
1001
ACAD
1000
AcDbSavedByObjectVersion
1070
     0
  0
VISUALSTYLE
  5
2E020
102
{ACAD_XDICTIONARY
360
2E19A
102
}
102
{ACAD_REACTORS
330
2E01C
102
}
330
2E01C
100
AcDbVisualStyle
  2
GouraudWithEdges
 70
     3
 71
     2
 72
     2
 73
     1
 90
        2
 40
-0.6
 41
30.0
 62
     5
 63
     7
 74
     1
 91
        0
 64
     7
 65
   257
 75
     1
175
     1
 42
1.0
 92
        0
 66
   257
 43
1.0
 76
     1
 77
     6
 78
     2
 67
     7
 79
     5
170
     0
171
     0
290
     0
174
     0
 93
       13
 44
0.0
173
     0
291
     1
 45
0.0
1001
ACAD
1000
AcDbSavedByObjectVersion
1070
     0
  0
VISUALSTYLE
  5
2E023
102
{ACAD_XDICTIONARY
360
2E1A0
102
}
102
{ACAD_REACTORS
330
2E01C
102
}
330
2E01C
100
AcDbVisualStyle
  2
Hidden
 70
     6
 71
     1
 72
     2
 73
     2
 90
        0
 40
-0.6
 41
-30.0
 62
     5
 63
     7
 74
     2
 91
        2
 64
     7
 65
   257
 75
     2
175
     1
 42
40.0
 92
        0
 66
   257
 43
1.0
 76
     1
 77
     6
 78
     2
 67
     7
 79
     3
170
     0
171
     0
290
     0
174
     0
 93
        1
 44
0.0
173
     0
291
     0
 45
0.0
1001
ACAD
1000
AcDbSavedByObjectVersion
1070
     0
  0
VISUALSTYLE
  5
2E02D
102
{ACAD_XDICTIONARY
360
2E1B4
102
}
102
{ACAD_REACTORS
330
2E01C
102
}
330
2E01C
100
AcDbVisualStyle
  2
JitterOff
 70
    20
 71
     2
 72
     2
 73
     0
 90
        0
 40
-0.6
 41
-30.0
 62
     5
 63
     7
 74
     1
 91
        4
 64
     7
 65
   257
 75
     1
175
     1
 42
1.0
 92
       10
 66
     7
 43
1.0
 76
     1
 77
     6
 78
     2
 67
     7
 79
     5
170
     0
171
     0
290
     0
174
     0
 93
        1
 44
0.0
173
     0
291
     1
 45
0.0
1001
ACAD
1000
AcDbSavedByObjectVersion
1070
     0
  0
VISUALSTYLE
  5
2E02A
102
{ACAD_XDICTIONARY
360
2E1AE
102
}
102
{ACAD_REACTORS
330
2E01C
102
}
330
2E01C
100
AcDbVisualStyle
  2
Linepattern
 70
    14
 71
     2
 72
     2
 73
     0
 90
        0
 40
-0.6
 41
-30.0
 62
     5
 63
     7
 74
     1
 91
        4
 64
     7
 65
   257
 75
     7
175
     7
 42
1.0
 92
        8
 66
     7
 43
1.0
 76
     1
 77
     6
 78
     2
 67
     7
 79
     5
170
     0
171
     0
290
     0
174
     0
 93
        1
 44
0.0
173
     0
291
     1
 45
0.0
1001
ACAD
1000
AcDbSavedByObjectVersion
1070
     0
  0
VISUALSTYLE
  5
2E02E
102
{ACAD_XDICTIONARY
360
2E1B6
102
}
102
{ACAD_REACTORS
330
2E01C
102
}
330
2E01C
100
AcDbVisualStyle
  2
OverhangOff
 70
    21
 71
     2
 72
     2
 73
     0
 90
        0
 40
-0.6
 41
-30.0
 62
     5
 63
     7
 74
     1
 91
        4
 64
     7
 65
   257
 75
     1
175
     1
 42
1.0
 92
        9
 66
     7
 43
1.0
 76
     1
 77
     6
 78
     2
 67
     7
 79
     5
170
     0
171
     0
290
     0
174
     0
 93
        1
 44
0.0
173
     0
291
     1
 45
0.0
1001
ACAD
1000
AcDbSavedByObjectVersion
1070
     0
  0
VISUALSTYLE
  5
2E025
102
{ACAD_XDICTIONARY
360
2E1A4
102
}
102
{ACAD_REACTORS
330
2E01C
102
}
330
2E01C
100
AcDbVisualStyle
  2
Realistic
 70
     8
 71
     2
 72
     2
 73
     0
 90
        2
 40
-0.6
 41
30.0
 62
     5
 63
     7
 74
     0
 91
        0
 64
     7
 65
   257
 75
     1
175
     1
 42
1.0
 92
        8
 66
   257
 43
1.0
 76
     1
 77
     6
 78
     2
 67
     7
 79
     3
170
     0
171
     0
290
     0
174
     0
 93
       13
 44
0.0
173
     0
291
     0
 45
0.0
1001
ACAD
1000
AcDbSavedByObjectVersion
1070
     0
  0
VISUALSTYLE
  5
2E034
102
{ACAD_XDICTIONARY
360
2E1C2
102
}
102
{ACAD_REACTORS
330
2E01C
102
}
330
2E01C
100
AcDbVisualStyle
  2
Shaded
 70
    27
 71
     2
 72
     2
 73
     1
 90
        2
 40
-0.6
 41
30.0
 62
     5
 63
     7
 74
     0
 91
        4
 64
     7
 65
   257
 75
     1
175
     1
 42
1.0
 92
        8
 66
   257
 43
1.0
 76
     1
 77
     6
 78
     2
 67
     8
 79
     3
170
     0
171
     0
290
     0
174
     0
 93
        5
 44
0.0
173
     0
291
     0
 45
0.0
1001
ACAD
1000
AcDbSavedByObjectVersion
1070
     0
  0
VISUALSTYLE
  5
2E033
102
{ACAD_XDICTIONARY
360
2E1C0
102
}
102
{ACAD_REACTORS
330
2E01C
102
}
330
2E01C
100
AcDbVisualStyle
  2
Shaded with edges
 70
    26
 71
     2
 72
     2
 73
     1
 90
        2
 40
-0.6
 41
30.0
 62
     5
 63
     7
 74
     1
 91
        2
 64
     7
 65
   257
 75
     2
175
     1
 42
1.0
 92
        8
 66
   257
 43
1.0
 76
     1
 77
     6
 78
     2
 67
     7
 79
     3
170
     0
171
     0
290
     0
174
     0
 93
        5
 44
0.0
173
     0
291
     0
 45
0.0
1001
ACAD
1000
AcDbSavedByObjectVersion
1070
     0
  0
VISUALSTYLE
  5
2E030
102
{ACAD_XDICTIONARY
360
2E1BA
102
}
102
{ACAD_REACTORS
330
2E01C
102
}
330
2E01C
100
AcDbVisualStyle
  2
Shades of Gray
 70
    23
 71
     2
 72
     2
 73
     3
 90
        0
 40
-0.6
 41
-30.0
 62
     5
 63
     7
 74
     2
 91
        2
 64
     7
 65
     7
 75
     1
175
     1
 42
40.0
 92
        8
 66
     7
 43
1.0
 76
     1
 77
     6
 78
     2
 67
     7
 79
     3
170
     0
171
     0
290
     0
174
     0
 93
        1
 44
0.0
173
     0
291
     0
 45
0.0
1001
ACAD
1000
AcDbSavedByObjectVersion
1070
     0
  0
VISUALSTYLE
  5
2E031
102
{ACAD_XDICTIONARY
360
2E1BC
102
}
102
{ACAD_REACTORS
330
2E01C
102
}
330
2E01C
100
AcDbVisualStyle
  2
Sketchy
 70
    24
 71
     1
 72
     2
 73
     2
 90
        0
 40
-0.6
 41
-30.0
 62
     5
 63
     7
 74
     2
 91
        2
 64
     7
 65
     7
 75
     1
175
     1
 42
40.0
 92
       11
 66
     7
 43
1.0
 76
     1
 77
     6
 78
     2
 67
     7
 79
     6
170
     0
171
     0
290
     0
174
     0
 93
        1
 44
0.0
173
     0
291
     0
 45
0.0
1001
ACAD
1000
AcDbSavedByObjectVersion
1070
     0
  0
VISUALSTYLE
  5
2E029
102
{ACAD_XDICTIONARY
360
2E1AC
102
}
102
{ACAD_REACTORS
330
2E01C
102
}
330
2E01C
100
AcDbVisualStyle
  2
Thicken
 70
    13
 71
     2
 72
     2
 73
     0
 90
        0
 40
-0.6
 41
-30.0
 62
     5
 63
     7
 74
     1
 91
        4
 64
     7
 65
   257
 75
     1
175
     1
 42
1.0
 92
       12
 66
     7
 43
1.0
 76
     1
 77
     6
 78
     2
 67
     7
 79
     5
170
     0
171
     0
290
     0
174
     0
 93
        1
 44
0.0
173
     0
291
     1
 45
0.0
1001
ACAD
1000
AcDbSavedByObjectVersion
1070
     0
  0
VISUALSTYLE
  5
2E022
102
{ACAD_XDICTIONARY
360
2E19E
102
}
102
{ACAD_REACTORS
330
2E01C
102
}
330
2E01C
100
AcDbVisualStyle
  2
Wireframe
 70
     5
 71
     0
 72
     2
 73
     0
 90
        0
 40
-0.6
 41
-30.0
 62
     5
 63
     7
 74
     1
 91
        4
 64
     7
 65
   257
 75
     1
175
     1
 42
1.0
 92
        0
 66
   257
 43
1.0
 76
     1
 77
     6
 78
     2
 67
     7
 79
     3
170
     0
171
     0
290
     0
174
     0
 93
        1
 44
0.0
173
     0
291
     0
 45
0.0
1001
ACAD
1000
AcDbSavedByObjectVersion
1070
     0
  0
VISUALSTYLE
  5
2E032
102
{ACAD_XDICTIONARY
360
2E1BE
102
}
102
{ACAD_REACTORS
330
2E01C
102
}
330
2E01C
100
AcDbVisualStyle
  2
X-Ray
 70
    25
 71
     2
 72
     2
 73
     1
 90
        1
 40
0.5
 41
-30.0
 62
     5
 63
     7
 74
     1
 91
        0
 64
     7
 65
   257
 75
     1
175
     1
 42
1.0
 92
        8
 66
     7
 43
1.0
 76
     1
 77
     6
 78
     2
 67
     7
 79
     3
170
     0
171
     0
290
     0
174
     0
 93
       13
 44
0.0
173
     0
291
     0
 45
0.0
1001
ACAD
1000
AcDbSavedByObjectVersion
1070
     0
  0
DICTIONARYVAR
  5
2E03E
102
{ACAD_REACTORS
330
106A6
102
}
330
106A6
100
DictionaryVariables
280
     0
  1
1:1
  0
DICTIONARYVAR
  5
2E040
102
{ACAD_REACTORS
330
106A6
102
}
330
106A6
100
DictionaryVariables
280
     0
  1
STANDARD
  0
DICTIONARYVAR
  5
2E03F
102
{ACAD_REACTORS
330
106A6
102
}
330
106A6
100
DictionaryVariables
280
     0
  1
STANDARD
  0
DICTIONARYVAR
  5
2E124
102
{ACAD_REACTORS
330
106A6
102
}
330
106A6
100
DictionaryVariables
280
     0
  1
Imperial24
  0
DICTIONARYVAR
  5
2E125
102
{ACAD_REACTORS
330
106A6
102
}
330
106A6
100
DictionaryVariables
280
     0
  1
Imperial24
  0
DICTIONARYVAR
  5
2E12C
102
{ACAD_REACTORS
330
106A6
102
}
330
106A6
100
DictionaryVariables
280
     0
  1
2
  0
DICTIONARYVAR
  5
2E12B
102
{ACAD_REACTORS
330
106A6
102
}
330
106A6
100
DictionaryVariables
280
     0
  1
2
  0
DICTIONARYVAR
  5
2E12A
102
{ACAD_REACTORS
330
106A6
102
}
330
106A6
100
DictionaryVariables
280
     0
  1
1
  0
DICTIONARYVAR
  5
2E129
102
{ACAD_REACTORS
330
106A6
102
}
330
106A6
100
DictionaryVariables
280
     0
  1
0
  0
DICTIONARYVAR
  5
2E127
102
{ACAD_REACTORS
330
106A6
102
}
330
106A6
100
DictionaryVariables
280
     0
  1
0
  0
DICTIONARYVAR
  5
2E128
102
{ACAD_REACTORS
330
106A6
102
}
330
106A6
100
DictionaryVariables
280
     0
  1
0
  0
DICTIONARYVAR
  5
2E126
102
{ACAD_REACTORS
330
106A6
102
}
330
106A6
100
DictionaryVariables
280
     0
  1
2
  0
DICTIONARYVAR
  5
2E041
102
{ACAD_REACTORS
330
106A6
102
}
330
106A6
100
DictionaryVariables
280
     0
  1
0
  0
DICTIONARYVAR
  5
106A7
102
{ACAD_REACTORS
330
106A6
102
}
330
106A6
100
DictionaryVariables
280
     0
  1
96
  0
DICTIONARYVAR
  5
2E18C
102
{ACAD_REACTORS
330
106A6
102
}
330
106A6
100
DictionaryVariables
280
     0
  1
2
  0
XRECORD
  5
1A9A1
102
{ACAD_REACTORS
330
1A99F
102
}
330
1A99F
100
AcDbXrecord
280
     1
330
187D7
330
0
330
0
330
0
330
0
330
0
330
0
330
0
330
0
330
0
330
0
330
0
330
0
330
0
330
0
330
0
330
0
330
0
330
0
330
0
330
0
330
0
330
0
330
0
330
0
330
0
330
0
330
0
330
0
330
0
330
0
330
0
330
0
330
0
330
0
330
0
330
0
330
0
330
0
330
0
330
0
330
0
330
0
330
0
  0
XRECORD
  5
2D085
102
{ACAD_REACTORS
330
28919
102
}
330
28919
100
AcDbXrecord
280
     1
290
     1
290
     1
  0
XRECORD
  5
2D089
102
{ACAD_REACTORS
330
28919
102
}
330
28919
100
AcDbXrecord
280
     1
290
     0
290
     1
  0
XRECORD
  5
2D08C
102
{ACAD_REACTORS
330
28919
102
}
330
28919
100
AcDbXrecord
280
     1
290
     0
290
     0
  0
XRECORD
  5
2D851
102
{ACAD_REACTORS
330
28919
102
}
330
28919
100
AcDbXrecord
280
     1
290
     0
290
     1
  0
XRECORD
  5
2D852
102
{ACAD_REACTORS
330
28919
102
}
330
28919
100
AcDbXrecord
280
     1
290
     0
290
     0
  0
XRECORD
  5
2D853
102
{ACAD_REACTORS
330
28919
102
}
330
28919
100
AcDbXrecord
280
     1
290
     0
290
     1
  0
XRECORD
  5
2D8F0
102
{ACAD_REACTORS
330
28919
102
}
330
28919
100
AcDbXrecord
280
     1
290
     1
290
     1
  0
XRECORD
  5
2D8F1
102
{ACAD_REACTORS
330
28919
102
}
330
28919
100
AcDbXrecord
280
     1
290
     1
290
     0
  0
XRECORD
  5
2DDCA
102
{ACAD_REACTORS
330
28919
102
}
330
28919
100
AcDbXrecord
280
     1
290
     1
290
     1
  0
XRECORD
  5
2DE23
102
{ACAD_REACTORS
330
28919
102
}
330
28919
100
AcDbXrecord
280
     1
290
     0
290
     0
  0
XRECORD
  5
2E0AB
102
{ACAD_REACTORS
330
2E0AA
102
}
330
2E0AA
100
AcDbXrecord
280
     1
  1
AcLyLayerFilter
 90
        1
300
0
301
NAME=="*0"
  0
XRECORD
  5
2E0B0
102
{ACAD_REACTORS
330
2E0AA
102
}
330
2E0AA
100
AcDbXrecord
280
     1
  1
AcLyLayerFilter
 90
        1
300
171_
301
NAME=="171_*"
  0
XRECORD
  5
2E0B1
102
{ACAD_REACTORS
330
2E0AA
102
}
330
2E0AA
100
AcDbXrecord
280
     1
  1
AcLyLayerFilter
 90
        1
300
350_
301
NAME=="350_*"
  0
XRECORD
  5
2E0B2
102
{ACAD_REACTORS
330
2E0AA
102
}
330
2E0AA
100
AcDbXrecord
280
     1
  1
AcLyLayerFilter
 90
        1
300
4
301
NAME=="*4"
  0
XRECORD
  5
2E0B3
102
{ACAD_REACTORS
330
2E0AA
102
}
330
2E0AA
100
AcDbXrecord
280
     1
  1
AcLyLayerFilter
 90
        1
300
5
301
NAME=="*5"
  0
XRECORD
  5
2E0B4
102
{ACAD_REACTORS
330
2E0AA
102
}
330
2E0AA
100
AcDbXrecord
280
     1
  1
AcLyLayerFilter
 90
        1
300
7
301
NAME=="*7"
  0
XRECORD
  5
2E0B5
102
{ACAD_REACTORS
330
2E0AA
102
}
330
2E0AA
100
AcDbXrecord
280
     1
  1
AcLyLayerFilter
 90
        1
300
kiseki
301
NAME=="kiseki*"
  0
XRECORD
  5
2E0AC
102
{ACAD_REACTORS
330
2E0AA
102
}
330
2E0AA
100
AcDbXrecord
280
     1
  1
AcLyLayerFilter
 90
        1
300
11
301
NAME=="*11"
  0
XRECORD
  5
2E0AD
102
{ACAD_REACTORS
330
2E0AA
102
}
330
2E0AA
100
AcDbXrecord
280
     1
  1
AcLyLayerFilter
 90
        1
300
150_
301
NAME=="150_*"
  0
XRECORD
  5
2E0AE
102
{ACAD_REACTORS
330
2E0AA
102
}
330
2E0AA
100
AcDbXrecord
280
     1
  1
AcLyLayerFilter
 90
        1
300
160_
301
NAME=="160_*"
  0
XRECORD
  5
2E0AF
102
{ACAD_REACTORS
330
2E0AA
102
}
330
2E0AA
100
AcDbXrecord
280
     1
  1
AcLyLayerFilter
 90
        1
300
170_
301
NAME=="170_*"
  0
DICTIONARY
  5
2E1D1
330
2E0C2
100
AcDbDictionary
280
     1
281
     1
  3
ACAD_XREC_ROUNDTRIP
360
2E1D2
  0
DICTIONARY
  5
2E192
330
FB5D
100
AcDbDictionary
280
     1
281
     1
  3
ACAD_XREC_ROUNDTRIP
360
2E193
  0
DICTIONARY
  5
2E1C9
330
2E07D
100
AcDbDictionary
280
     1
281
     1
  3
ACAD_XREC_ROUNDTRIP
360
2E1CA
  0
DICTIONARY
  5
2E0B9
330
2E0B8
100
AcDbDictionary
280
     1
281
     1
  3
ACAD_XREC_ROUNDTRIP
360
2E1CE
  3
BUMPTILE
360
2E0BB
  3
DIFFUSETILE
360
2E0BA
  3
OPACITYTILE
360
2E0BE
  3
REFLECTIONTILE
360
2E0BD
  3
REFRACTIONTILE
360
2E0BF
  3
SPECULARTILE
360
2E0BC
  0
DICTIONARY
  5
2E1C4
330
2E036
100
AcDbDictionary
280
     1
281
     1
  3
ACAD_XREC_ROUNDTRIP
360
2E1C5
  0
DICTIONARY
  5
2E1C6
330
2E038
100
AcDbDictionary
280
     1
281
     1
  3
ACAD_XREC_ROUNDTRIP
360
2E1C7
  0
DICTIONARY
  5
2E1CF
330
2E0C1
100
AcDbDictionary
280
     1
281
     1
  3
ACAD_XREC_ROUNDTRIP
360
2E1D0
  0
DICTIONARY
  5
2E0D1
330
2E03A
100
AcDbDictionary
280
     1
281
     1
  3
ACAD_ROUNDTRIP_2008_TABLESTYLE_CELLSTYLEMAP
360
2E18D
  3
ACAD_XREC_ROUNDTRIP
360
2E1C8
  0
DICTIONARY
  5
2E19C
330
2E021
100
AcDbDictionary
280
     1
281
     1
  3
ACAD_XREC_ROUNDTRIP
360
2E19D
  0
DICTIONARY
  5
2E1A2
330
2E024
100
AcDbDictionary
280
     1
281
     1
  3
ACAD_XREC_ROUNDTRIP
360
2E1A3
  0
DICTIONARY
  5
2E1AA
330
2E028
100
AcDbDictionary
280
     1
281
     1
  3
ACAD_XREC_ROUNDTRIP
360
2E1AB
  0
DICTIONARY
  5
2E1B2
330
2E02C
100
AcDbDictionary
280
     1
281
     1
  3
ACAD_XREC_ROUNDTRIP
360
2E1B3
  0
DICTIONARY
  5
2E1A6
330
2E026
100
AcDbDictionary
280
     1
281
     1
  3
ACAD_XREC_ROUNDTRIP
360
2E1A7
  0
DICTIONARY
  5
2E1A8
330
2E027
100
AcDbDictionary
280
     1
281
     1
  3
ACAD_XREC_ROUNDTRIP
360
2E1A9
  0
DICTIONARY
  5
2E1B8
330
2E02F
100
AcDbDictionary
280
     1
281
     1
  3
ACAD_XREC_ROUNDTRIP
360
2E1B9
  0
DICTIONARY
  5
2E1B0
330
2E02B
100
AcDbDictionary
280
     1
281
     1
  3
ACAD_XREC_ROUNDTRIP
360
2E1B1
  0
DICTIONARY
  5
2E194
330
2E01D
100
AcDbDictionary
280
     1
281
     1
  3
ACAD_XREC_ROUNDTRIP
360
2E195
  0
DICTIONARY
  5
2E196
330
2E01E
100
AcDbDictionary
280
     1
281
     1
  3
ACAD_XREC_ROUNDTRIP
360
2E197
  0
DICTIONARY
  5
2E198
330
2E01F
100
AcDbDictionary
280
     1
281
     1
  3
ACAD_XREC_ROUNDTRIP
360
2E199
  0
DICTIONARY
  5
2E19A
330
2E020
100
AcDbDictionary
280
     1
281
     1
  3
ACAD_XREC_ROUNDTRIP
360
2E19B
  0
DICTIONARY
  5
2E1A0
330
2E023
100
AcDbDictionary
280
     1
281
     1
  3
ACAD_XREC_ROUNDTRIP
360
2E1A1
  0
DICTIONARY
  5
2E1B4
330
2E02D
100
AcDbDictionary
280
     1
281
     1
  3
ACAD_XREC_ROUNDTRIP
360
2E1B5
  0
DICTIONARY
  5
2E1AE
330
2E02A
100
AcDbDictionary
280
     1
281
     1
  3
ACAD_XREC_ROUNDTRIP
360
2E1AF
  0
DICTIONARY
  5
2E1B6
330
2E02E
100
AcDbDictionary
280
     1
281
     1
  3
ACAD_XREC_ROUNDTRIP
360
2E1B7
  0
DICTIONARY
  5
2E1A4
330
2E025
100
AcDbDictionary
280
     1
281
     1
  3
ACAD_XREC_ROUNDTRIP
360
2E1A5
  0
DICTIONARY
  5
2E1C2
330
2E034
100
AcDbDictionary
280
     1
281
     1
  3
ACAD_XREC_ROUNDTRIP
360
2E1C3
  0
DICTIONARY
  5
2E1C0
330
2E033
100
AcDbDictionary
280
     1
281
     1
  3
ACAD_XREC_ROUNDTRIP
360
2E1C1
  0
DICTIONARY
  5
2E1BA
330
2E030
100
AcDbDictionary
280
     1
281
     1
  3
ACAD_XREC_ROUNDTRIP
360
2E1BB
  0
DICTIONARY
  5
2E1BC
330
2E031
100
AcDbDictionary
280
     1
281
     1
  3
ACAD_XREC_ROUNDTRIP
360
2E1BD
  0
DICTIONARY
  5
2E1AC
330
2E029
100
AcDbDictionary
280
     1
281
     1
  3
ACAD_XREC_ROUNDTRIP
360
2E1AD
  0
DICTIONARY
  5
2E19E
330
2E022
100
AcDbDictionary
280
     1
281
     1
  3
ACAD_XREC_ROUNDTRIP
360
2E19F
  0
DICTIONARY
  5
2E1BE
330
2E032
100
AcDbDictionary
280
     1
281
     1
  3
ACAD_XREC_ROUNDTRIP
360
2E1BF
  0
XRECORD
  5
2E1D2
102
{ACAD_REACTORS
330
2E1D1
102
}
330
2E1D1
100
AcDbXrecord
280
     1
102
DISPLAYNAME
  1
Imperial24
102
FLAGS
 90
        0
  0
XRECORD
  5
2E193
102
{ACAD_REACTORS
330
2E192
102
}
330
2E192
100
AcDbXrecord
280
     1
102
SHADEPLOT
 70
     0
102
SHADEPLOTRESLEVEL
 70
     2
102
SHADEPLOTCUSTOMDPI
 70
   300
  0
XRECORD
  5
2E1CA
102
{ACAD_REACTORS
330
2E1C9
102
}
330
2E1C9
100
AcDbXrecord
280
     1
102
SHADEPLOT
 70
     0
102
SHADEPLOTRESLEVEL
 70
     2
102
SHADEPLOTCUSTOMDPI
 70
   300
  0
XRECORD
  5
2E1CE
102
{ACAD_REACTORS
330
2E0B9
102
}
330
2E0B9
100
AcDbXrecord
280
     1
102
MATERIAL
148
0.0
149
0.0
149
0.0
 93
        0
 94
      127
282
     0
 72
     0
 77
     0
171
     0
175
     0
179
     0
273
     0
  0
XRECORD
  5
2E0BB
102
{ACAD_REACTORS
330
2E0B9
102
}
330
2E0B9
100
AcDbXrecord
280
     1
270
     1
271
     1
  0
XRECORD
  5
2E0BA
102
{ACAD_REACTORS
330
2E0B9
102
}
330
2E0B9
100
AcDbXrecord
280
     1
270
     1
271
     1
  0
XRECORD
  5
2E0BE
102
{ACAD_REACTORS
330
2E0B9
102
}
330
2E0B9
100
AcDbXrecord
280
     1
270
     1
271
     1
  0
XRECORD
  5
2E0BD
102
{ACAD_REACTORS
330
2E0B9
102
}
330
2E0B9
100
AcDbXrecord
280
     1
270
     1
271
     1
  0
XRECORD
  5
2E0BF
102
{ACAD_REACTORS
330
2E0B9
102
}
330
2E0B9
100
AcDbXrecord
280
     1
270
     1
271
     1
  0
XRECORD
  5
2E0BC
102
{ACAD_REACTORS
330
2E0B9
102
}
330
2E0B9
100
AcDbXrecord
280
     1
270
     1
271
     1
  0
XRECORD
  5
2E1C5
102
{ACAD_REACTORS
330
2E1C4
102
}
330
2E1C4
100
AcDbXrecord
280
     1
102
MATERIAL
148
0.0
149
0.0
149
0.0
 93
        0
 94
      127
282
     0
 72
     1
 77
     1
171
     1
175
     1
179
     1
273
     0
  0
XRECORD
  5
2E1C7
102
{ACAD_REACTORS
330
2E1C6
102
}
330
2E1C6
100
AcDbXrecord
280
     1
102
MATERIAL
148
0.0
149
0.0
149
0.0
 93
        0
 94
      127
282
     0
 72
     1
 77
     1
171
     1
175
     1
179
     1
273
     0
  0
XRECORD
  5
2E1D0
102
{ACAD_REACTORS
330
2E1CF
102
}
330
2E1CF
100
AcDbXrecord
280
     1
102
DISPLAYNAME
  1
Imperial24
102
FLAGS
 90
        0
  0
CELLSTYLEMAP
  5
2E18D
102
{ACAD_REACTORS
330
2E0D1
102
}
330
2E0D1
100
AcDbCellStyleMap
 90
        3
300
CELLSTYLE
  1
TABLEFORMAT_BEGIN
 90
        5
170
     1
 91
        0
 92
    32768
 62
   257
 93
        1
300
CONTENTFORMAT
  1
CONTENTFORMAT_BEGIN
 90
        0
 91
        0
 92
        4
 93
        0
300

 40
0.0
140
1.0
 94
        5
 62
     0
340
F
144
0.25
309
CONTENTFORMAT_END
171
     1
301
MARGIN
  1
CELLMARGIN_BEGIN
 40
0.06
 40
0.06
 40
0.06
 40
0.06
 40
0.06
 40
0.06
309
CELLMARGIN_END
 94
        6
 95
        1
302
GRIDFORMAT
  1
GRIDFORMAT_BEGIN
 90
        0
 91
        1
 62
     0
 92
       -2
340
12
 93
        0
 40
0.045
309
GRIDFORMAT_END
 95
        2
302
GRIDFORMAT
  1
GRIDFORMAT_BEGIN
 90
        0
 91
        1
 62
     0
 92
       -2
340
12
 93
        0
 40
0.045
309
GRIDFORMAT_END
 95
        4
302
GRIDFORMAT
  1
GRIDFORMAT_BEGIN
 90
        0
 91
        1
 62
     0
 92
       -2
340
12
 93
        0
 40
0.045
309
GRIDFORMAT_END
 95
        8
302
GRIDFORMAT
  1
GRIDFORMAT_BEGIN
 90
        0
 91
        1
 62
     0
 92
       -2
340
12
 93
        0
 40
0.045
309
GRIDFORMAT_END
 95
       16
302
GRIDFORMAT
  1
GRIDFORMAT_BEGIN
 90
        0
 91
        1
 62
     0
 92
       -2
340
12
 93
        0
 40
0.045
309
GRIDFORMAT_END
 95
       32
302
GRIDFORMAT
  1
GRIDFORMAT_BEGIN
 90
        0
 91
        1
 62
     0
 92
       -2
340
12
 93
        0
 40
0.045
309
GRIDFORMAT_END
309
TABLEFORMAT_END
  1
CELLSTYLE_BEGIN
 90
        1
 91
        1
300
_TITLE
309
CELLSTYLE_END
300
CELLSTYLE
  1
TABLEFORMAT_BEGIN
 90
        5
170
     1
 91
        0
 92
        0
 62
   257
 93
        1
300
CONTENTFORMAT
  1
CONTENTFORMAT_BEGIN
 90
        0
 91
        0
 92
        4
 93
        0
300

 40
0.0
140
1.0
 94
        5
 62
     0
340
F
144
0.18
309
CONTENTFORMAT_END
171
     1
301
MARGIN
  1
CELLMARGIN_BEGIN
 40
0.06
 40
0.06
 40
0.06
 40
0.06
 40
0.06
 40
0.06
309
CELLMARGIN_END
 94
        6
 95
        1
302
GRIDFORMAT
  1
GRIDFORMAT_BEGIN
 90
        0
 91
        1
 62
     0
 92
       -2
340
12
 93
        0
 40
0.045
309
GRIDFORMAT_END
 95
        2
302
GRIDFORMAT
  1
GRIDFORMAT_BEGIN
 90
        0
 91
        1
 62
     0
 92
       -2
340
12
 93
        0
 40
0.045
309
GRIDFORMAT_END
 95
        4
302
GRIDFORMAT
  1
GRIDFORMAT_BEGIN
 90
        0
 91
        1
 62
     0
 92
       -2
340
12
 93
        0
 40
0.045
309
GRIDFORMAT_END
 95
        8
302
GRIDFORMAT
  1
GRIDFORMAT_BEGIN
 90
        0
 91
        1
 62
     0
 92
       -2
340
12
 93
        0
 40
0.045
309
GRIDFORMAT_END
 95
       16
302
GRIDFORMAT
  1
GRIDFORMAT_BEGIN
 90
        0
 91
        1
 62
     0
 92
       -2
340
12
 93
        0
 40
0.045
309
GRIDFORMAT_END
 95
       32
302
GRIDFORMAT
  1
GRIDFORMAT_BEGIN
 90
        0
 91
        1
 62
     0
 92
       -2
340
12
 93
        0
 40
0.045
309
GRIDFORMAT_END
309
TABLEFORMAT_END
  1
CELLSTYLE_BEGIN
 90
        2
 91
        1
300
_HEADER
309
CELLSTYLE_END
300
CELLSTYLE
  1
TABLEFORMAT_BEGIN
 90
        5
170
     1
 91
        0
 92
        0
 62
   257
 93
        1
300
CONTENTFORMAT
  1
CONTENTFORMAT_BEGIN
 90
        0
 91
        0
 92
        4
 93
        0
300

 40
0.0
140
1.0
 94
        2
 62
     0
340
F
144
0.18
309
CONTENTFORMAT_END
171
     1
301
MARGIN
  1
CELLMARGIN_BEGIN
 40
0.06
 40
0.06
 40
0.06
 40
0.06
 40
0.06
 40
0.06
309
CELLMARGIN_END
 94
        6
 95
        1
302
GRIDFORMAT
  1
GRIDFORMAT_BEGIN
 90
        0
 91
        1
 62
     0
 92
       -2
340
12
 93
        0
 40
0.045
309
GRIDFORMAT_END
 95
        2
302
GRIDFORMAT
  1
GRIDFORMAT_BEGIN
 90
        0
 91
        1
 62
     0
 92
       -2
340
12
 93
        0
 40
0.045
309
GRIDFORMAT_END
 95
        4
302
GRIDFORMAT
  1
GRIDFORMAT_BEGIN
 90
        0
 91
        1
 62
     0
 92
       -2
340
12
 93
        0
 40
0.045
309
GRIDFORMAT_END
 95
        8
302
GRIDFORMAT
  1
GRIDFORMAT_BEGIN
 90
        0
 91
        1
 62
     0
 92
       -2
340
12
 93
        0
 40
0.045
309
GRIDFORMAT_END
 95
       16
302
GRIDFORMAT
  1
GRIDFORMAT_BEGIN
 90
        0
 91
        1
 62
     0
 92
       -2
340
12
 93
        0
 40
0.045
309
GRIDFORMAT_END
 95
       32
302
GRIDFORMAT
  1
GRIDFORMAT_BEGIN
 90
        0
 91
        1
 62
     0
 92
       -2
340
12
 93
        0
 40
0.045
309
GRIDFORMAT_END
309
TABLEFORMAT_END
  1
CELLSTYLE_BEGIN
 90
        3
 91
        2
300
_DATA
309
CELLSTYLE_END
  0
XRECORD
  5
2E1C8
102
{ACAD_REACTORS
330
2E0D1
102
}
330
2E0D1
100
AcDbXrecord
280
     1
102
ACAD_ROUNDTRIP_PRE2007_TABLESTYLE
 90
        4
 91
        0
  1

 92
        4
 93
        0
  2

 94
        4
 95
        0
  3

  0
XRECORD
  5
2E19D
102
{ACAD_REACTORS
330
2E19C
102
}
330
2E19C
100
AcDbXrecord
280
     1
102
RTVSPost2010Prop28
280
     1
102
RTVSPost2010PropOp28
 70
     1
102
RTVSPost2010Prop29
280
     1
102
RTVSPost2010PropOp29
 70
     1
102
RTVSPost2010Prop30
280
     0
102
RTVSPost2010PropOp30
 70
     1
102
RTVSPost2010Prop31
280
     0
102
RTVSPost2010PropOp31
 70
     1
102
RTVSPost2010Prop32
280
     0
102
RTVSPost2010PropOp32
 70
     1
102
RTVSPost2010Prop33
280
     0
102
RTVSPost2010PropOp33
 70
     1
102
RTVSPost2010Prop34
280
     0
102
RTVSPost2010PropOp34
 70
     1
102
RTVSPost2010Prop35
280
     0
102
RTVSPost2010PropOp35
 70
     1
102
RTVSPost2010Prop36
280
     0
102
RTVSPost2010PropOp36
 70
     1
102
RTVSPost2010Prop37
 90
       50
102
RTVSPost2010PropOp37
 70
     1
102
RTVSPost2010Prop38
140
0.0
102
RTVSPost2010PropOp38
 70
     1
102
RTVSPost2010Prop39
140
1.0
102
RTVSPost2010PropOp39
 70
     1
102
RTVSPost2010Prop40
 90
        0
102
RTVSPost2010PropOp40
 70
     1
102
RTVSPost2010Prop41ColorIndex
 90
       18
102
RTVSPost2010Prop41ColorRGB
 90
        0
102
RTVSPost2010PropOp41
 70
     1
102
RTVSPost2010Prop42
 90
       50
102
RTVSPost2010PropOp42
 70
     1
102
RTVSPost2010Prop43
 90
        3
102
RTVSPost2010PropOp43
 70
     1
102
RTVSPost2010Prop44ColorIndex
 90
        5
102
RTVSPost2010Prop44ColorRGB
 90
      255
102
RTVSPost2010PropOp44
 70
     1
102
RTVSPost2010Prop45
280
     0
102
RTVSPost2010PropOp45
 70
     1
102
RTVSPost2010Prop46
 90
       50
102
RTVSPost2010PropOp46
 70
     1
102
RTVSPost2010Prop47
 90
       50
102
RTVSPost2010PropOp47
 70
     1
102
RTVSPost2010Prop48
 90
       50
102
RTVSPost2010PropOp48
 70
     1
102
RTVSPost2010Prop49
280
     0
102
RTVSPost2010PropOp49
 70
     1
102
RTVSPost2010Prop50
 90
       50
102
RTVSPost2010PropOp50
 70
     1
102
RTVSPost2010Prop51ColorIndex
 90
      256
102
RTVSPost2010Prop51ColorRGB
 90
-16777216
102
RTVSPost2010PropOp51
 70
     0
102
RTVSPost2010Prop52
140
1.0
102
RTVSPost2010PropOp52
 70
     0
102
RTVSPost2010Prop53
 90
        2
102
RTVSPost2010PropOp53
 70
     1
102
RTVSPost2010Prop54
  1
strokes_ogs.tif
102
RTVSPost2010PropOp54
 70
     1
102
RTVSPost2010Prop55
280
     0
102
RTVSPost2010PropOp55
 70
     1
102
RTVSPost2010Prop56
140
1.0
102
RTVSPost2010PropOp56
 70
     1
102
RTVSPost2010Prop57
140
1.0
102
RTVSPost2010PropOp57
 70
     1
102
RTVSPropertyOp0
 70
     1
102
RTVSPropertyOp1
 70
     1
102
RTVSPropertyOp2
 70
     1
102
RTVSPropertyOp3
 70
     1
102
RTVSPropertyOp4
 70
     1
102
RTVSPropertyOp5
 70
     1
102
RTVSPropertyOp6
 70
     1
102
RTVSPropertyOp7
 70
     1
102
RTVSPropertyOp8
 70
     1
102
RTVSPropertyOp9
 70
     1
102
RTVSPropertyOp10
 70
     1
102
RTVSPropertyOp11
 70
     1
102
RTVSPropertyOp12
 70
     1
102
RTVSPropertyOp13
 70
     1
102
RTVSPropertyOp14
 70
     1
102
RTVSPropertyOp15
 70
     1
102
RTVSPropertyOp16
 70
     1
102
RTVSPropertyOp17
 70
     1
102
RTVSPropertyOp18
 70
     1
102
RTVSPropertyOp19
 70
     1
102
RTVSPropertyOp20
 70
     1
102
RTVSPropertyOp21
 70
     1
102
RTVSPropertyOp22
 70
     1
102
RTVSPropertyOp23
 70
     1
102
RTVSPropertyOp24
 70
     1
102
RTVSPropertyOp25
 70
     1
102
RTVSPropertyOp26
 70
     1
102
RTVSPropertyOp27
 70
     1
102
RTVSPropertyOp28
 70
     1
102
RTVSPropertyOp29
 70
     1
102
RTVSPropertyOp30
 70
     1
102
RTVSPropertyOp31
 70
     1
102
RTVSPropertyOp32
 70
     1
102
RTVSPropertyOp33
 70
     1
102
RTVSPropertyOp34
 70
     1
102
RTVSPropertyOp35
 70
     1
102
RTVSPropertyOp36
 70
     1
102
RTVSPropertyOp37
 70
     1
102
RTVSPropertyOp38
 70
     1
102
RTVSPropertyOp39
 70
     1
102
RTVSPropertyOp40
 70
     1
102
RTVSPropertyOp41
 70
     1
102
RTVSPropertyOp42
 70
     1
102
RTVSPropertyOp43
 70
     1
102
RTVSPropertyOp44
 70
     1
102
RTVSPropertyOp45
 70
     1
102
RTVSPropertyOp46
 70
     1
102
RTVSPropertyOp47
 70
     1
102
RTVSPropertyOp48
 70
     1
102
RTVSPropertyOp49
 70
     1
102
RTVSPropertyOp50
 70
     1
102
RTVSPropertyOp51
 70
     0
102
RTVSPropertyOp52
 70
     0
102
RTVSPropertyOp53
 70
     1
102
RTVSPropertyOp54
 70
     1
102
RTVSPropertyOp55
 70
     1
102
RTVSPropertyOp56
 70
     1
102
RTVSPropertyOp57
 70
     1
102
RTVSPropertyOp58
 70
     1
102
RTVSPropertyOp59
 70
     1
102
RTVSPropertyOp60
 70
     1
102
RTVSPropertyOp61
 70
     1
102
RTVSPropertyOp62
 70
     1
  0
XRECORD
  5
2E1A3
102
{ACAD_REACTORS
330
2E1A2
102
}
330
2E1A2
100
AcDbXrecord
280
     1
102
RTVSPost2010Prop28
280
     0
102
RTVSPost2010PropOp28
 70
     1
102
RTVSPost2010Prop29
280
     1
102
RTVSPost2010PropOp29
 70
     1
102
RTVSPost2010Prop30
280
     1
102
RTVSPost2010PropOp30
 70
     1
102
RTVSPost2010Prop31
280
     0
102
RTVSPost2010PropOp31
 70
     1
102
RTVSPost2010Prop32
280
     0
102
RTVSPost2010PropOp32
 70
     1
102
RTVSPost2010Prop33
280
     0
102
RTVSPost2010PropOp33
 70
     1
102
RTVSPost2010Prop34
280
     0
102
RTVSPost2010PropOp34
 70
     1
102
RTVSPost2010Prop35
280
     0
102
RTVSPost2010PropOp35
 70
     1
102
RTVSPost2010Prop36
280
     0
102
RTVSPost2010PropOp36
 70
     1
102
RTVSPost2010Prop37
 90
       50
102
RTVSPost2010PropOp37
 70
     1
102
RTVSPost2010Prop38
140
0.0
102
RTVSPost2010PropOp38
 70
     1
102
RTVSPost2010Prop39
140
1.0
102
RTVSPost2010PropOp39
 70
     1
102
RTVSPost2010Prop40
 90
        0
102
RTVSPost2010PropOp40
 70
     1
102
RTVSPost2010Prop41ColorIndex
 90
       18
102
RTVSPost2010Prop41ColorRGB
 90
        0
102
RTVSPost2010PropOp41
 70
     1
102
RTVSPost2010Prop42
 90
       50
102
RTVSPost2010PropOp42
 70
     1
102
RTVSPost2010Prop43
 90
        3
102
RTVSPost2010PropOp43
 70
     1
102
RTVSPost2010Prop44ColorIndex
 90
        5
102
RTVSPost2010Prop44ColorRGB
 90
      255
102
RTVSPost2010PropOp44
 70
     1
102
RTVSPost2010Prop45
280
     0
102
RTVSPost2010PropOp45
 70
     1
102
RTVSPost2010Prop46
 90
       50
102
RTVSPost2010PropOp46
 70
     1
102
RTVSPost2010Prop47
 90
       50
102
RTVSPost2010PropOp47
 70
     1
102
RTVSPost2010Prop48
 90
       50
102
RTVSPost2010PropOp48
 70
     1
102
RTVSPost2010Prop49
280
     0
102
RTVSPost2010PropOp49
 70
     1
102
RTVSPost2010Prop50
 90
       50
102
RTVSPost2010PropOp50
 70
     1
102
RTVSPost2010Prop51ColorIndex
 90
      256
102
RTVSPost2010Prop51ColorRGB
 90
-16777216
102
RTVSPost2010PropOp51
 70
     0
102
RTVSPost2010Prop52
140
1.0
102
RTVSPost2010PropOp52
 70
     0
102
RTVSPost2010Prop53
 90
        2
102
RTVSPost2010PropOp53
 70
     1
102
RTVSPost2010Prop54
  1
strokes_ogs.tif
102
RTVSPost2010PropOp54
 70
     1
102
RTVSPost2010Prop55
280
     0
102
RTVSPost2010PropOp55
 70
     1
102
RTVSPost2010Prop56
140
1.0
102
RTVSPost2010PropOp56
 70
     1
102
RTVSPost2010Prop57
140
1.0
102
RTVSPost2010PropOp57
 70
     1
102
RTVSPropertyOp0
 70
     1
102
RTVSPropertyOp1
 70
     1
102
RTVSPropertyOp2
 70
     1
102
RTVSPropertyOp3
 70
     1
102
RTVSPropertyOp4
 70
     1
102
RTVSPropertyOp5
 70
     1
102
RTVSPropertyOp6
 70
     1
102
RTVSPropertyOp7
 70
     1
102
RTVSPropertyOp8
 70
     1
102
RTVSPropertyOp9
 70
     1
102
RTVSPropertyOp10
 70
     1
102
RTVSPropertyOp11
 70
     1
102
RTVSPropertyOp12
 70
     1
102
RTVSPropertyOp13
 70
     1
102
RTVSPropertyOp14
 70
     1
102
RTVSPropertyOp15
 70
     1
102
RTVSPropertyOp16
 70
     1
102
RTVSPropertyOp17
 70
     1
102
RTVSPropertyOp18
 70
     1
102
RTVSPropertyOp19
 70
     1
102
RTVSPropertyOp20
 70
     1
102
RTVSPropertyOp21
 70
     1
102
RTVSPropertyOp22
 70
     1
102
RTVSPropertyOp23
 70
     1
102
RTVSPropertyOp24
 70
     1
102
RTVSPropertyOp25
 70
     1
102
RTVSPropertyOp26
 70
     1
102
RTVSPropertyOp27
 70
     1
102
RTVSPropertyOp28
 70
     1
102
RTVSPropertyOp29
 70
     1
102
RTVSPropertyOp30
 70
     1
102
RTVSPropertyOp31
 70
     1
102
RTVSPropertyOp32
 70
     1
102
RTVSPropertyOp33
 70
     1
102
RTVSPropertyOp34
 70
     1
102
RTVSPropertyOp35
 70
     1
102
RTVSPropertyOp36
 70
     1
102
RTVSPropertyOp37
 70
     1
102
RTVSPropertyOp38
 70
     1
102
RTVSPropertyOp39
 70
     1
102
RTVSPropertyOp40
 70
     1
102
RTVSPropertyOp41
 70
     1
102
RTVSPropertyOp42
 70
     1
102
RTVSPropertyOp43
 70
     1
102
RTVSPropertyOp44
 70
     1
102
RTVSPropertyOp45
 70
     1
102
RTVSPropertyOp46
 70
     1
102
RTVSPropertyOp47
 70
     1
102
RTVSPropertyOp48
 70
     1
102
RTVSPropertyOp49
 70
     1
102
RTVSPropertyOp50
 70
     1
102
RTVSPropertyOp51
 70
     0
102
RTVSPropertyOp52
 70
     0
102
RTVSPropertyOp53
 70
     1
102
RTVSPropertyOp54
 70
     1
102
RTVSPropertyOp55
 70
     1
102
RTVSPropertyOp56
 70
     1
102
RTVSPropertyOp57
 70
     1
102
RTVSPropertyOp58
 70
     1
102
RTVSPropertyOp59
 70
     1
102
RTVSPropertyOp60
 70
     1
102
RTVSPropertyOp61
 70
     1
102
RTVSPropertyOp62
 70
     1
  0
XRECORD
  5
2E1AB
102
{ACAD_REACTORS
330
2E1AA
102
}
330
2E1AA
100
AcDbXrecord
280
     1
102
RTVSPost2010Prop28
280
     0
102
RTVSPost2010PropOp28
 70
     1
102
RTVSPost2010Prop29
280
     1
102
RTVSPost2010PropOp29
 70
     1
102
RTVSPost2010Prop30
280
     1
102
RTVSPost2010PropOp30
 70
     1
102
RTVSPost2010Prop31
280
     0
102
RTVSPost2010PropOp31
 70
     1
102
RTVSPost2010Prop32
280
     0
102
RTVSPost2010PropOp32
 70
     1
102
RTVSPost2010Prop33
280
     0
102
RTVSPost2010PropOp33
 70
     1
102
RTVSPost2010Prop34
280
     0
102
RTVSPost2010PropOp34
 70
     1
102
RTVSPost2010Prop35
280
     0
102
RTVSPost2010PropOp35
 70
     1
102
RTVSPost2010Prop36
280
     0
102
RTVSPost2010PropOp36
 70
     1
102
RTVSPost2010Prop37
 90
       50
102
RTVSPost2010PropOp37
 70
     1
102
RTVSPost2010Prop38
140
0.0
102
RTVSPost2010PropOp38
 70
     1
102
RTVSPost2010Prop39
140
1.0
102
RTVSPost2010PropOp39
 70
     1
102
RTVSPost2010Prop40
 90
        0
102
RTVSPost2010PropOp40
 70
     1
102
RTVSPost2010Prop41ColorIndex
 90
       18
102
RTVSPost2010Prop41ColorRGB
 90
        0
102
RTVSPost2010PropOp41
 70
     1
102
RTVSPost2010Prop42
 90
       50
102
RTVSPost2010PropOp42
 70
     1
102
RTVSPost2010Prop43
 90
        3
102
RTVSPost2010PropOp43
 70
     1
102
RTVSPost2010Prop44ColorIndex
 90
        5
102
RTVSPost2010Prop44ColorRGB
 90
      255
102
RTVSPost2010PropOp44
 70
     1
102
RTVSPost2010Prop45
280
     0
102
RTVSPost2010PropOp45
 70
     1
102
RTVSPost2010Prop46
 90
       50
102
RTVSPost2010PropOp46
 70
     1
102
RTVSPost2010Prop47
 90
       50
102
RTVSPost2010PropOp47
 70
     1
102
RTVSPost2010Prop48
 90
       50
102
RTVSPost2010PropOp48
 70
     1
102
RTVSPost2010Prop49
280
     0
102
RTVSPost2010PropOp49
 70
     1
102
RTVSPost2010Prop50
 90
       50
102
RTVSPost2010PropOp50
 70
     1
102
RTVSPost2010Prop51ColorIndex
 90
      256
102
RTVSPost2010Prop51ColorRGB
 90
-16777216
102
RTVSPost2010PropOp51
 70
     0
102
RTVSPost2010Prop52
140
1.0
102
RTVSPost2010PropOp52
 70
     0
102
RTVSPost2010Prop53
 90
        2
102
RTVSPost2010PropOp53
 70
     1
102
RTVSPost2010Prop54
  1
strokes_ogs.tif
102
RTVSPost2010PropOp54
 70
     1
102
RTVSPost2010Prop55
280
     0
102
RTVSPost2010PropOp55
 70
     1
102
RTVSPost2010Prop56
140
1.0
102
RTVSPost2010PropOp56
 70
     1
102
RTVSPost2010Prop57
140
1.0
102
RTVSPost2010PropOp57
 70
     1
102
RTVSPropertyOp0
 70
     1
102
RTVSPropertyOp1
 70
     1
102
RTVSPropertyOp2
 70
     1
102
RTVSPropertyOp3
 70
     1
102
RTVSPropertyOp4
 70
     1
102
RTVSPropertyOp5
 70
     1
102
RTVSPropertyOp6
 70
     1
102
RTVSPropertyOp7
 70
     1
102
RTVSPropertyOp8
 70
     1
102
RTVSPropertyOp9
 70
     1
102
RTVSPropertyOp10
 70
     1
102
RTVSPropertyOp11
 70
     1
102
RTVSPropertyOp12
 70
     1
102
RTVSPropertyOp13
 70
     1
102
RTVSPropertyOp14
 70
     1
102
RTVSPropertyOp15
 70
     1
102
RTVSPropertyOp16
 70
     1
102
RTVSPropertyOp17
 70
     1
102
RTVSPropertyOp18
 70
     1
102
RTVSPropertyOp19
 70
     1
102
RTVSPropertyOp20
 70
     1
102
RTVSPropertyOp21
 70
     1
102
RTVSPropertyOp22
 70
     1
102
RTVSPropertyOp23
 70
     1
102
RTVSPropertyOp24
 70
     1
102
RTVSPropertyOp25
 70
     1
102
RTVSPropertyOp26
 70
     1
102
RTVSPropertyOp27
 70
     1
102
RTVSPropertyOp28
 70
     1
102
RTVSPropertyOp29
 70
     1
102
RTVSPropertyOp30
 70
     1
102
RTVSPropertyOp31
 70
     1
102
RTVSPropertyOp32
 70
     1
102
RTVSPropertyOp33
 70
     1
102
RTVSPropertyOp34
 70
     1
102
RTVSPropertyOp35
 70
     1
102
RTVSPropertyOp36
 70
     1
102
RTVSPropertyOp37
 70
     1
102
RTVSPropertyOp38
 70
     1
102
RTVSPropertyOp39
 70
     1
102
RTVSPropertyOp40
 70
     1
102
RTVSPropertyOp41
 70
     1
102
RTVSPropertyOp42
 70
     1
102
RTVSPropertyOp43
 70
     1
102
RTVSPropertyOp44
 70
     1
102
RTVSPropertyOp45
 70
     1
102
RTVSPropertyOp46
 70
     1
102
RTVSPropertyOp47
 70
     1
102
RTVSPropertyOp48
 70
     1
102
RTVSPropertyOp49
 70
     1
102
RTVSPropertyOp50
 70
     1
102
RTVSPropertyOp51
 70
     0
102
RTVSPropertyOp52
 70
     0
102
RTVSPropertyOp53
 70
     1
102
RTVSPropertyOp54
 70
     1
102
RTVSPropertyOp55
 70
     1
102
RTVSPropertyOp56
 70
     1
102
RTVSPropertyOp57
 70
     1
102
RTVSPropertyOp58
 70
     1
102
RTVSPropertyOp59
 70
     1
102
RTVSPropertyOp60
 70
     1
102
RTVSPropertyOp61
 70
     1
102
RTVSPropertyOp62
 70
     1
  0
XRECORD
  5
2E1B3
102
{ACAD_REACTORS
330
2E1B2
102
}
330
2E1B2
100
AcDbXrecord
280
     1
102
RTVSPost2010Prop28
280
     0
102
RTVSPost2010PropOp28
 70
     1
102
RTVSPost2010Prop29
280
     1
102
RTVSPost2010PropOp29
 70
     1
102
RTVSPost2010Prop30
280
     1
102
RTVSPost2010PropOp30
 70
     1
102
RTVSPost2010Prop31
280
     0
102
RTVSPost2010PropOp31
 70
     1
102
RTVSPost2010Prop32
280
     0
102
RTVSPost2010PropOp32
 70
     1
102
RTVSPost2010Prop33
280
     0
102
RTVSPost2010PropOp33
 70
     1
102
RTVSPost2010Prop34
280
     0
102
RTVSPost2010PropOp34
 70
     1
102
RTVSPost2010Prop35
280
     0
102
RTVSPost2010PropOp35
 70
     1
102
RTVSPost2010Prop36
280
     0
102
RTVSPost2010PropOp36
 70
     1
102
RTVSPost2010Prop37
 90
       50
102
RTVSPost2010PropOp37
 70
     1
102
RTVSPost2010Prop38
140
0.0
102
RTVSPost2010PropOp38
 70
     1
102
RTVSPost2010Prop39
140
1.0
102
RTVSPost2010PropOp39
 70
     1
102
RTVSPost2010Prop40
 90
        0
102
RTVSPost2010PropOp40
 70
     1
102
RTVSPost2010Prop41ColorIndex
 90
       18
102
RTVSPost2010Prop41ColorRGB
 90
        0
102
RTVSPost2010PropOp41
 70
     1
102
RTVSPost2010Prop42
 90
       50
102
RTVSPost2010PropOp42
 70
     1
102
RTVSPost2010Prop43
 90
        3
102
RTVSPost2010PropOp43
 70
     1
102
RTVSPost2010Prop44ColorIndex
 90
        5
102
RTVSPost2010Prop44ColorRGB
 90
      255
102
RTVSPost2010PropOp44
 70
     1
102
RTVSPost2010Prop45
280
     0
102
RTVSPost2010PropOp45
 70
     1
102
RTVSPost2010Prop46
 90
       50
102
RTVSPost2010PropOp46
 70
     1
102
RTVSPost2010Prop47
 90
       50
102
RTVSPost2010PropOp47
 70
     1
102
RTVSPost2010Prop48
 90
       50
102
RTVSPost2010PropOp48
 70
     1
102
RTVSPost2010Prop49
280
     0
102
RTVSPost2010PropOp49
 70
     1
102
RTVSPost2010Prop50
 90
       50
102
RTVSPost2010PropOp50
 70
     1
102
RTVSPost2010Prop51ColorIndex
 90
      256
102
RTVSPost2010Prop51ColorRGB
 90
-16777216
102
RTVSPost2010PropOp51
 70
     0
102
RTVSPost2010Prop52
140
1.0
102
RTVSPost2010PropOp52
 70
     0
102
RTVSPost2010Prop53
 90
        2
102
RTVSPost2010PropOp53
 70
     1
102
RTVSPost2010Prop54
  1
strokes_ogs.tif
102
RTVSPost2010PropOp54
 70
     1
102
RTVSPost2010Prop55
280
     0
102
RTVSPost2010PropOp55
 70
     1
102
RTVSPost2010Prop56
140
1.0
102
RTVSPost2010PropOp56
 70
     1
102
RTVSPost2010Prop57
140
1.0
102
RTVSPost2010PropOp57
 70
     1
102
RTVSPropertyOp0
 70
     1
102
RTVSPropertyOp1
 70
     1
102
RTVSPropertyOp2
 70
     1
102
RTVSPropertyOp3
 70
     1
102
RTVSPropertyOp4
 70
     1
102
RTVSPropertyOp5
 70
     1
102
RTVSPropertyOp6
 70
     1
102
RTVSPropertyOp7
 70
     1
102
RTVSPropertyOp8
 70
     1
102
RTVSPropertyOp9
 70
     1
102
RTVSPropertyOp10
 70
     1
102
RTVSPropertyOp11
 70
     1
102
RTVSPropertyOp12
 70
     1
102
RTVSPropertyOp13
 70
     1
102
RTVSPropertyOp14
 70
     1
102
RTVSPropertyOp15
 70
     1
102
RTVSPropertyOp16
 70
     1
102
RTVSPropertyOp17
 70
     1
102
RTVSPropertyOp18
 70
     1
102
RTVSPropertyOp19
 70
     1
102
RTVSPropertyOp20
 70
     1
102
RTVSPropertyOp21
 70
     1
102
RTVSPropertyOp22
 70
     1
102
RTVSPropertyOp23
 70
     1
102
RTVSPropertyOp24
 70
     1
102
RTVSPropertyOp25
 70
     1
102
RTVSPropertyOp26
 70
     1
102
RTVSPropertyOp27
 70
     1
102
RTVSPropertyOp28
 70
     1
102
RTVSPropertyOp29
 70
     1
102
RTVSPropertyOp30
 70
     1
102
RTVSPropertyOp31
 70
     1
102
RTVSPropertyOp32
 70
     1
102
RTVSPropertyOp33
 70
     1
102
RTVSPropertyOp34
 70
     1
102
RTVSPropertyOp35
 70
     1
102
RTVSPropertyOp36
 70
     1
102
RTVSPropertyOp37
 70
     1
102
RTVSPropertyOp38
 70
     1
102
RTVSPropertyOp39
 70
     1
102
RTVSPropertyOp40
 70
     1
102
RTVSPropertyOp41
 70
     1
102
RTVSPropertyOp42
 70
     1
102
RTVSPropertyOp43
 70
     1
102
RTVSPropertyOp44
 70
     1
102
RTVSPropertyOp45
 70
     1
102
RTVSPropertyOp46
 70
     1
102
RTVSPropertyOp47
 70
     1
102
RTVSPropertyOp48
 70
     1
102
RTVSPropertyOp49
 70
     1
102
RTVSPropertyOp50
 70
     1
102
RTVSPropertyOp51
 70
     0
102
RTVSPropertyOp52
 70
     0
102
RTVSPropertyOp53
 70
     1
102
RTVSPropertyOp54
 70
     1
102
RTVSPropertyOp55
 70
     1
102
RTVSPropertyOp56
 70
     1
102
RTVSPropertyOp57
 70
     1
102
RTVSPropertyOp58
 70
     1
102
RTVSPropertyOp59
 70
     1
102
RTVSPropertyOp60
 70
     1
102
RTVSPropertyOp61
 70
     1
102
RTVSPropertyOp62
 70
     1
  0
XRECORD
  5
2E1A7
102
{ACAD_REACTORS
330
2E1A6
102
}
330
2E1A6
100
AcDbXrecord
280
     1
102
RTVSPost2010Prop28
280
     0
102
RTVSPost2010PropOp28
 70
     1
102
RTVSPost2010Prop29
280
     1
102
RTVSPost2010PropOp29
 70
     1
102
RTVSPost2010Prop30
280
     1
102
RTVSPost2010PropOp30
 70
     1
102
RTVSPost2010Prop31
280
     0
102
RTVSPost2010PropOp31
 70
     1
102
RTVSPost2010Prop32
280
     0
102
RTVSPost2010PropOp32
 70
     1
102
RTVSPost2010Prop33
280
     0
102
RTVSPost2010PropOp33
 70
     1
102
RTVSPost2010Prop34
280
     0
102
RTVSPost2010PropOp34
 70
     1
102
RTVSPost2010Prop35
280
     0
102
RTVSPost2010PropOp35
 70
     1
102
RTVSPost2010Prop36
280
     0
102
RTVSPost2010PropOp36
 70
     1
102
RTVSPost2010Prop37
 90
       50
102
RTVSPost2010PropOp37
 70
     1
102
RTVSPost2010Prop38
140
0.0
102
RTVSPost2010PropOp38
 70
     1
102
RTVSPost2010Prop39
140
1.0
102
RTVSPost2010PropOp39
 70
     1
102
RTVSPost2010Prop40
 90
        0
102
RTVSPost2010PropOp40
 70
     1
102
RTVSPost2010Prop41ColorIndex
 90
       18
102
RTVSPost2010Prop41ColorRGB
 90
        0
102
RTVSPost2010PropOp41
 70
     1
102
RTVSPost2010Prop42
 90
       50
102
RTVSPost2010PropOp42
 70
     1
102
RTVSPost2010Prop43
 90
        3
102
RTVSPost2010PropOp43
 70
     1
102
RTVSPost2010Prop44ColorIndex
 90
        5
102
RTVSPost2010Prop44ColorRGB
 90
      255
102
RTVSPost2010PropOp44
 70
     1
102
RTVSPost2010Prop45
280
     0
102
RTVSPost2010PropOp45
 70
     1
102
RTVSPost2010Prop46
 90
       50
102
RTVSPost2010PropOp46
 70
     1
102
RTVSPost2010Prop47
 90
       50
102
RTVSPost2010PropOp47
 70
     1
102
RTVSPost2010Prop48
 90
       50
102
RTVSPost2010PropOp48
 70
     1
102
RTVSPost2010Prop49
280
     0
102
RTVSPost2010PropOp49
 70
     1
102
RTVSPost2010Prop50
 90
       50
102
RTVSPost2010PropOp50
 70
     1
102
RTVSPost2010Prop51ColorIndex
 90
      256
102
RTVSPost2010Prop51ColorRGB
 90
-16777216
102
RTVSPost2010PropOp51
 70
     0
102
RTVSPost2010Prop52
140
1.0
102
RTVSPost2010PropOp52
 70
     0
102
RTVSPost2010Prop53
 90
        2
102
RTVSPost2010PropOp53
 70
     1
102
RTVSPost2010Prop54
  1
strokes_ogs.tif
102
RTVSPost2010PropOp54
 70
     1
102
RTVSPost2010Prop55
280
     0
102
RTVSPost2010PropOp55
 70
     1
102
RTVSPost2010Prop56
140
1.0
102
RTVSPost2010PropOp56
 70
     1
102
RTVSPost2010Prop57
140
1.0
102
RTVSPost2010PropOp57
 70
     1
102
RTVSPropertyOp0
 70
     1
102
RTVSPropertyOp1
 70
     1
102
RTVSPropertyOp2
 70
     1
102
RTVSPropertyOp3
 70
     1
102
RTVSPropertyOp4
 70
     1
102
RTVSPropertyOp5
 70
     1
102
RTVSPropertyOp6
 70
     1
102
RTVSPropertyOp7
 70
     1
102
RTVSPropertyOp8
 70
     1
102
RTVSPropertyOp9
 70
     1
102
RTVSPropertyOp10
 70
     1
102
RTVSPropertyOp11
 70
     1
102
RTVSPropertyOp12
 70
     1
102
RTVSPropertyOp13
 70
     1
102
RTVSPropertyOp14
 70
     1
102
RTVSPropertyOp15
 70
     1
102
RTVSPropertyOp16
 70
     1
102
RTVSPropertyOp17
 70
     1
102
RTVSPropertyOp18
 70
     1
102
RTVSPropertyOp19
 70
     1
102
RTVSPropertyOp20
 70
     1
102
RTVSPropertyOp21
 70
     1
102
RTVSPropertyOp22
 70
     1
102
RTVSPropertyOp23
 70
     1
102
RTVSPropertyOp24
 70
     1
102
RTVSPropertyOp25
 70
     1
102
RTVSPropertyOp26
 70
     1
102
RTVSPropertyOp27
 70
     1
102
RTVSPropertyOp28
 70
     1
102
RTVSPropertyOp29
 70
     1
102
RTVSPropertyOp30
 70
     1
102
RTVSPropertyOp31
 70
     1
102
RTVSPropertyOp32
 70
     1
102
RTVSPropertyOp33
 70
     1
102
RTVSPropertyOp34
 70
     1
102
RTVSPropertyOp35
 70
     1
102
RTVSPropertyOp36
 70
     1
102
RTVSPropertyOp37
 70
     1
102
RTVSPropertyOp38
 70
     1
102
RTVSPropertyOp39
 70
     1
102
RTVSPropertyOp40
 70
     1
102
RTVSPropertyOp41
 70
     1
102
RTVSPropertyOp42
 70
     1
102
RTVSPropertyOp43
 70
     1
102
RTVSPropertyOp44
 70
     1
102
RTVSPropertyOp45
 70
     1
102
RTVSPropertyOp46
 70
     1
102
RTVSPropertyOp47
 70
     1
102
RTVSPropertyOp48
 70
     1
102
RTVSPropertyOp49
 70
     1
102
RTVSPropertyOp50
 70
     1
102
RTVSPropertyOp51
 70
     0
102
RTVSPropertyOp52
 70
     0
102
RTVSPropertyOp53
 70
     1
102
RTVSPropertyOp54
 70
     1
102
RTVSPropertyOp55
 70
     1
102
RTVSPropertyOp56
 70
     1
102
RTVSPropertyOp57
 70
     1
102
RTVSPropertyOp58
 70
     1
102
RTVSPropertyOp59
 70
     1
102
RTVSPropertyOp60
 70
     1
102
RTVSPropertyOp61
 70
     1
102
RTVSPropertyOp62
 70
     1
  0
XRECORD
  5
2E1A9
102
{ACAD_REACTORS
330
2E1A8
102
}
330
2E1A8
100
AcDbXrecord
280
     1
102
RTVSPost2010Prop28
280
     0
102
RTVSPost2010PropOp28
 70
     1
102
RTVSPost2010Prop29
280
     1
102
RTVSPost2010PropOp29
 70
     1
102
RTVSPost2010Prop30
280
     1
102
RTVSPost2010PropOp30
 70
     1
102
RTVSPost2010Prop31
280
     0
102
RTVSPost2010PropOp31
 70
     1
102
RTVSPost2010Prop32
280
     0
102
RTVSPost2010PropOp32
 70
     1
102
RTVSPost2010Prop33
280
     0
102
RTVSPost2010PropOp33
 70
     1
102
RTVSPost2010Prop34
280
     0
102
RTVSPost2010PropOp34
 70
     1
102
RTVSPost2010Prop35
280
     0
102
RTVSPost2010PropOp35
 70
     1
102
RTVSPost2010Prop36
280
     0
102
RTVSPost2010PropOp36
 70
     1
102
RTVSPost2010Prop37
 90
       50
102
RTVSPost2010PropOp37
 70
     1
102
RTVSPost2010Prop38
140
0.0
102
RTVSPost2010PropOp38
 70
     1
102
RTVSPost2010Prop39
140
1.0
102
RTVSPost2010PropOp39
 70
     1
102
RTVSPost2010Prop40
 90
        0
102
RTVSPost2010PropOp40
 70
     1
102
RTVSPost2010Prop41ColorIndex
 90
       18
102
RTVSPost2010Prop41ColorRGB
 90
        0
102
RTVSPost2010PropOp41
 70
     1
102
RTVSPost2010Prop42
 90
       50
102
RTVSPost2010PropOp42
 70
     1
102
RTVSPost2010Prop43
 90
        3
102
RTVSPost2010PropOp43
 70
     1
102
RTVSPost2010Prop44ColorIndex
 90
        5
102
RTVSPost2010Prop44ColorRGB
 90
      255
102
RTVSPost2010PropOp44
 70
     1
102
RTVSPost2010Prop45
280
     0
102
RTVSPost2010PropOp45
 70
     1
102
RTVSPost2010Prop46
 90
       50
102
RTVSPost2010PropOp46
 70
     1
102
RTVSPost2010Prop47
 90
       50
102
RTVSPost2010PropOp47
 70
     1
102
RTVSPost2010Prop48
 90
       50
102
RTVSPost2010PropOp48
 70
     1
102
RTVSPost2010Prop49
280
     0
102
RTVSPost2010PropOp49
 70
     1
102
RTVSPost2010Prop50
 90
       50
102
RTVSPost2010PropOp50
 70
     1
102
RTVSPost2010Prop51ColorIndex
 90
      256
102
RTVSPost2010Prop51ColorRGB
 90
-16777216
102
RTVSPost2010PropOp51
 70
     0
102
RTVSPost2010Prop52
140
1.0
102
RTVSPost2010PropOp52
 70
     0
102
RTVSPost2010Prop53
 90
        2
102
RTVSPost2010PropOp53
 70
     1
102
RTVSPost2010Prop54
  1
strokes_ogs.tif
102
RTVSPost2010PropOp54
 70
     1
102
RTVSPost2010Prop55
280
     0
102
RTVSPost2010PropOp55
 70
     1
102
RTVSPost2010Prop56
140
1.0
102
RTVSPost2010PropOp56
 70
     1
102
RTVSPost2010Prop57
140
1.0
102
RTVSPost2010PropOp57
 70
     1
102
RTVSPropertyOp0
 70
     1
102
RTVSPropertyOp1
 70
     1
102
RTVSPropertyOp2
 70
     1
102
RTVSPropertyOp3
 70
     1
102
RTVSPropertyOp4
 70
     1
102
RTVSPropertyOp5
 70
     1
102
RTVSPropertyOp6
 70
     1
102
RTVSPropertyOp7
 70
     1
102
RTVSPropertyOp8
 70
     1
102
RTVSPropertyOp9
 70
     1
102
RTVSPropertyOp10
 70
     1
102
RTVSPropertyOp11
 70
     1
102
RTVSPropertyOp12
 70
     1
102
RTVSPropertyOp13
 70
     1
102
RTVSPropertyOp14
 70
     1
102
RTVSPropertyOp15
 70
     1
102
RTVSPropertyOp16
 70
     1
102
RTVSPropertyOp17
 70
     1
102
RTVSPropertyOp18
 70
     1
102
RTVSPropertyOp19
 70
     1
102
RTVSPropertyOp20
 70
     1
102
RTVSPropertyOp21
 70
     1
102
RTVSPropertyOp22
 70
     1
102
RTVSPropertyOp23
 70
     1
102
RTVSPropertyOp24
 70
     1
102
RTVSPropertyOp25
 70
     1
102
RTVSPropertyOp26
 70
     1
102
RTVSPropertyOp27
 70
     1
102
RTVSPropertyOp28
 70
     1
102
RTVSPropertyOp29
 70
     1
102
RTVSPropertyOp30
 70
     1
102
RTVSPropertyOp31
 70
     1
102
RTVSPropertyOp32
 70
     1
102
RTVSPropertyOp33
 70
     1
102
RTVSPropertyOp34
 70
     1
102
RTVSPropertyOp35
 70
     1
102
RTVSPropertyOp36
 70
     1
102
RTVSPropertyOp37
 70
     1
102
RTVSPropertyOp38
 70
     1
102
RTVSPropertyOp39
 70
     1
102
RTVSPropertyOp40
 70
     1
102
RTVSPropertyOp41
 70
     1
102
RTVSPropertyOp42
 70
     1
102
RTVSPropertyOp43
 70
     1
102
RTVSPropertyOp44
 70
     1
102
RTVSPropertyOp45
 70
     1
102
RTVSPropertyOp46
 70
     1
102
RTVSPropertyOp47
 70
     1
102
RTVSPropertyOp48
 70
     1
102
RTVSPropertyOp49
 70
     1
102
RTVSPropertyOp50
 70
     1
102
RTVSPropertyOp51
 70
     0
102
RTVSPropertyOp52
 70
     0
102
RTVSPropertyOp53
 70
     1
102
RTVSPropertyOp54
 70
     1
102
RTVSPropertyOp55
 70
     1
102
RTVSPropertyOp56
 70
     1
102
RTVSPropertyOp57
 70
     1
102
RTVSPropertyOp58
 70
     1
102
RTVSPropertyOp59
 70
     1
102
RTVSPropertyOp60
 70
     1
102
RTVSPropertyOp61
 70
     1
102
RTVSPropertyOp62
 70
     1
  0
XRECORD
  5
2E1B9
102
{ACAD_REACTORS
330
2E1B8
102
}
330
2E1B8
100
AcDbXrecord
280
     1
102
RTVSPost2010Prop28
280
     0
102
RTVSPost2010PropOp28
 70
     0
102
RTVSPost2010Prop29
280
     1
102
RTVSPost2010PropOp29
 70
     0
102
RTVSPost2010Prop30
280
     1
102
RTVSPost2010PropOp30
 70
     0
102
RTVSPost2010Prop31
280
     0
102
RTVSPost2010PropOp31
 70
     0
102
RTVSPost2010Prop32
280
     0
102
RTVSPost2010PropOp32
 70
     0
102
RTVSPost2010Prop33
280
     0
102
RTVSPost2010PropOp33
 70
     0
102
RTVSPost2010Prop34
280
     0
102
RTVSPost2010PropOp34
 70
     0
102
RTVSPost2010Prop35
280
     0
102
RTVSPost2010PropOp35
 70
     0
102
RTVSPost2010Prop36
280
     0
102
RTVSPost2010PropOp36
 70
     0
102
RTVSPost2010Prop37
 90
       50
102
RTVSPost2010PropOp37
 70
     0
102
RTVSPost2010Prop38
140
0.0
102
RTVSPost2010PropOp38
 70
     0
102
RTVSPost2010Prop39
140
1.0
102
RTVSPost2010PropOp39
 70
     0
102
RTVSPost2010Prop40
 90
        0
102
RTVSPost2010PropOp40
 70
     0
102
RTVSPost2010Prop41ColorIndex
 90
       18
102
RTVSPost2010Prop41ColorRGB
 90
        0
102
RTVSPost2010PropOp41
 70
     0
102
RTVSPost2010Prop42
 90
       50
102
RTVSPost2010PropOp42
 70
     0
102
RTVSPost2010Prop43
 90
        3
102
RTVSPost2010PropOp43
 70
     0
102
RTVSPost2010Prop44ColorIndex
 90
        5
102
RTVSPost2010Prop44ColorRGB
 90
      255
102
RTVSPost2010PropOp44
 70
     0
102
RTVSPost2010Prop45
280
     0
102
RTVSPost2010PropOp45
 70
     0
102
RTVSPost2010Prop46
 90
       50
102
RTVSPost2010PropOp46
 70
     0
102
RTVSPost2010Prop47
 90
       50
102
RTVSPost2010PropOp47
 70
     0
102
RTVSPost2010Prop48
 90
       50
102
RTVSPost2010PropOp48
 70
     0
102
RTVSPost2010Prop49
280
     0
102
RTVSPost2010PropOp49
 70
     0
102
RTVSPost2010Prop50
 90
       50
102
RTVSPost2010PropOp50
 70
     0
102
RTVSPost2010Prop51ColorIndex
 90
      256
102
RTVSPost2010Prop51ColorRGB
 90
-16777216
102
RTVSPost2010PropOp51
 70
     0
102
RTVSPost2010Prop52
140
1.0
102
RTVSPost2010PropOp52
 70
     0
102
RTVSPost2010Prop53
 90
        2
102
RTVSPost2010PropOp53
 70
     0
102
RTVSPost2010Prop54
  1
strokes_ogs.tif
102
RTVSPost2010PropOp54
 70
     0
102
RTVSPost2010Prop55
280
     0
102
RTVSPost2010PropOp55
 70
     0
102
RTVSPost2010Prop56
140
1.0
102
RTVSPost2010PropOp56
 70
     0
102
RTVSPost2010Prop57
140
1.0
102
RTVSPost2010PropOp57
 70
     0
102
RTVSPropertyOp0
 70
     0
102
RTVSPropertyOp1
 70
     0
102
RTVSPropertyOp2
 70
     0
102
RTVSPropertyOp3
 70
     0
102
RTVSPropertyOp4
 70
     0
102
RTVSPropertyOp5
 70
     0
102
RTVSPropertyOp6
 70
     0
102
RTVSPropertyOp7
 70
     0
102
RTVSPropertyOp8
 70
     0
102
RTVSPropertyOp9
 70
     0
102
RTVSPropertyOp10
 70
     0
102
RTVSPropertyOp11
 70
     0
102
RTVSPropertyOp12
 70
     0
102
RTVSPropertyOp13
 70
     0
102
RTVSPropertyOp14
 70
     2
102
RTVSPropertyOp15
 70
     0
102
RTVSPropertyOp16
 70
     0
102
RTVSPropertyOp17
 70
     0
102
RTVSPropertyOp18
 70
     0
102
RTVSPropertyOp19
 70
     0
102
RTVSPropertyOp20
 70
     0
102
RTVSPropertyOp21
 70
     0
102
RTVSPropertyOp22
 70
     0
102
RTVSPropertyOp23
 70
     0
102
RTVSPropertyOp24
 70
     0
102
RTVSPropertyOp25
 70
     0
102
RTVSPropertyOp26
 70
     0
102
RTVSPropertyOp27
 70
     0
102
RTVSPropertyOp28
 70
     0
102
RTVSPropertyOp29
 70
     0
102
RTVSPropertyOp30
 70
     0
102
RTVSPropertyOp31
 70
     0
102
RTVSPropertyOp32
 70
     0
102
RTVSPropertyOp33
 70
     0
102
RTVSPropertyOp34
 70
     0
102
RTVSPropertyOp35
 70
     0
102
RTVSPropertyOp36
 70
     0
102
RTVSPropertyOp37
 70
     0
102
RTVSPropertyOp38
 70
     0
102
RTVSPropertyOp39
 70
     0
102
RTVSPropertyOp40
 70
     0
102
RTVSPropertyOp41
 70
     0
102
RTVSPropertyOp42
 70
     0
102
RTVSPropertyOp43
 70
     0
102
RTVSPropertyOp44
 70
     0
102
RTVSPropertyOp45
 70
     0
102
RTVSPropertyOp46
 70
     0
102
RTVSPropertyOp47
 70
     0
102
RTVSPropertyOp48
 70
     0
102
RTVSPropertyOp49
 70
     0
102
RTVSPropertyOp50
 70
     0
102
RTVSPropertyOp51
 70
     0
102
RTVSPropertyOp52
 70
     0
102
RTVSPropertyOp53
 70
     0
102
RTVSPropertyOp54
 70
     0
102
RTVSPropertyOp55
 70
     0
102
RTVSPropertyOp56
 70
     0
102
RTVSPropertyOp57
 70
     0
102
RTVSPropertyOp58
 70
     1
102
RTVSPropertyOp59
 70
     1
102
RTVSPropertyOp60
 70
     1
102
RTVSPropertyOp61
 70
     1
102
RTVSPropertyOp62
 70
     1
  0
XRECORD
  5
2E1B1
102
{ACAD_REACTORS
330
2E1B0
102
}
330
2E1B0
100
AcDbXrecord
280
     1
102
RTVSPost2010Prop28
280
     0
102
RTVSPost2010PropOp28
 70
     1
102
RTVSPost2010Prop29
280
     1
102
RTVSPost2010PropOp29
 70
     1
102
RTVSPost2010Prop30
280
     1
102
RTVSPost2010PropOp30
 70
     1
102
RTVSPost2010Prop31
280
     0
102
RTVSPost2010PropOp31
 70
     1
102
RTVSPost2010Prop32
280
     0
102
RTVSPost2010PropOp32
 70
     1
102
RTVSPost2010Prop33
280
     0
102
RTVSPost2010PropOp33
 70
     1
102
RTVSPost2010Prop34
280
     0
102
RTVSPost2010PropOp34
 70
     1
102
RTVSPost2010Prop35
280
     0
102
RTVSPost2010PropOp35
 70
     1
102
RTVSPost2010Prop36
280
     0
102
RTVSPost2010PropOp36
 70
     1
102
RTVSPost2010Prop37
 90
       50
102
RTVSPost2010PropOp37
 70
     1
102
RTVSPost2010Prop38
140
0.0
102
RTVSPost2010PropOp38
 70
     1
102
RTVSPost2010Prop39
140
1.0
102
RTVSPost2010PropOp39
 70
     1
102
RTVSPost2010Prop40
 90
        0
102
RTVSPost2010PropOp40
 70
     1
102
RTVSPost2010Prop41ColorIndex
 90
       18
102
RTVSPost2010Prop41ColorRGB
 90
        0
102
RTVSPost2010PropOp41
 70
     1
102
RTVSPost2010Prop42
 90
       50
102
RTVSPost2010PropOp42
 70
     1
102
RTVSPost2010Prop43
 90
        3
102
RTVSPost2010PropOp43
 70
     1
102
RTVSPost2010Prop44ColorIndex
 90
        5
102
RTVSPost2010Prop44ColorRGB
 90
      255
102
RTVSPost2010PropOp44
 70
     1
102
RTVSPost2010Prop45
280
     0
102
RTVSPost2010PropOp45
 70
     1
102
RTVSPost2010Prop46
 90
       50
102
RTVSPost2010PropOp46
 70
     1
102
RTVSPost2010Prop47
 90
       50
102
RTVSPost2010PropOp47
 70
     1
102
RTVSPost2010Prop48
 90
       50
102
RTVSPost2010PropOp48
 70
     1
102
RTVSPost2010Prop49
280
     0
102
RTVSPost2010PropOp49
 70
     1
102
RTVSPost2010Prop50
 90
       50
102
RTVSPost2010PropOp50
 70
     1
102
RTVSPost2010Prop51ColorIndex
 90
      256
102
RTVSPost2010Prop51ColorRGB
 90
-16777216
102
RTVSPost2010PropOp51
 70
     0
102
RTVSPost2010Prop52
140
1.0
102
RTVSPost2010PropOp52
 70
     0
102
RTVSPost2010Prop53
 90
        2
102
RTVSPost2010PropOp53
 70
     1
102
RTVSPost2010Prop54
  1
strokes_ogs.tif
102
RTVSPost2010PropOp54
 70
     1
102
RTVSPost2010Prop55
280
     0
102
RTVSPost2010PropOp55
 70
     1
102
RTVSPost2010Prop56
140
1.0
102
RTVSPost2010PropOp56
 70
     1
102
RTVSPost2010Prop57
140
1.0
102
RTVSPost2010PropOp57
 70
     1
102
RTVSPropertyOp0
 70
     1
102
RTVSPropertyOp1
 70
     1
102
RTVSPropertyOp2
 70
     1
102
RTVSPropertyOp3
 70
     1
102
RTVSPropertyOp4
 70
     1
102
RTVSPropertyOp5
 70
     1
102
RTVSPropertyOp6
 70
     1
102
RTVSPropertyOp7
 70
     1
102
RTVSPropertyOp8
 70
     1
102
RTVSPropertyOp9
 70
     1
102
RTVSPropertyOp10
 70
     1
102
RTVSPropertyOp11
 70
     1
102
RTVSPropertyOp12
 70
     1
102
RTVSPropertyOp13
 70
     1
102
RTVSPropertyOp14
 70
     1
102
RTVSPropertyOp15
 70
     1
102
RTVSPropertyOp16
 70
     1
102
RTVSPropertyOp17
 70
     1
102
RTVSPropertyOp18
 70
     1
102
RTVSPropertyOp19
 70
     1
102
RTVSPropertyOp20
 70
     1
102
RTVSPropertyOp21
 70
     1
102
RTVSPropertyOp22
 70
     1
102
RTVSPropertyOp23
 70
     1
102
RTVSPropertyOp24
 70
     1
102
RTVSPropertyOp25
 70
     1
102
RTVSPropertyOp26
 70
     1
102
RTVSPropertyOp27
 70
     1
102
RTVSPropertyOp28
 70
     1
102
RTVSPropertyOp29
 70
     1
102
RTVSPropertyOp30
 70
     1
102
RTVSPropertyOp31
 70
     1
102
RTVSPropertyOp32
 70
     1
102
RTVSPropertyOp33
 70
     1
102
RTVSPropertyOp34
 70
     1
102
RTVSPropertyOp35
 70
     1
102
RTVSPropertyOp36
 70
     1
102
RTVSPropertyOp37
 70
     1
102
RTVSPropertyOp38
 70
     1
102
RTVSPropertyOp39
 70
     1
102
RTVSPropertyOp40
 70
     1
102
RTVSPropertyOp41
 70
     1
102
RTVSPropertyOp42
 70
     1
102
RTVSPropertyOp43
 70
     1
102
RTVSPropertyOp44
 70
     1
102
RTVSPropertyOp45
 70
     1
102
RTVSPropertyOp46
 70
     1
102
RTVSPropertyOp47
 70
     1
102
RTVSPropertyOp48
 70
     1
102
RTVSPropertyOp49
 70
     1
102
RTVSPropertyOp50
 70
     1
102
RTVSPropertyOp51
 70
     0
102
RTVSPropertyOp52
 70
     0
102
RTVSPropertyOp53
 70
     1
102
RTVSPropertyOp54
 70
     1
102
RTVSPropertyOp55
 70
     1
102
RTVSPropertyOp56
 70
     1
102
RTVSPropertyOp57
 70
     1
102
RTVSPropertyOp58
 70
     1
102
RTVSPropertyOp59
 70
     1
102
RTVSPropertyOp60
 70
     1
102
RTVSPropertyOp61
 70
     1
102
RTVSPropertyOp62
 70
     1
  0
XRECORD
  5
2E195
102
{ACAD_REACTORS
330
2E194
102
}
330
2E194
100
AcDbXrecord
280
     1
102
RTVSPost2010Prop28
280
     0
102
RTVSPost2010PropOp28
 70
     1
102
RTVSPost2010Prop29
280
     1
102
RTVSPost2010PropOp29
 70
     1
102
RTVSPost2010Prop30
280
     1
102
RTVSPost2010PropOp30
 70
     1
102
RTVSPost2010Prop31
280
     0
102
RTVSPost2010PropOp31
 70
     1
102
RTVSPost2010Prop32
280
     0
102
RTVSPost2010PropOp32
 70
     1
102
RTVSPost2010Prop33
280
     0
102
RTVSPost2010PropOp33
 70
     1
102
RTVSPost2010Prop34
280
     0
102
RTVSPost2010PropOp34
 70
     1
102
RTVSPost2010Prop35
280
     0
102
RTVSPost2010PropOp35
 70
     1
102
RTVSPost2010Prop36
280
     0
102
RTVSPost2010PropOp36
 70
     1
102
RTVSPost2010Prop37
 90
       50
102
RTVSPost2010PropOp37
 70
     1
102
RTVSPost2010Prop38
140
0.0
102
RTVSPost2010PropOp38
 70
     1
102
RTVSPost2010Prop39
140
1.0
102
RTVSPost2010PropOp39
 70
     1
102
RTVSPost2010Prop40
 90
        0
102
RTVSPost2010PropOp40
 70
     1
102
RTVSPost2010Prop41ColorIndex
 90
       18
102
RTVSPost2010Prop41ColorRGB
 90
        0
102
RTVSPost2010PropOp41
 70
     1
102
RTVSPost2010Prop42
 90
       50
102
RTVSPost2010PropOp42
 70
     1
102
RTVSPost2010Prop43
 90
        3
102
RTVSPost2010PropOp43
 70
     1
102
RTVSPost2010Prop44ColorIndex
 90
        5
102
RTVSPost2010Prop44ColorRGB
 90
      255
102
RTVSPost2010PropOp44
 70
     1
102
RTVSPost2010Prop45
280
     0
102
RTVSPost2010PropOp45
 70
     1
102
RTVSPost2010Prop46
 90
       50
102
RTVSPost2010PropOp46
 70
     1
102
RTVSPost2010Prop47
 90
       50
102
RTVSPost2010PropOp47
 70
     1
102
RTVSPost2010Prop48
 90
       50
102
RTVSPost2010PropOp48
 70
     1
102
RTVSPost2010Prop49
280
     0
102
RTVSPost2010PropOp49
 70
     1
102
RTVSPost2010Prop50
 90
       50
102
RTVSPost2010PropOp50
 70
     1
102
RTVSPost2010Prop51ColorIndex
 90
      256
102
RTVSPost2010Prop51ColorRGB
 90
-16777216
102
RTVSPost2010PropOp51
 70
     0
102
RTVSPost2010Prop52
140
1.0
102
RTVSPost2010PropOp52
 70
     0
102
RTVSPost2010Prop53
 90
        2
102
RTVSPost2010PropOp53
 70
     1
102
RTVSPost2010Prop54
  1
strokes_ogs.tif
102
RTVSPost2010PropOp54
 70
     1
102
RTVSPost2010Prop55
280
     0
102
RTVSPost2010PropOp55
 70
     1
102
RTVSPost2010Prop56
140
1.0
102
RTVSPost2010PropOp56
 70
     1
102
RTVSPost2010Prop57
140
1.0
102
RTVSPost2010PropOp57
 70
     1
102
RTVSPropertyOp0
 70
     1
102
RTVSPropertyOp1
 70
     1
102
RTVSPropertyOp2
 70
     1
102
RTVSPropertyOp3
 70
     1
102
RTVSPropertyOp4
 70
     1
102
RTVSPropertyOp5
 70
     1
102
RTVSPropertyOp6
 70
     1
102
RTVSPropertyOp7
 70
     1
102
RTVSPropertyOp8
 70
     1
102
RTVSPropertyOp9
 70
     1
102
RTVSPropertyOp10
 70
     1
102
RTVSPropertyOp11
 70
     1
102
RTVSPropertyOp12
 70
     1
102
RTVSPropertyOp13
 70
     1
102
RTVSPropertyOp14
 70
     1
102
RTVSPropertyOp15
 70
     1
102
RTVSPropertyOp16
 70
     1
102
RTVSPropertyOp17
 70
     1
102
RTVSPropertyOp18
 70
     1
102
RTVSPropertyOp19
 70
     1
102
RTVSPropertyOp20
 70
     1
102
RTVSPropertyOp21
 70
     1
102
RTVSPropertyOp22
 70
     1
102
RTVSPropertyOp23
 70
     1
102
RTVSPropertyOp24
 70
     1
102
RTVSPropertyOp25
 70
     1
102
RTVSPropertyOp26
 70
     1
102
RTVSPropertyOp27
 70
     1
102
RTVSPropertyOp28
 70
     1
102
RTVSPropertyOp29
 70
     1
102
RTVSPropertyOp30
 70
     1
102
RTVSPropertyOp31
 70
     1
102
RTVSPropertyOp32
 70
     1
102
RTVSPropertyOp33
 70
     1
102
RTVSPropertyOp34
 70
     1
102
RTVSPropertyOp35
 70
     1
102
RTVSPropertyOp36
 70
     1
102
RTVSPropertyOp37
 70
     1
102
RTVSPropertyOp38
 70
     1
102
RTVSPropertyOp39
 70
     1
102
RTVSPropertyOp40
 70
     1
102
RTVSPropertyOp41
 70
     1
102
RTVSPropertyOp42
 70
     1
102
RTVSPropertyOp43
 70
     1
102
RTVSPropertyOp44
 70
     1
102
RTVSPropertyOp45
 70
     1
102
RTVSPropertyOp46
 70
     1
102
RTVSPropertyOp47
 70
     1
102
RTVSPropertyOp48
 70
     1
102
RTVSPropertyOp49
 70
     1
102
RTVSPropertyOp50
 70
     1
102
RTVSPropertyOp51
 70
     0
102
RTVSPropertyOp52
 70
     0
102
RTVSPropertyOp53
 70
     1
102
RTVSPropertyOp54
 70
     1
102
RTVSPropertyOp55
 70
     1
102
RTVSPropertyOp56
 70
     1
102
RTVSPropertyOp57
 70
     1
102
RTVSPropertyOp58
 70
     1
102
RTVSPropertyOp59
 70
     1
102
RTVSPropertyOp60
 70
     1
102
RTVSPropertyOp61
 70
     1
102
RTVSPropertyOp62
 70
     1
  0
XRECORD
  5
2E197
102
{ACAD_REACTORS
330
2E196
102
}
330
2E196
100
AcDbXrecord
280
     1
102
RTVSPost2010Prop28
280
     0
102
RTVSPost2010PropOp28
 70
     1
102
RTVSPost2010Prop29
280
     1
102
RTVSPost2010PropOp29
 70
     1
102
RTVSPost2010Prop30
280
     1
102
RTVSPost2010PropOp30
 70
     1
102
RTVSPost2010Prop31
280
     0
102
RTVSPost2010PropOp31
 70
     1
102
RTVSPost2010Prop32
280
     0
102
RTVSPost2010PropOp32
 70
     1
102
RTVSPost2010Prop33
280
     0
102
RTVSPost2010PropOp33
 70
     1
102
RTVSPost2010Prop34
280
     0
102
RTVSPost2010PropOp34
 70
     1
102
RTVSPost2010Prop35
280
     0
102
RTVSPost2010PropOp35
 70
     1
102
RTVSPost2010Prop36
280
     0
102
RTVSPost2010PropOp36
 70
     1
102
RTVSPost2010Prop37
 90
       50
102
RTVSPost2010PropOp37
 70
     1
102
RTVSPost2010Prop38
140
0.0
102
RTVSPost2010PropOp38
 70
     1
102
RTVSPost2010Prop39
140
1.0
102
RTVSPost2010PropOp39
 70
     1
102
RTVSPost2010Prop40
 90
        0
102
RTVSPost2010PropOp40
 70
     1
102
RTVSPost2010Prop41ColorIndex
 90
       18
102
RTVSPost2010Prop41ColorRGB
 90
        0
102
RTVSPost2010PropOp41
 70
     1
102
RTVSPost2010Prop42
 90
       50
102
RTVSPost2010PropOp42
 70
     1
102
RTVSPost2010Prop43
 90
        3
102
RTVSPost2010PropOp43
 70
     1
102
RTVSPost2010Prop44ColorIndex
 90
        5
102
RTVSPost2010Prop44ColorRGB
 90
      255
102
RTVSPost2010PropOp44
 70
     1
102
RTVSPost2010Prop45
280
     0
102
RTVSPost2010PropOp45
 70
     1
102
RTVSPost2010Prop46
 90
       50
102
RTVSPost2010PropOp46
 70
     1
102
RTVSPost2010Prop47
 90
       50
102
RTVSPost2010PropOp47
 70
     1
102
RTVSPost2010Prop48
 90
       50
102
RTVSPost2010PropOp48
 70
     1
102
RTVSPost2010Prop49
280
     0
102
RTVSPost2010PropOp49
 70
     1
102
RTVSPost2010Prop50
 90
       50
102
RTVSPost2010PropOp50
 70
     1
102
RTVSPost2010Prop51ColorIndex
 90
      256
102
RTVSPost2010Prop51ColorRGB
 90
-16777216
102
RTVSPost2010PropOp51
 70
     0
102
RTVSPost2010Prop52
140
1.0
102
RTVSPost2010PropOp52
 70
     0
102
RTVSPost2010Prop53
 90
        2
102
RTVSPost2010PropOp53
 70
     1
102
RTVSPost2010Prop54
  1
strokes_ogs.tif
102
RTVSPost2010PropOp54
 70
     1
102
RTVSPost2010Prop55
280
     0
102
RTVSPost2010PropOp55
 70
     1
102
RTVSPost2010Prop56
140
1.0
102
RTVSPost2010PropOp56
 70
     1
102
RTVSPost2010Prop57
140
1.0
102
RTVSPost2010PropOp57
 70
     1
102
RTVSPropertyOp0
 70
     1
102
RTVSPropertyOp1
 70
     1
102
RTVSPropertyOp2
 70
     1
102
RTVSPropertyOp3
 70
     1
102
RTVSPropertyOp4
 70
     1
102
RTVSPropertyOp5
 70
     1
102
RTVSPropertyOp6
 70
     1
102
RTVSPropertyOp7
 70
     1
102
RTVSPropertyOp8
 70
     1
102
RTVSPropertyOp9
 70
     1
102
RTVSPropertyOp10
 70
     1
102
RTVSPropertyOp11
 70
     1
102
RTVSPropertyOp12
 70
     1
102
RTVSPropertyOp13
 70
     1
102
RTVSPropertyOp14
 70
     1
102
RTVSPropertyOp15
 70
     1
102
RTVSPropertyOp16
 70
     1
102
RTVSPropertyOp17
 70
     1
102
RTVSPropertyOp18
 70
     1
102
RTVSPropertyOp19
 70
     1
102
RTVSPropertyOp20
 70
     1
102
RTVSPropertyOp21
 70
     1
102
RTVSPropertyOp22
 70
     1
102
RTVSPropertyOp23
 70
     1
102
RTVSPropertyOp24
 70
     1
102
RTVSPropertyOp25
 70
     1
102
RTVSPropertyOp26
 70
     1
102
RTVSPropertyOp27
 70
     1
102
RTVSPropertyOp28
 70
     1
102
RTVSPropertyOp29
 70
     1
102
RTVSPropertyOp30
 70
     1
102
RTVSPropertyOp31
 70
     1
102
RTVSPropertyOp32
 70
     1
102
RTVSPropertyOp33
 70
     1
102
RTVSPropertyOp34
 70
     1
102
RTVSPropertyOp35
 70
     1
102
RTVSPropertyOp36
 70
     1
102
RTVSPropertyOp37
 70
     1
102
RTVSPropertyOp38
 70
     1
102
RTVSPropertyOp39
 70
     1
102
RTVSPropertyOp40
 70
     1
102
RTVSPropertyOp41
 70
     1
102
RTVSPropertyOp42
 70
     1
102
RTVSPropertyOp43
 70
     1
102
RTVSPropertyOp44
 70
     1
102
RTVSPropertyOp45
 70
     1
102
RTVSPropertyOp46
 70
     1
102
RTVSPropertyOp47
 70
     1
102
RTVSPropertyOp48
 70
     1
102
RTVSPropertyOp49
 70
     1
102
RTVSPropertyOp50
 70
     1
102
RTVSPropertyOp51
 70
     0
102
RTVSPropertyOp52
 70
     0
102
RTVSPropertyOp53
 70
     1
102
RTVSPropertyOp54
 70
     1
102
RTVSPropertyOp55
 70
     1
102
RTVSPropertyOp56
 70
     1
102
RTVSPropertyOp57
 70
     1
102
RTVSPropertyOp58
 70
     1
102
RTVSPropertyOp59
 70
     1
102
RTVSPropertyOp60
 70
     1
102
RTVSPropertyOp61
 70
     1
102
RTVSPropertyOp62
 70
     1
  0
XRECORD
  5
2E199
102
{ACAD_REACTORS
330
2E198
102
}
330
2E198
100
AcDbXrecord
280
     1
102
RTVSPost2010Prop28
280
     0
102
RTVSPost2010PropOp28
 70
     1
102
RTVSPost2010Prop29
280
     1
102
RTVSPost2010PropOp29
 70
     1
102
RTVSPost2010Prop30
280
     1
102
RTVSPost2010PropOp30
 70
     1
102
RTVSPost2010Prop31
280
     0
102
RTVSPost2010PropOp31
 70
     1
102
RTVSPost2010Prop32
280
     0
102
RTVSPost2010PropOp32
 70
     1
102
RTVSPost2010Prop33
280
     0
102
RTVSPost2010PropOp33
 70
     1
102
RTVSPost2010Prop34
280
     0
102
RTVSPost2010PropOp34
 70
     1
102
RTVSPost2010Prop35
280
     0
102
RTVSPost2010PropOp35
 70
     1
102
RTVSPost2010Prop36
280
     0
102
RTVSPost2010PropOp36
 70
     1
102
RTVSPost2010Prop37
 90
       50
102
RTVSPost2010PropOp37
 70
     1
102
RTVSPost2010Prop38
140
0.0
102
RTVSPost2010PropOp38
 70
     1
102
RTVSPost2010Prop39
140
1.0
102
RTVSPost2010PropOp39
 70
     1
102
RTVSPost2010Prop40
 90
        0
102
RTVSPost2010PropOp40
 70
     1
102
RTVSPost2010Prop41ColorIndex
 90
       18
102
RTVSPost2010Prop41ColorRGB
 90
        0
102
RTVSPost2010PropOp41
 70
     1
102
RTVSPost2010Prop42
 90
       50
102
RTVSPost2010PropOp42
 70
     1
102
RTVSPost2010Prop43
 90
        3
102
RTVSPost2010PropOp43
 70
     1
102
RTVSPost2010Prop44ColorIndex
 90
        5
102
RTVSPost2010Prop44ColorRGB
 90
      255
102
RTVSPost2010PropOp44
 70
     1
102
RTVSPost2010Prop45
280
     0
102
RTVSPost2010PropOp45
 70
     1
102
RTVSPost2010Prop46
 90
       50
102
RTVSPost2010PropOp46
 70
     1
102
RTVSPost2010Prop47
 90
       50
102
RTVSPost2010PropOp47
 70
     1
102
RTVSPost2010Prop48
 90
       50
102
RTVSPost2010PropOp48
 70
     1
102
RTVSPost2010Prop49
280
     0
102
RTVSPost2010PropOp49
 70
     1
102
RTVSPost2010Prop50
 90
       50
102
RTVSPost2010PropOp50
 70
     1
102
RTVSPost2010Prop51ColorIndex
 90
      256
102
RTVSPost2010Prop51ColorRGB
 90
-16777216
102
RTVSPost2010PropOp51
 70
     0
102
RTVSPost2010Prop52
140
1.0
102
RTVSPost2010PropOp52
 70
     0
102
RTVSPost2010Prop53
 90
        2
102
RTVSPost2010PropOp53
 70
     1
102
RTVSPost2010Prop54
  1
strokes_ogs.tif
102
RTVSPost2010PropOp54
 70
     1
102
RTVSPost2010Prop55
280
     0
102
RTVSPost2010PropOp55
 70
     1
102
RTVSPost2010Prop56
140
1.0
102
RTVSPost2010PropOp56
 70
     1
102
RTVSPost2010Prop57
140
1.0
102
RTVSPost2010PropOp57
 70
     1
102
RTVSPropertyOp0
 70
     1
102
RTVSPropertyOp1
 70
     1
102
RTVSPropertyOp2
 70
     1
102
RTVSPropertyOp3
 70
     1
102
RTVSPropertyOp4
 70
     1
102
RTVSPropertyOp5
 70
     1
102
RTVSPropertyOp6
 70
     1
102
RTVSPropertyOp7
 70
     1
102
RTVSPropertyOp8
 70
     1
102
RTVSPropertyOp9
 70
     1
102
RTVSPropertyOp10
 70
     1
102
RTVSPropertyOp11
 70
     1
102
RTVSPropertyOp12
 70
     1
102
RTVSPropertyOp13
 70
     1
102
RTVSPropertyOp14
 70
     1
102
RTVSPropertyOp15
 70
     1
102
RTVSPropertyOp16
 70
     1
102
RTVSPropertyOp17
 70
     1
102
RTVSPropertyOp18
 70
     1
102
RTVSPropertyOp19
 70
     1
102
RTVSPropertyOp20
 70
     1
102
RTVSPropertyOp21
 70
     1
102
RTVSPropertyOp22
 70
     1
102
RTVSPropertyOp23
 70
     1
102
RTVSPropertyOp24
 70
     1
102
RTVSPropertyOp25
 70
     1
102
RTVSPropertyOp26
 70
     1
102
RTVSPropertyOp27
 70
     1
102
RTVSPropertyOp28
 70
     1
102
RTVSPropertyOp29
 70
     1
102
RTVSPropertyOp30
 70
     1
102
RTVSPropertyOp31
 70
     1
102
RTVSPropertyOp32
 70
     1
102
RTVSPropertyOp33
 70
     1
102
RTVSPropertyOp34
 70
     1
102
RTVSPropertyOp35
 70
     1
102
RTVSPropertyOp36
 70
     1
102
RTVSPropertyOp37
 70
     1
102
RTVSPropertyOp38
 70
     1
102
RTVSPropertyOp39
 70
     1
102
RTVSPropertyOp40
 70
     1
102
RTVSPropertyOp41
 70
     1
102
RTVSPropertyOp42
 70
     1
102
RTVSPropertyOp43
 70
     1
102
RTVSPropertyOp44
 70
     1
102
RTVSPropertyOp45
 70
     1
102
RTVSPropertyOp46
 70
     1
102
RTVSPropertyOp47
 70
     1
102
RTVSPropertyOp48
 70
     1
102
RTVSPropertyOp49
 70
     1
102
RTVSPropertyOp50
 70
     1
102
RTVSPropertyOp51
 70
     0
102
RTVSPropertyOp52
 70
     0
102
RTVSPropertyOp53
 70
     1
102
RTVSPropertyOp54
 70
     1
102
RTVSPropertyOp55
 70
     1
102
RTVSPropertyOp56
 70
     1
102
RTVSPropertyOp57
 70
     1
102
RTVSPropertyOp58
 70
     1
102
RTVSPropertyOp59
 70
     1
102
RTVSPropertyOp60
 70
     1
102
RTVSPropertyOp61
 70
     1
102
RTVSPropertyOp62
 70
     1
  0
XRECORD
  5
2E19B
102
{ACAD_REACTORS
330
2E19A
102
}
330
2E19A
100
AcDbXrecord
280
     1
102
RTVSPost2010Prop28
280
     0
102
RTVSPost2010PropOp28
 70
     1
102
RTVSPost2010Prop29
280
     1
102
RTVSPost2010PropOp29
 70
     1
102
RTVSPost2010Prop30
280
     1
102
RTVSPost2010PropOp30
 70
     1
102
RTVSPost2010Prop31
280
     0
102
RTVSPost2010PropOp31
 70
     1
102
RTVSPost2010Prop32
280
     0
102
RTVSPost2010PropOp32
 70
     1
102
RTVSPost2010Prop33
280
     0
102
RTVSPost2010PropOp33
 70
     1
102
RTVSPost2010Prop34
280
     0
102
RTVSPost2010PropOp34
 70
     1
102
RTVSPost2010Prop35
280
     0
102
RTVSPost2010PropOp35
 70
     1
102
RTVSPost2010Prop36
280
     0
102
RTVSPost2010PropOp36
 70
     1
102
RTVSPost2010Prop37
 90
       50
102
RTVSPost2010PropOp37
 70
     1
102
RTVSPost2010Prop38
140
0.0
102
RTVSPost2010PropOp38
 70
     1
102
RTVSPost2010Prop39
140
1.0
102
RTVSPost2010PropOp39
 70
     1
102
RTVSPost2010Prop40
 90
        0
102
RTVSPost2010PropOp40
 70
     1
102
RTVSPost2010Prop41ColorIndex
 90
       18
102
RTVSPost2010Prop41ColorRGB
 90
        0
102
RTVSPost2010PropOp41
 70
     1
102
RTVSPost2010Prop42
 90
       50
102
RTVSPost2010PropOp42
 70
     1
102
RTVSPost2010Prop43
 90
        3
102
RTVSPost2010PropOp43
 70
     1
102
RTVSPost2010Prop44ColorIndex
 90
        5
102
RTVSPost2010Prop44ColorRGB
 90
      255
102
RTVSPost2010PropOp44
 70
     1
102
RTVSPost2010Prop45
280
     0
102
RTVSPost2010PropOp45
 70
     1
102
RTVSPost2010Prop46
 90
       50
102
RTVSPost2010PropOp46
 70
     1
102
RTVSPost2010Prop47
 90
       50
102
RTVSPost2010PropOp47
 70
     1
102
RTVSPost2010Prop48
 90
       50
102
RTVSPost2010PropOp48
 70
     1
102
RTVSPost2010Prop49
280
     0
102
RTVSPost2010PropOp49
 70
     1
102
RTVSPost2010Prop50
 90
       50
102
RTVSPost2010PropOp50
 70
     1
102
RTVSPost2010Prop51ColorIndex
 90
      256
102
RTVSPost2010Prop51ColorRGB
 90
-16777216
102
RTVSPost2010PropOp51
 70
     0
102
RTVSPost2010Prop52
140
1.0
102
RTVSPost2010PropOp52
 70
     0
102
RTVSPost2010Prop53
 90
        2
102
RTVSPost2010PropOp53
 70
     1
102
RTVSPost2010Prop54
  1
strokes_ogs.tif
102
RTVSPost2010PropOp54
 70
     1
102
RTVSPost2010Prop55
280
     0
102
RTVSPost2010PropOp55
 70
     1
102
RTVSPost2010Prop56
140
1.0
102
RTVSPost2010PropOp56
 70
     1
102
RTVSPost2010Prop57
140
1.0
102
RTVSPost2010PropOp57
 70
     1
102
RTVSPropertyOp0
 70
     1
102
RTVSPropertyOp1
 70
     1
102
RTVSPropertyOp2
 70
     1
102
RTVSPropertyOp3
 70
     1
102
RTVSPropertyOp4
 70
     1
102
RTVSPropertyOp5
 70
     1
102
RTVSPropertyOp6
 70
     1
102
RTVSPropertyOp7
 70
     1
102
RTVSPropertyOp8
 70
     1
102
RTVSPropertyOp9
 70
     1
102
RTVSPropertyOp10
 70
     1
102
RTVSPropertyOp11
 70
     1
102
RTVSPropertyOp12
 70
     1
102
RTVSPropertyOp13
 70
     1
102
RTVSPropertyOp14
 70
     1
102
RTVSPropertyOp15
 70
     1
102
RTVSPropertyOp16
 70
     1
102
RTVSPropertyOp17
 70
     1
102
RTVSPropertyOp18
 70
     1
102
RTVSPropertyOp19
 70
     1
102
RTVSPropertyOp20
 70
     1
102
RTVSPropertyOp21
 70
     1
102
RTVSPropertyOp22
 70
     1
102
RTVSPropertyOp23
 70
     1
102
RTVSPropertyOp24
 70
     1
102
RTVSPropertyOp25
 70
     1
102
RTVSPropertyOp26
 70
     1
102
RTVSPropertyOp27
 70
     1
102
RTVSPropertyOp28
 70
     1
102
RTVSPropertyOp29
 70
     1
102
RTVSPropertyOp30
 70
     1
102
RTVSPropertyOp31
 70
     1
102
RTVSPropertyOp32
 70
     1
102
RTVSPropertyOp33
 70
     1
102
RTVSPropertyOp34
 70
     1
102
RTVSPropertyOp35
 70
     1
102
RTVSPropertyOp36
 70
     1
102
RTVSPropertyOp37
 70
     1
102
RTVSPropertyOp38
 70
     1
102
RTVSPropertyOp39
 70
     1
102
RTVSPropertyOp40
 70
     1
102
RTVSPropertyOp41
 70
     1
102
RTVSPropertyOp42
 70
     1
102
RTVSPropertyOp43
 70
     1
102
RTVSPropertyOp44
 70
     1
102
RTVSPropertyOp45
 70
     1
102
RTVSPropertyOp46
 70
     1
102
RTVSPropertyOp47
 70
     1
102
RTVSPropertyOp48
 70
     1
102
RTVSPropertyOp49
 70
     1
102
RTVSPropertyOp50
 70
     1
102
RTVSPropertyOp51
 70
     0
102
RTVSPropertyOp52
 70
     0
102
RTVSPropertyOp53
 70
     1
102
RTVSPropertyOp54
 70
     1
102
RTVSPropertyOp55
 70
     1
102
RTVSPropertyOp56
 70
     1
102
RTVSPropertyOp57
 70
     1
102
RTVSPropertyOp58
 70
     1
102
RTVSPropertyOp59
 70
     1
102
RTVSPropertyOp60
 70
     1
102
RTVSPropertyOp61
 70
     1
102
RTVSPropertyOp62
 70
     1
  0
XRECORD
  5
2E1A1
102
{ACAD_REACTORS
330
2E1A0
102
}
330
2E1A0
100
AcDbXrecord
280
     1
102
RTVSPost2010Prop28
280
     0
102
RTVSPost2010PropOp28
 70
     1
102
RTVSPost2010Prop29
280
     1
102
RTVSPost2010PropOp29
 70
     1
102
RTVSPost2010Prop30
280
     1
102
RTVSPost2010PropOp30
 70
     1
102
RTVSPost2010Prop31
280
     0
102
RTVSPost2010PropOp31
 70
     1
102
RTVSPost2010Prop32
280
     0
102
RTVSPost2010PropOp32
 70
     1
102
RTVSPost2010Prop33
280
     0
102
RTVSPost2010PropOp33
 70
     1
102
RTVSPost2010Prop34
280
     0
102
RTVSPost2010PropOp34
 70
     1
102
RTVSPost2010Prop35
280
     0
102
RTVSPost2010PropOp35
 70
     1
102
RTVSPost2010Prop36
280
     0
102
RTVSPost2010PropOp36
 70
     1
102
RTVSPost2010Prop37
 90
       50
102
RTVSPost2010PropOp37
 70
     1
102
RTVSPost2010Prop38
140
0.0
102
RTVSPost2010PropOp38
 70
     1
102
RTVSPost2010Prop39
140
1.0
102
RTVSPost2010PropOp39
 70
     1
102
RTVSPost2010Prop40
 90
        0
102
RTVSPost2010PropOp40
 70
     1
102
RTVSPost2010Prop41ColorIndex
 90
       18
102
RTVSPost2010Prop41ColorRGB
 90
        0
102
RTVSPost2010PropOp41
 70
     1
102
RTVSPost2010Prop42
 90
       50
102
RTVSPost2010PropOp42
 70
     1
102
RTVSPost2010Prop43
 90
        3
102
RTVSPost2010PropOp43
 70
     1
102
RTVSPost2010Prop44ColorIndex
 90
        5
102
RTVSPost2010Prop44ColorRGB
 90
      255
102
RTVSPost2010PropOp44
 70
     1
102
RTVSPost2010Prop45
280
     0
102
RTVSPost2010PropOp45
 70
     1
102
RTVSPost2010Prop46
 90
       50
102
RTVSPost2010PropOp46
 70
     1
102
RTVSPost2010Prop47
 90
       50
102
RTVSPost2010PropOp47
 70
     1
102
RTVSPost2010Prop48
 90
       50
102
RTVSPost2010PropOp48
 70
     1
102
RTVSPost2010Prop49
280
     0
102
RTVSPost2010PropOp49
 70
     1
102
RTVSPost2010Prop50
 90
       50
102
RTVSPost2010PropOp50
 70
     1
102
RTVSPost2010Prop51ColorIndex
 90
      256
102
RTVSPost2010Prop51ColorRGB
 90
-16777216
102
RTVSPost2010PropOp51
 70
     0
102
RTVSPost2010Prop52
140
1.0
102
RTVSPost2010PropOp52
 70
     0
102
RTVSPost2010Prop53
 90
        2
102
RTVSPost2010PropOp53
 70
     1
102
RTVSPost2010Prop54
  1
strokes_ogs.tif
102
RTVSPost2010PropOp54
 70
     1
102
RTVSPost2010Prop55
280
     0
102
RTVSPost2010PropOp55
 70
     1
102
RTVSPost2010Prop56
140
1.0
102
RTVSPost2010PropOp56
 70
     1
102
RTVSPost2010Prop57
140
1.0
102
RTVSPost2010PropOp57
 70
     1
102
RTVSPropertyOp0
 70
     1
102
RTVSPropertyOp1
 70
     1
102
RTVSPropertyOp2
 70
     1
102
RTVSPropertyOp3
 70
     1
102
RTVSPropertyOp4
 70
     1
102
RTVSPropertyOp5
 70
     1
102
RTVSPropertyOp6
 70
     1
102
RTVSPropertyOp7
 70
     1
102
RTVSPropertyOp8
 70
     1
102
RTVSPropertyOp9
 70
     1
102
RTVSPropertyOp10
 70
     1
102
RTVSPropertyOp11
 70
     1
102
RTVSPropertyOp12
 70
     1
102
RTVSPropertyOp13
 70
     1
102
RTVSPropertyOp14
 70
     1
102
RTVSPropertyOp15
 70
     1
102
RTVSPropertyOp16
 70
     1
102
RTVSPropertyOp17
 70
     1
102
RTVSPropertyOp18
 70
     1
102
RTVSPropertyOp19
 70
     1
102
RTVSPropertyOp20
 70
     1
102
RTVSPropertyOp21
 70
     1
102
RTVSPropertyOp22
 70
     1
102
RTVSPropertyOp23
 70
     1
102
RTVSPropertyOp24
 70
     1
102
RTVSPropertyOp25
 70
     1
102
RTVSPropertyOp26
 70
     1
102
RTVSPropertyOp27
 70
     1
102
RTVSPropertyOp28
 70
     1
102
RTVSPropertyOp29
 70
     1
102
RTVSPropertyOp30
 70
     1
102
RTVSPropertyOp31
 70
     1
102
RTVSPropertyOp32
 70
     1
102
RTVSPropertyOp33
 70
     1
102
RTVSPropertyOp34
 70
     1
102
RTVSPropertyOp35
 70
     1
102
RTVSPropertyOp36
 70
     1
102
RTVSPropertyOp37
 70
     1
102
RTVSPropertyOp38
 70
     1
102
RTVSPropertyOp39
 70
     1
102
RTVSPropertyOp40
 70
     1
102
RTVSPropertyOp41
 70
     1
102
RTVSPropertyOp42
 70
     1
102
RTVSPropertyOp43
 70
     1
102
RTVSPropertyOp44
 70
     1
102
RTVSPropertyOp45
 70
     1
102
RTVSPropertyOp46
 70
     1
102
RTVSPropertyOp47
 70
     1
102
RTVSPropertyOp48
 70
     1
102
RTVSPropertyOp49
 70
     1
102
RTVSPropertyOp50
 70
     1
102
RTVSPropertyOp51
 70
     0
102
RTVSPropertyOp52
 70
     0
102
RTVSPropertyOp53
 70
     1
102
RTVSPropertyOp54
 70
     1
102
RTVSPropertyOp55
 70
     1
102
RTVSPropertyOp56
 70
     1
102
RTVSPropertyOp57
 70
     1
102
RTVSPropertyOp58
 70
     1
102
RTVSPropertyOp59
 70
     1
102
RTVSPropertyOp60
 70
     1
102
RTVSPropertyOp61
 70
     1
102
RTVSPropertyOp62
 70
     1
  0
XRECORD
  5
2E1B5
102
{ACAD_REACTORS
330
2E1B4
102
}
330
2E1B4
100
AcDbXrecord
280
     1
102
RTVSPost2010Prop28
280
     0
102
RTVSPost2010PropOp28
 70
     0
102
RTVSPost2010Prop29
280
     1
102
RTVSPost2010PropOp29
 70
     0
102
RTVSPost2010Prop30
280
     1
102
RTVSPost2010PropOp30
 70
     0
102
RTVSPost2010Prop31
280
     0
102
RTVSPost2010PropOp31
 70
     0
102
RTVSPost2010Prop32
280
     0
102
RTVSPost2010PropOp32
 70
     0
102
RTVSPost2010Prop33
280
     0
102
RTVSPost2010PropOp33
 70
     0
102
RTVSPost2010Prop34
280
     0
102
RTVSPost2010PropOp34
 70
     0
102
RTVSPost2010Prop35
280
     0
102
RTVSPost2010PropOp35
 70
     0
102
RTVSPost2010Prop36
280
     0
102
RTVSPost2010PropOp36
 70
     0
102
RTVSPost2010Prop37
 90
       50
102
RTVSPost2010PropOp37
 70
     0
102
RTVSPost2010Prop38
140
0.0
102
RTVSPost2010PropOp38
 70
     0
102
RTVSPost2010Prop39
140
1.0
102
RTVSPost2010PropOp39
 70
     0
102
RTVSPost2010Prop40
 90
        0
102
RTVSPost2010PropOp40
 70
     0
102
RTVSPost2010Prop41ColorIndex
 90
       18
102
RTVSPost2010Prop41ColorRGB
 90
        0
102
RTVSPost2010PropOp41
 70
     0
102
RTVSPost2010Prop42
 90
       50
102
RTVSPost2010PropOp42
 70
     0
102
RTVSPost2010Prop43
 90
        3
102
RTVSPost2010PropOp43
 70
     0
102
RTVSPost2010Prop44ColorIndex
 90
        5
102
RTVSPost2010Prop44ColorRGB
 90
      255
102
RTVSPost2010PropOp44
 70
     0
102
RTVSPost2010Prop45
280
     0
102
RTVSPost2010PropOp45
 70
     0
102
RTVSPost2010Prop46
 90
       50
102
RTVSPost2010PropOp46
 70
     0
102
RTVSPost2010Prop47
 90
       50
102
RTVSPost2010PropOp47
 70
     0
102
RTVSPost2010Prop48
 90
       50
102
RTVSPost2010PropOp48
 70
     0
102
RTVSPost2010Prop49
280
     0
102
RTVSPost2010PropOp49
 70
     0
102
RTVSPost2010Prop50
 90
       50
102
RTVSPost2010PropOp50
 70
     0
102
RTVSPost2010Prop51ColorIndex
 90
      256
102
RTVSPost2010Prop51ColorRGB
 90
-16777216
102
RTVSPost2010PropOp51
 70
     0
102
RTVSPost2010Prop52
140
1.0
102
RTVSPost2010PropOp52
 70
     0
102
RTVSPost2010Prop53
 90
        2
102
RTVSPost2010PropOp53
 70
     0
102
RTVSPost2010Prop54
  1
strokes_ogs.tif
102
RTVSPost2010PropOp54
 70
     0
102
RTVSPost2010Prop55
280
     0
102
RTVSPost2010PropOp55
 70
     0
102
RTVSPost2010Prop56
140
1.0
102
RTVSPost2010PropOp56
 70
     0
102
RTVSPost2010Prop57
140
1.0
102
RTVSPost2010PropOp57
 70
     0
102
RTVSPropertyOp0
 70
     0
102
RTVSPropertyOp1
 70
     0
102
RTVSPropertyOp2
 70
     0
102
RTVSPropertyOp3
 70
     0
102
RTVSPropertyOp4
 70
     0
102
RTVSPropertyOp5
 70
     0
102
RTVSPropertyOp6
 70
     0
102
RTVSPropertyOp7
 70
     0
102
RTVSPropertyOp8
 70
     0
102
RTVSPropertyOp9
 70
     0
102
RTVSPropertyOp10
 70
     0
102
RTVSPropertyOp11
 70
     0
102
RTVSPropertyOp12
 70
     0
102
RTVSPropertyOp13
 70
     0
102
RTVSPropertyOp14
 70
     2
102
RTVSPropertyOp15
 70
     0
102
RTVSPropertyOp16
 70
     0
102
RTVSPropertyOp17
 70
     0
102
RTVSPropertyOp18
 70
     0
102
RTVSPropertyOp19
 70
     0
102
RTVSPropertyOp20
 70
     0
102
RTVSPropertyOp21
 70
     0
102
RTVSPropertyOp22
 70
     0
102
RTVSPropertyOp23
 70
     0
102
RTVSPropertyOp24
 70
     0
102
RTVSPropertyOp25
 70
     0
102
RTVSPropertyOp26
 70
     0
102
RTVSPropertyOp27
 70
     0
102
RTVSPropertyOp28
 70
     0
102
RTVSPropertyOp29
 70
     0
102
RTVSPropertyOp30
 70
     0
102
RTVSPropertyOp31
 70
     0
102
RTVSPropertyOp32
 70
     0
102
RTVSPropertyOp33
 70
     0
102
RTVSPropertyOp34
 70
     0
102
RTVSPropertyOp35
 70
     0
102
RTVSPropertyOp36
 70
     0
102
RTVSPropertyOp37
 70
     0
102
RTVSPropertyOp38
 70
     0
102
RTVSPropertyOp39
 70
     0
102
RTVSPropertyOp40
 70
     0
102
RTVSPropertyOp41
 70
     0
102
RTVSPropertyOp42
 70
     0
102
RTVSPropertyOp43
 70
     0
102
RTVSPropertyOp44
 70
     0
102
RTVSPropertyOp45
 70
     0
102
RTVSPropertyOp46
 70
     0
102
RTVSPropertyOp47
 70
     0
102
RTVSPropertyOp48
 70
     0
102
RTVSPropertyOp49
 70
     0
102
RTVSPropertyOp50
 70
     0
102
RTVSPropertyOp51
 70
     0
102
RTVSPropertyOp52
 70
     0
102
RTVSPropertyOp53
 70
     0
102
RTVSPropertyOp54
 70
     0
102
RTVSPropertyOp55
 70
     0
102
RTVSPropertyOp56
 70
     0
102
RTVSPropertyOp57
 70
     0
102
RTVSPropertyOp58
 70
     1
102
RTVSPropertyOp59
 70
     1
102
RTVSPropertyOp60
 70
     1
102
RTVSPropertyOp61
 70
     1
102
RTVSPropertyOp62
 70
     1
  0
XRECORD
  5
2E1AF
102
{ACAD_REACTORS
330
2E1AE
102
}
330
2E1AE
100
AcDbXrecord
280
     1
102
RTVSPost2010Prop28
280
     0
102
RTVSPost2010PropOp28
 70
     1
102
RTVSPost2010Prop29
280
     1
102
RTVSPost2010PropOp29
 70
     1
102
RTVSPost2010Prop30
280
     1
102
RTVSPost2010PropOp30
 70
     1
102
RTVSPost2010Prop31
280
     0
102
RTVSPost2010PropOp31
 70
     1
102
RTVSPost2010Prop32
280
     0
102
RTVSPost2010PropOp32
 70
     1
102
RTVSPost2010Prop33
280
     0
102
RTVSPost2010PropOp33
 70
     1
102
RTVSPost2010Prop34
280
     0
102
RTVSPost2010PropOp34
 70
     1
102
RTVSPost2010Prop35
280
     0
102
RTVSPost2010PropOp35
 70
     1
102
RTVSPost2010Prop36
280
     0
102
RTVSPost2010PropOp36
 70
     1
102
RTVSPost2010Prop37
 90
       50
102
RTVSPost2010PropOp37
 70
     1
102
RTVSPost2010Prop38
140
0.0
102
RTVSPost2010PropOp38
 70
     1
102
RTVSPost2010Prop39
140
1.0
102
RTVSPost2010PropOp39
 70
     1
102
RTVSPost2010Prop40
 90
        0
102
RTVSPost2010PropOp40
 70
     1
102
RTVSPost2010Prop41ColorIndex
 90
       18
102
RTVSPost2010Prop41ColorRGB
 90
        0
102
RTVSPost2010PropOp41
 70
     1
102
RTVSPost2010Prop42
 90
       50
102
RTVSPost2010PropOp42
 70
     1
102
RTVSPost2010Prop43
 90
        3
102
RTVSPost2010PropOp43
 70
     1
102
RTVSPost2010Prop44ColorIndex
 90
        5
102
RTVSPost2010Prop44ColorRGB
 90
      255
102
RTVSPost2010PropOp44
 70
     1
102
RTVSPost2010Prop45
280
     0
102
RTVSPost2010PropOp45
 70
     1
102
RTVSPost2010Prop46
 90
       50
102
RTVSPost2010PropOp46
 70
     1
102
RTVSPost2010Prop47
 90
       50
102
RTVSPost2010PropOp47
 70
     1
102
RTVSPost2010Prop48
 90
       50
102
RTVSPost2010PropOp48
 70
     1
102
RTVSPost2010Prop49
280
     0
102
RTVSPost2010PropOp49
 70
     1
102
RTVSPost2010Prop50
 90
       50
102
RTVSPost2010PropOp50
 70
     1
102
RTVSPost2010Prop51ColorIndex
 90
      256
102
RTVSPost2010Prop51ColorRGB
 90
-16777216
102
RTVSPost2010PropOp51
 70
     0
102
RTVSPost2010Prop52
140
1.0
102
RTVSPost2010PropOp52
 70
     0
102
RTVSPost2010Prop53
 90
        2
102
RTVSPost2010PropOp53
 70
     1
102
RTVSPost2010Prop54
  1
strokes_ogs.tif
102
RTVSPost2010PropOp54
 70
     1
102
RTVSPost2010Prop55
280
     0
102
RTVSPost2010PropOp55
 70
     1
102
RTVSPost2010Prop56
140
1.0
102
RTVSPost2010PropOp56
 70
     1
102
RTVSPost2010Prop57
140
1.0
102
RTVSPost2010PropOp57
 70
     1
102
RTVSPropertyOp0
 70
     1
102
RTVSPropertyOp1
 70
     1
102
RTVSPropertyOp2
 70
     1
102
RTVSPropertyOp3
 70
     1
102
RTVSPropertyOp4
 70
     1
102
RTVSPropertyOp5
 70
     1
102
RTVSPropertyOp6
 70
     1
102
RTVSPropertyOp7
 70
     1
102
RTVSPropertyOp8
 70
     1
102
RTVSPropertyOp9
 70
     1
102
RTVSPropertyOp10
 70
     1
102
RTVSPropertyOp11
 70
     1
102
RTVSPropertyOp12
 70
     1
102
RTVSPropertyOp13
 70
     1
102
RTVSPropertyOp14
 70
     1
102
RTVSPropertyOp15
 70
     1
102
RTVSPropertyOp16
 70
     1
102
RTVSPropertyOp17
 70
     1
102
RTVSPropertyOp18
 70
     1
102
RTVSPropertyOp19
 70
     1
102
RTVSPropertyOp20
 70
     1
102
RTVSPropertyOp21
 70
     1
102
RTVSPropertyOp22
 70
     1
102
RTVSPropertyOp23
 70
     1
102
RTVSPropertyOp24
 70
     1
102
RTVSPropertyOp25
 70
     1
102
RTVSPropertyOp26
 70
     1
102
RTVSPropertyOp27
 70
     1
102
RTVSPropertyOp28
 70
     1
102
RTVSPropertyOp29
 70
     1
102
RTVSPropertyOp30
 70
     1
102
RTVSPropertyOp31
 70
     1
102
RTVSPropertyOp32
 70
     1
102
RTVSPropertyOp33
 70
     1
102
RTVSPropertyOp34
 70
     1
102
RTVSPropertyOp35
 70
     1
102
RTVSPropertyOp36
 70
     1
102
RTVSPropertyOp37
 70
     1
102
RTVSPropertyOp38
 70
     1
102
RTVSPropertyOp39
 70
     1
102
RTVSPropertyOp40
 70
     1
102
RTVSPropertyOp41
 70
     1
102
RTVSPropertyOp42
 70
     1
102
RTVSPropertyOp43
 70
     1
102
RTVSPropertyOp44
 70
     1
102
RTVSPropertyOp45
 70
     1
102
RTVSPropertyOp46
 70
     1
102
RTVSPropertyOp47
 70
     1
102
RTVSPropertyOp48
 70
     1
102
RTVSPropertyOp49
 70
     1
102
RTVSPropertyOp50
 70
     1
102
RTVSPropertyOp51
 70
     0
102
RTVSPropertyOp52
 70
     0
102
RTVSPropertyOp53
 70
     1
102
RTVSPropertyOp54
 70
     1
102
RTVSPropertyOp55
 70
     1
102
RTVSPropertyOp56
 70
     1
102
RTVSPropertyOp57
 70
     1
102
RTVSPropertyOp58
 70
     1
102
RTVSPropertyOp59
 70
     1
102
RTVSPropertyOp60
 70
     1
102
RTVSPropertyOp61
 70
     1
102
RTVSPropertyOp62
 70
     1
  0
XRECORD
  5
2E1B7
102
{ACAD_REACTORS
330
2E1B6
102
}
330
2E1B6
100
AcDbXrecord
280
     1
102
RTVSPost2010Prop28
280
     0
102
RTVSPost2010PropOp28
 70
     0
102
RTVSPost2010Prop29
280
     1
102
RTVSPost2010PropOp29
 70
     0
102
RTVSPost2010Prop30
280
     1
102
RTVSPost2010PropOp30
 70
     0
102
RTVSPost2010Prop31
280
     0
102
RTVSPost2010PropOp31
 70
     0
102
RTVSPost2010Prop32
280
     0
102
RTVSPost2010PropOp32
 70
     0
102
RTVSPost2010Prop33
280
     0
102
RTVSPost2010PropOp33
 70
     0
102
RTVSPost2010Prop34
280
     0
102
RTVSPost2010PropOp34
 70
     0
102
RTVSPost2010Prop35
280
     0
102
RTVSPost2010PropOp35
 70
     0
102
RTVSPost2010Prop36
280
     0
102
RTVSPost2010PropOp36
 70
     0
102
RTVSPost2010Prop37
 90
       50
102
RTVSPost2010PropOp37
 70
     0
102
RTVSPost2010Prop38
140
0.0
102
RTVSPost2010PropOp38
 70
     0
102
RTVSPost2010Prop39
140
1.0
102
RTVSPost2010PropOp39
 70
     0
102
RTVSPost2010Prop40
 90
        0
102
RTVSPost2010PropOp40
 70
     0
102
RTVSPost2010Prop41ColorIndex
 90
       18
102
RTVSPost2010Prop41ColorRGB
 90
        0
102
RTVSPost2010PropOp41
 70
     0
102
RTVSPost2010Prop42
 90
       50
102
RTVSPost2010PropOp42
 70
     0
102
RTVSPost2010Prop43
 90
        3
102
RTVSPost2010PropOp43
 70
     0
102
RTVSPost2010Prop44ColorIndex
 90
        5
102
RTVSPost2010Prop44ColorRGB
 90
      255
102
RTVSPost2010PropOp44
 70
     0
102
RTVSPost2010Prop45
280
     0
102
RTVSPost2010PropOp45
 70
     0
102
RTVSPost2010Prop46
 90
       50
102
RTVSPost2010PropOp46
 70
     0
102
RTVSPost2010Prop47
 90
       50
102
RTVSPost2010PropOp47
 70
     0
102
RTVSPost2010Prop48
 90
       50
102
RTVSPost2010PropOp48
 70
     0
102
RTVSPost2010Prop49
280
     0
102
RTVSPost2010PropOp49
 70
     0
102
RTVSPost2010Prop50
 90
       50
102
RTVSPost2010PropOp50
 70
     0
102
RTVSPost2010Prop51ColorIndex
 90
      256
102
RTVSPost2010Prop51ColorRGB
 90
-16777216
102
RTVSPost2010PropOp51
 70
     0
102
RTVSPost2010Prop52
140
1.0
102
RTVSPost2010PropOp52
 70
     0
102
RTVSPost2010Prop53
 90
        2
102
RTVSPost2010PropOp53
 70
     0
102
RTVSPost2010Prop54
  1
strokes_ogs.tif
102
RTVSPost2010PropOp54
 70
     0
102
RTVSPost2010Prop55
280
     0
102
RTVSPost2010PropOp55
 70
     0
102
RTVSPost2010Prop56
140
1.0
102
RTVSPost2010PropOp56
 70
     0
102
RTVSPost2010Prop57
140
1.0
102
RTVSPost2010PropOp57
 70
     0
102
RTVSPropertyOp0
 70
     0
102
RTVSPropertyOp1
 70
     0
102
RTVSPropertyOp2
 70
     0
102
RTVSPropertyOp3
 70
     0
102
RTVSPropertyOp4
 70
     0
102
RTVSPropertyOp5
 70
     0
102
RTVSPropertyOp6
 70
     0
102
RTVSPropertyOp7
 70
     0
102
RTVSPropertyOp8
 70
     0
102
RTVSPropertyOp9
 70
     0
102
RTVSPropertyOp10
 70
     0
102
RTVSPropertyOp11
 70
     0
102
RTVSPropertyOp12
 70
     0
102
RTVSPropertyOp13
 70
     0
102
RTVSPropertyOp14
 70
     2
102
RTVSPropertyOp15
 70
     0
102
RTVSPropertyOp16
 70
     0
102
RTVSPropertyOp17
 70
     0
102
RTVSPropertyOp18
 70
     0
102
RTVSPropertyOp19
 70
     0
102
RTVSPropertyOp20
 70
     0
102
RTVSPropertyOp21
 70
     0
102
RTVSPropertyOp22
 70
     0
102
RTVSPropertyOp23
 70
     0
102
RTVSPropertyOp24
 70
     0
102
RTVSPropertyOp25
 70
     0
102
RTVSPropertyOp26
 70
     0
102
RTVSPropertyOp27
 70
     0
102
RTVSPropertyOp28
 70
     0
102
RTVSPropertyOp29
 70
     0
102
RTVSPropertyOp30
 70
     0
102
RTVSPropertyOp31
 70
     0
102
RTVSPropertyOp32
 70
     0
102
RTVSPropertyOp33
 70
     0
102
RTVSPropertyOp34
 70
     0
102
RTVSPropertyOp35
 70
     0
102
RTVSPropertyOp36
 70
     0
102
RTVSPropertyOp37
 70
     0
102
RTVSPropertyOp38
 70
     0
102
RTVSPropertyOp39
 70
     0
102
RTVSPropertyOp40
 70
     0
102
RTVSPropertyOp41
 70
     0
102
RTVSPropertyOp42
 70
     0
102
RTVSPropertyOp43
 70
     0
102
RTVSPropertyOp44
 70
     0
102
RTVSPropertyOp45
 70
     0
102
RTVSPropertyOp46
 70
     0
102
RTVSPropertyOp47
 70
     0
102
RTVSPropertyOp48
 70
     0
102
RTVSPropertyOp49
 70
     0
102
RTVSPropertyOp50
 70
     0
102
RTVSPropertyOp51
 70
     0
102
RTVSPropertyOp52
 70
     0
102
RTVSPropertyOp53
 70
     0
102
RTVSPropertyOp54
 70
     0
102
RTVSPropertyOp55
 70
     0
102
RTVSPropertyOp56
 70
     0
102
RTVSPropertyOp57
 70
     0
102
RTVSPropertyOp58
 70
     1
102
RTVSPropertyOp59
 70
     1
102
RTVSPropertyOp60
 70
     1
102
RTVSPropertyOp61
 70
     1
102
RTVSPropertyOp62
 70
     1
  0
XRECORD
  5
2E1A5
102
{ACAD_REACTORS
330
2E1A4
102
}
330
2E1A4
100
AcDbXrecord
280
     1
102
RTVSPost2010Prop28
280
     0
102
RTVSPost2010PropOp28
 70
     1
102
RTVSPost2010Prop29
280
     1
102
RTVSPost2010PropOp29
 70
     1
102
RTVSPost2010Prop30
280
     1
102
RTVSPost2010PropOp30
 70
     1
102
RTVSPost2010Prop31
280
     0
102
RTVSPost2010PropOp31
 70
     1
102
RTVSPost2010Prop32
280
     0
102
RTVSPost2010PropOp32
 70
     1
102
RTVSPost2010Prop33
280
     0
102
RTVSPost2010PropOp33
 70
     1
102
RTVSPost2010Prop34
280
     0
102
RTVSPost2010PropOp34
 70
     1
102
RTVSPost2010Prop35
280
     0
102
RTVSPost2010PropOp35
 70
     1
102
RTVSPost2010Prop36
280
     0
102
RTVSPost2010PropOp36
 70
     1
102
RTVSPost2010Prop37
 90
       50
102
RTVSPost2010PropOp37
 70
     1
102
RTVSPost2010Prop38
140
0.0
102
RTVSPost2010PropOp38
 70
     1
102
RTVSPost2010Prop39
140
1.0
102
RTVSPost2010PropOp39
 70
     1
102
RTVSPost2010Prop40
 90
        0
102
RTVSPost2010PropOp40
 70
     1
102
RTVSPost2010Prop41ColorIndex
 90
       18
102
RTVSPost2010Prop41ColorRGB
 90
        0
102
RTVSPost2010PropOp41
 70
     1
102
RTVSPost2010Prop42
 90
       50
102
RTVSPost2010PropOp42
 70
     1
102
RTVSPost2010Prop43
 90
        3
102
RTVSPost2010PropOp43
 70
     1
102
RTVSPost2010Prop44ColorIndex
 90
        5
102
RTVSPost2010Prop44ColorRGB
 90
      255
102
RTVSPost2010PropOp44
 70
     1
102
RTVSPost2010Prop45
280
     0
102
RTVSPost2010PropOp45
 70
     1
102
RTVSPost2010Prop46
 90
       50
102
RTVSPost2010PropOp46
 70
     1
102
RTVSPost2010Prop47
 90
       50
102
RTVSPost2010PropOp47
 70
     1
102
RTVSPost2010Prop48
 90
       50
102
RTVSPost2010PropOp48
 70
     1
102
RTVSPost2010Prop49
280
     0
102
RTVSPost2010PropOp49
 70
     1
102
RTVSPost2010Prop50
 90
       50
102
RTVSPost2010PropOp50
 70
     1
102
RTVSPost2010Prop51ColorIndex
 90
      256
102
RTVSPost2010Prop51ColorRGB
 90
-16777216
102
RTVSPost2010PropOp51
 70
     0
102
RTVSPost2010Prop52
140
1.0
102
RTVSPost2010PropOp52
 70
     0
102
RTVSPost2010Prop53
 90
        2
102
RTVSPost2010PropOp53
 70
     1
102
RTVSPost2010Prop54
  1
strokes_ogs.tif
102
RTVSPost2010PropOp54
 70
     1
102
RTVSPost2010Prop55
280
     0
102
RTVSPost2010PropOp55
 70
     1
102
RTVSPost2010Prop56
140
1.0
102
RTVSPost2010PropOp56
 70
     1
102
RTVSPost2010Prop57
140
1.0
102
RTVSPost2010PropOp57
 70
     1
102
RTVSPropertyOp0
 70
     1
102
RTVSPropertyOp1
 70
     1
102
RTVSPropertyOp2
 70
     1
102
RTVSPropertyOp3
 70
     1
102
RTVSPropertyOp4
 70
     1
102
RTVSPropertyOp5
 70
     1
102
RTVSPropertyOp6
 70
     1
102
RTVSPropertyOp7
 70
     1
102
RTVSPropertyOp8
 70
     1
102
RTVSPropertyOp9
 70
     1
102
RTVSPropertyOp10
 70
     1
102
RTVSPropertyOp11
 70
     1
102
RTVSPropertyOp12
 70
     1
102
RTVSPropertyOp13
 70
     1
102
RTVSPropertyOp14
 70
     1
102
RTVSPropertyOp15
 70
     1
102
RTVSPropertyOp16
 70
     1
102
RTVSPropertyOp17
 70
     1
102
RTVSPropertyOp18
 70
     1
102
RTVSPropertyOp19
 70
     1
102
RTVSPropertyOp20
 70
     1
102
RTVSPropertyOp21
 70
     1
102
RTVSPropertyOp22
 70
     1
102
RTVSPropertyOp23
 70
     1
102
RTVSPropertyOp24
 70
     1
102
RTVSPropertyOp25
 70
     1
102
RTVSPropertyOp26
 70
     1
102
RTVSPropertyOp27
 70
     1
102
RTVSPropertyOp28
 70
     1
102
RTVSPropertyOp29
 70
     1
102
RTVSPropertyOp30
 70
     1
102
RTVSPropertyOp31
 70
     1
102
RTVSPropertyOp32
 70
     1
102
RTVSPropertyOp33
 70
     1
102
RTVSPropertyOp34
 70
     1
102
RTVSPropertyOp35
 70
     1
102
RTVSPropertyOp36
 70
     1
102
RTVSPropertyOp37
 70
     1
102
RTVSPropertyOp38
 70
     1
102
RTVSPropertyOp39
 70
     1
102
RTVSPropertyOp40
 70
     1
102
RTVSPropertyOp41
 70
     1
102
RTVSPropertyOp42
 70
     1
102
RTVSPropertyOp43
 70
     1
102
RTVSPropertyOp44
 70
     1
102
RTVSPropertyOp45
 70
     1
102
RTVSPropertyOp46
 70
     1
102
RTVSPropertyOp47
 70
     1
102
RTVSPropertyOp48
 70
     1
102
RTVSPropertyOp49
 70
     1
102
RTVSPropertyOp50
 70
     1
102
RTVSPropertyOp51
 70
     0
102
RTVSPropertyOp52
 70
     0
102
RTVSPropertyOp53
 70
     1
102
RTVSPropertyOp54
 70
     1
102
RTVSPropertyOp55
 70
     1
102
RTVSPropertyOp56
 70
     1
102
RTVSPropertyOp57
 70
     1
102
RTVSPropertyOp58
 70
     1
102
RTVSPropertyOp59
 70
     1
102
RTVSPropertyOp60
 70
     1
102
RTVSPropertyOp61
 70
     1
102
RTVSPropertyOp62
 70
     1
  0
XRECORD
  5
2E1C3
102
{ACAD_REACTORS
330
2E1C2
102
}
330
2E1C2
100
AcDbXrecord
280
     1
102
RTVSPost2010Prop28
280
     0
102
RTVSPost2010PropOp28
 70
     1
102
RTVSPost2010Prop29
280
     1
102
RTVSPost2010PropOp29
 70
     1
102
RTVSPost2010Prop30
280
     1
102
RTVSPost2010PropOp30
 70
     1
102
RTVSPost2010Prop31
280
     0
102
RTVSPost2010PropOp31
 70
     1
102
RTVSPost2010Prop32
280
     0
102
RTVSPost2010PropOp32
 70
     1
102
RTVSPost2010Prop33
280
     0
102
RTVSPost2010PropOp33
 70
     1
102
RTVSPost2010Prop34
280
     0
102
RTVSPost2010PropOp34
 70
     1
102
RTVSPost2010Prop35
280
     0
102
RTVSPost2010PropOp35
 70
     1
102
RTVSPost2010Prop36
280
     0
102
RTVSPost2010PropOp36
 70
     1
102
RTVSPost2010Prop37
 90
       50
102
RTVSPost2010PropOp37
 70
     1
102
RTVSPost2010Prop38
140
0.0
102
RTVSPost2010PropOp38
 70
     1
102
RTVSPost2010Prop39
140
1.0
102
RTVSPost2010PropOp39
 70
     1
102
RTVSPost2010Prop40
 90
        0
102
RTVSPost2010PropOp40
 70
     1
102
RTVSPost2010Prop41ColorIndex
 90
       18
102
RTVSPost2010Prop41ColorRGB
 90
        0
102
RTVSPost2010PropOp41
 70
     1
102
RTVSPost2010Prop42
 90
       50
102
RTVSPost2010PropOp42
 70
     1
102
RTVSPost2010Prop43
 90
        3
102
RTVSPost2010PropOp43
 70
     1
102
RTVSPost2010Prop44ColorIndex
 90
        5
102
RTVSPost2010Prop44ColorRGB
 90
      255
102
RTVSPost2010PropOp44
 70
     1
102
RTVSPost2010Prop45
280
     0
102
RTVSPost2010PropOp45
 70
     1
102
RTVSPost2010Prop46
 90
       50
102
RTVSPost2010PropOp46
 70
     1
102
RTVSPost2010Prop47
 90
       50
102
RTVSPost2010PropOp47
 70
     1
102
RTVSPost2010Prop48
 90
       50
102
RTVSPost2010PropOp48
 70
     1
102
RTVSPost2010Prop49
280
     0
102
RTVSPost2010PropOp49
 70
     1
102
RTVSPost2010Prop50
 90
       50
102
RTVSPost2010PropOp50
 70
     1
102
RTVSPost2010Prop51ColorIndex
 90
      256
102
RTVSPost2010Prop51ColorRGB
 90
-16777216
102
RTVSPost2010PropOp51
 70
     0
102
RTVSPost2010Prop52
140
1.0
102
RTVSPost2010PropOp52
 70
     0
102
RTVSPost2010Prop53
 90
        2
102
RTVSPost2010PropOp53
 70
     1
102
RTVSPost2010Prop54
  1
strokes_ogs.tif
102
RTVSPost2010PropOp54
 70
     1
102
RTVSPost2010Prop55
280
     0
102
RTVSPost2010PropOp55
 70
     1
102
RTVSPost2010Prop56
140
1.0
102
RTVSPost2010PropOp56
 70
     1
102
RTVSPost2010Prop57
140
1.0
102
RTVSPost2010PropOp57
 70
     1
102
RTVSPropertyOp0
 70
     1
102
RTVSPropertyOp1
 70
     1
102
RTVSPropertyOp2
 70
     1
102
RTVSPropertyOp3
 70
     1
102
RTVSPropertyOp4
 70
     1
102
RTVSPropertyOp5
 70
     1
102
RTVSPropertyOp6
 70
     1
102
RTVSPropertyOp7
 70
     1
102
RTVSPropertyOp8
 70
     1
102
RTVSPropertyOp9
 70
     1
102
RTVSPropertyOp10
 70
     1
102
RTVSPropertyOp11
 70
     1
102
RTVSPropertyOp12
 70
     1
102
RTVSPropertyOp13
 70
     1
102
RTVSPropertyOp14
 70
     1
102
RTVSPropertyOp15
 70
     1
102
RTVSPropertyOp16
 70
     1
102
RTVSPropertyOp17
 70
     1
102
RTVSPropertyOp18
 70
     1
102
RTVSPropertyOp19
 70
     1
102
RTVSPropertyOp20
 70
     1
102
RTVSPropertyOp21
 70
     1
102
RTVSPropertyOp22
 70
     1
102
RTVSPropertyOp23
 70
     1
102
RTVSPropertyOp24
 70
     1
102
RTVSPropertyOp25
 70
     1
102
RTVSPropertyOp26
 70
     1
102
RTVSPropertyOp27
 70
     1
102
RTVSPropertyOp28
 70
     1
102
RTVSPropertyOp29
 70
     1
102
RTVSPropertyOp30
 70
     1
102
RTVSPropertyOp31
 70
     1
102
RTVSPropertyOp32
 70
     1
102
RTVSPropertyOp33
 70
     1
102
RTVSPropertyOp34
 70
     1
102
RTVSPropertyOp35
 70
     1
102
RTVSPropertyOp36
 70
     1
102
RTVSPropertyOp37
 70
     1
102
RTVSPropertyOp38
 70
     1
102
RTVSPropertyOp39
 70
     1
102
RTVSPropertyOp40
 70
     1
102
RTVSPropertyOp41
 70
     1
102
RTVSPropertyOp42
 70
     1
102
RTVSPropertyOp43
 70
     1
102
RTVSPropertyOp44
 70
     1
102
RTVSPropertyOp45
 70
     1
102
RTVSPropertyOp46
 70
     1
102
RTVSPropertyOp47
 70
     1
102
RTVSPropertyOp48
 70
     1
102
RTVSPropertyOp49
 70
     1
102
RTVSPropertyOp50
 70
     1
102
RTVSPropertyOp51
 70
     0
102
RTVSPropertyOp52
 70
     0
102
RTVSPropertyOp53
 70
     1
102
RTVSPropertyOp54
 70
     1
102
RTVSPropertyOp55
 70
     1
102
RTVSPropertyOp56
 70
     1
102
RTVSPropertyOp57
 70
     1
102
RTVSPropertyOp58
 70
     1
102
RTVSPropertyOp59
 70
     1
102
RTVSPropertyOp60
 70
     1
102
RTVSPropertyOp61
 70
     1
102
RTVSPropertyOp62
 70
     1
  0
XRECORD
  5
2E1C1
102
{ACAD_REACTORS
330
2E1C0
102
}
330
2E1C0
100
AcDbXrecord
280
     1
102
RTVSPost2010Prop28
280
     0
102
RTVSPost2010PropOp28
 70
     1
102
RTVSPost2010Prop29
280
     1
102
RTVSPost2010PropOp29
 70
     1
102
RTVSPost2010Prop30
280
     1
102
RTVSPost2010PropOp30
 70
     1
102
RTVSPost2010Prop31
280
     0
102
RTVSPost2010PropOp31
 70
     1
102
RTVSPost2010Prop32
280
     0
102
RTVSPost2010PropOp32
 70
     1
102
RTVSPost2010Prop33
280
     0
102
RTVSPost2010PropOp33
 70
     1
102
RTVSPost2010Prop34
280
     0
102
RTVSPost2010PropOp34
 70
     1
102
RTVSPost2010Prop35
280
     0
102
RTVSPost2010PropOp35
 70
     1
102
RTVSPost2010Prop36
280
     0
102
RTVSPost2010PropOp36
 70
     1
102
RTVSPost2010Prop37
 90
       50
102
RTVSPost2010PropOp37
 70
     1
102
RTVSPost2010Prop38
140
0.0
102
RTVSPost2010PropOp38
 70
     1
102
RTVSPost2010Prop39
140
1.0
102
RTVSPost2010PropOp39
 70
     1
102
RTVSPost2010Prop40
 90
        0
102
RTVSPost2010PropOp40
 70
     1
102
RTVSPost2010Prop41ColorIndex
 90
       18
102
RTVSPost2010Prop41ColorRGB
 90
        0
102
RTVSPost2010PropOp41
 70
     1
102
RTVSPost2010Prop42
 90
       50
102
RTVSPost2010PropOp42
 70
     1
102
RTVSPost2010Prop43
 90
        3
102
RTVSPost2010PropOp43
 70
     1
102
RTVSPost2010Prop44ColorIndex
 90
        5
102
RTVSPost2010Prop44ColorRGB
 90
      255
102
RTVSPost2010PropOp44
 70
     1
102
RTVSPost2010Prop45
280
     0
102
RTVSPost2010PropOp45
 70
     1
102
RTVSPost2010Prop46
 90
       50
102
RTVSPost2010PropOp46
 70
     1
102
RTVSPost2010Prop47
 90
       50
102
RTVSPost2010PropOp47
 70
     1
102
RTVSPost2010Prop48
 90
       50
102
RTVSPost2010PropOp48
 70
     1
102
RTVSPost2010Prop49
280
     0
102
RTVSPost2010PropOp49
 70
     1
102
RTVSPost2010Prop50
 90
       50
102
RTVSPost2010PropOp50
 70
     1
102
RTVSPost2010Prop51ColorIndex
 90
      256
102
RTVSPost2010Prop51ColorRGB
 90
-16777216
102
RTVSPost2010PropOp51
 70
     0
102
RTVSPost2010Prop52
140
1.0
102
RTVSPost2010PropOp52
 70
     0
102
RTVSPost2010Prop53
 90
        2
102
RTVSPost2010PropOp53
 70
     1
102
RTVSPost2010Prop54
  1
strokes_ogs.tif
102
RTVSPost2010PropOp54
 70
     1
102
RTVSPost2010Prop55
280
     0
102
RTVSPost2010PropOp55
 70
     1
102
RTVSPost2010Prop56
140
1.0
102
RTVSPost2010PropOp56
 70
     1
102
RTVSPost2010Prop57
140
1.0
102
RTVSPost2010PropOp57
 70
     1
102
RTVSPropertyOp0
 70
     1
102
RTVSPropertyOp1
 70
     1
102
RTVSPropertyOp2
 70
     1
102
RTVSPropertyOp3
 70
     1
102
RTVSPropertyOp4
 70
     1
102
RTVSPropertyOp5
 70
     1
102
RTVSPropertyOp6
 70
     1
102
RTVSPropertyOp7
 70
     1
102
RTVSPropertyOp8
 70
     1
102
RTVSPropertyOp9
 70
     1
102
RTVSPropertyOp10
 70
     1
102
RTVSPropertyOp11
 70
     1
102
RTVSPropertyOp12
 70
     1
102
RTVSPropertyOp13
 70
     1
102
RTVSPropertyOp14
 70
     1
102
RTVSPropertyOp15
 70
     1
102
RTVSPropertyOp16
 70
     1
102
RTVSPropertyOp17
 70
     1
102
RTVSPropertyOp18
 70
     1
102
RTVSPropertyOp19
 70
     1
102
RTVSPropertyOp20
 70
     1
102
RTVSPropertyOp21
 70
     1
102
RTVSPropertyOp22
 70
     1
102
RTVSPropertyOp23
 70
     1
102
RTVSPropertyOp24
 70
     1
102
RTVSPropertyOp25
 70
     1
102
RTVSPropertyOp26
 70
     1
102
RTVSPropertyOp27
 70
     1
102
RTVSPropertyOp28
 70
     1
102
RTVSPropertyOp29
 70
     1
102
RTVSPropertyOp30
 70
     1
102
RTVSPropertyOp31
 70
     1
102
RTVSPropertyOp32
 70
     1
102
RTVSPropertyOp33
 70
     1
102
RTVSPropertyOp34
 70
     1
102
RTVSPropertyOp35
 70
     1
102
RTVSPropertyOp36
 70
     1
102
RTVSPropertyOp37
 70
     1
102
RTVSPropertyOp38
 70
     1
102
RTVSPropertyOp39
 70
     1
102
RTVSPropertyOp40
 70
     1
102
RTVSPropertyOp41
 70
     1
102
RTVSPropertyOp42
 70
     1
102
RTVSPropertyOp43
 70
     1
102
RTVSPropertyOp44
 70
     1
102
RTVSPropertyOp45
 70
     1
102
RTVSPropertyOp46
 70
     1
102
RTVSPropertyOp47
 70
     1
102
RTVSPropertyOp48
 70
     1
102
RTVSPropertyOp49
 70
     1
102
RTVSPropertyOp50
 70
     1
102
RTVSPropertyOp51
 70
     0
102
RTVSPropertyOp52
 70
     0
102
RTVSPropertyOp53
 70
     1
102
RTVSPropertyOp54
 70
     1
102
RTVSPropertyOp55
 70
     1
102
RTVSPropertyOp56
 70
     1
102
RTVSPropertyOp57
 70
     1
102
RTVSPropertyOp58
 70
     1
102
RTVSPropertyOp59
 70
     1
102
RTVSPropertyOp60
 70
     1
102
RTVSPropertyOp61
 70
     1
102
RTVSPropertyOp62
 70
     1
  0
XRECORD
  5
2E1BB
102
{ACAD_REACTORS
330
2E1BA
102
}
330
2E1BA
100
AcDbXrecord
280
     1
102
RTVSPost2010Prop28
280
     0
102
RTVSPost2010PropOp28
 70
     1
102
RTVSPost2010Prop29
280
     1
102
RTVSPost2010PropOp29
 70
     1
102
RTVSPost2010Prop30
280
     1
102
RTVSPost2010PropOp30
 70
     1
102
RTVSPost2010Prop31
280
     0
102
RTVSPost2010PropOp31
 70
     1
102
RTVSPost2010Prop32
280
     0
102
RTVSPost2010PropOp32
 70
     1
102
RTVSPost2010Prop33
280
     0
102
RTVSPost2010PropOp33
 70
     1
102
RTVSPost2010Prop34
280
     0
102
RTVSPost2010PropOp34
 70
     1
102
RTVSPost2010Prop35
280
     0
102
RTVSPost2010PropOp35
 70
     1
102
RTVSPost2010Prop36
280
     0
102
RTVSPost2010PropOp36
 70
     1
102
RTVSPost2010Prop37
 90
       50
102
RTVSPost2010PropOp37
 70
     1
102
RTVSPost2010Prop38
140
0.0
102
RTVSPost2010PropOp38
 70
     1
102
RTVSPost2010Prop39
140
1.0
102
RTVSPost2010PropOp39
 70
     1
102
RTVSPost2010Prop40
 90
        0
102
RTVSPost2010PropOp40
 70
     1
102
RTVSPost2010Prop41ColorIndex
 90
       18
102
RTVSPost2010Prop41ColorRGB
 90
        0
102
RTVSPost2010PropOp41
 70
     1
102
RTVSPost2010Prop42
 90
       50
102
RTVSPost2010PropOp42
 70
     1
102
RTVSPost2010Prop43
 90
        3
102
RTVSPost2010PropOp43
 70
     1
102
RTVSPost2010Prop44ColorIndex
 90
        5
102
RTVSPost2010Prop44ColorRGB
 90
      255
102
RTVSPost2010PropOp44
 70
     1
102
RTVSPost2010Prop45
280
     0
102
RTVSPost2010PropOp45
 70
     1
102
RTVSPost2010Prop46
 90
       50
102
RTVSPost2010PropOp46
 70
     1
102
RTVSPost2010Prop47
 90
       50
102
RTVSPost2010PropOp47
 70
     1
102
RTVSPost2010Prop48
 90
       50
102
RTVSPost2010PropOp48
 70
     1
102
RTVSPost2010Prop49
280
     0
102
RTVSPost2010PropOp49
 70
     1
102
RTVSPost2010Prop50
 90
       50
102
RTVSPost2010PropOp50
 70
     1
102
RTVSPost2010Prop51ColorIndex
 90
      256
102
RTVSPost2010Prop51ColorRGB
 90
-16777216
102
RTVSPost2010PropOp51
 70
     0
102
RTVSPost2010Prop52
140
1.0
102
RTVSPost2010PropOp52
 70
     0
102
RTVSPost2010Prop53
 90
        2
102
RTVSPost2010PropOp53
 70
     1
102
RTVSPost2010Prop54
  1
strokes_ogs.tif
102
RTVSPost2010PropOp54
 70
     1
102
RTVSPost2010Prop55
280
     0
102
RTVSPost2010PropOp55
 70
     1
102
RTVSPost2010Prop56
140
1.0
102
RTVSPost2010PropOp56
 70
     1
102
RTVSPost2010Prop57
140
1.0
102
RTVSPost2010PropOp57
 70
     1
102
RTVSPropertyOp0
 70
     1
102
RTVSPropertyOp1
 70
     1
102
RTVSPropertyOp2
 70
     1
102
RTVSPropertyOp3
 70
     1
102
RTVSPropertyOp4
 70
     1
102
RTVSPropertyOp5
 70
     1
102
RTVSPropertyOp6
 70
     1
102
RTVSPropertyOp7
 70
     1
102
RTVSPropertyOp8
 70
     1
102
RTVSPropertyOp9
 70
     1
102
RTVSPropertyOp10
 70
     1
102
RTVSPropertyOp11
 70
     1
102
RTVSPropertyOp12
 70
     1
102
RTVSPropertyOp13
 70
     1
102
RTVSPropertyOp14
 70
     1
102
RTVSPropertyOp15
 70
     1
102
RTVSPropertyOp16
 70
     1
102
RTVSPropertyOp17
 70
     1
102
RTVSPropertyOp18
 70
     1
102
RTVSPropertyOp19
 70
     1
102
RTVSPropertyOp20
 70
     1
102
RTVSPropertyOp21
 70
     1
102
RTVSPropertyOp22
 70
     1
102
RTVSPropertyOp23
 70
     1
102
RTVSPropertyOp24
 70
     1
102
RTVSPropertyOp25
 70
     1
102
RTVSPropertyOp26
 70
     1
102
RTVSPropertyOp27
 70
     1
102
RTVSPropertyOp28
 70
     1
102
RTVSPropertyOp29
 70
     1
102
RTVSPropertyOp30
 70
     1
102
RTVSPropertyOp31
 70
     1
102
RTVSPropertyOp32
 70
     1
102
RTVSPropertyOp33
 70
     1
102
RTVSPropertyOp34
 70
     1
102
RTVSPropertyOp35
 70
     1
102
RTVSPropertyOp36
 70
     1
102
RTVSPropertyOp37
 70
     1
102
RTVSPropertyOp38
 70
     1
102
RTVSPropertyOp39
 70
     1
102
RTVSPropertyOp40
 70
     1
102
RTVSPropertyOp41
 70
     1
102
RTVSPropertyOp42
 70
     1
102
RTVSPropertyOp43
 70
     1
102
RTVSPropertyOp44
 70
     1
102
RTVSPropertyOp45
 70
     1
102
RTVSPropertyOp46
 70
     1
102
RTVSPropertyOp47
 70
     1
102
RTVSPropertyOp48
 70
     1
102
RTVSPropertyOp49
 70
     1
102
RTVSPropertyOp50
 70
     1
102
RTVSPropertyOp51
 70
     0
102
RTVSPropertyOp52
 70
     0
102
RTVSPropertyOp53
 70
     1
102
RTVSPropertyOp54
 70
     1
102
RTVSPropertyOp55
 70
     1
102
RTVSPropertyOp56
 70
     1
102
RTVSPropertyOp57
 70
     1
102
RTVSPropertyOp58
 70
     1
102
RTVSPropertyOp59
 70
     1
102
RTVSPropertyOp60
 70
     1
102
RTVSPropertyOp61
 70
     1
102
RTVSPropertyOp62
 70
     1
  0
XRECORD
  5
2E1BD
102
{ACAD_REACTORS
330
2E1BC
102
}
330
2E1BC
100
AcDbXrecord
280
     1
102
RTVSPost2010Prop28
280
     0
102
RTVSPost2010PropOp28
 70
     1
102
RTVSPost2010Prop29
280
     1
102
RTVSPost2010PropOp29
 70
     1
102
RTVSPost2010Prop30
280
     1
102
RTVSPost2010PropOp30
 70
     1
102
RTVSPost2010Prop31
280
     0
102
RTVSPost2010PropOp31
 70
     1
102
RTVSPost2010Prop32
280
     0
102
RTVSPost2010PropOp32
 70
     1
102
RTVSPost2010Prop33
280
     0
102
RTVSPost2010PropOp33
 70
     1
102
RTVSPost2010Prop34
280
     0
102
RTVSPost2010PropOp34
 70
     1
102
RTVSPost2010Prop35
280
     0
102
RTVSPost2010PropOp35
 70
     1
102
RTVSPost2010Prop36
280
     0
102
RTVSPost2010PropOp36
 70
     1
102
RTVSPost2010Prop37
 90
       50
102
RTVSPost2010PropOp37
 70
     1
102
RTVSPost2010Prop38
140
0.0
102
RTVSPost2010PropOp38
 70
     1
102
RTVSPost2010Prop39
140
1.0
102
RTVSPost2010PropOp39
 70
     1
102
RTVSPost2010Prop40
 90
        0
102
RTVSPost2010PropOp40
 70
     1
102
RTVSPost2010Prop41ColorIndex
 90
       18
102
RTVSPost2010Prop41ColorRGB
 90
        0
102
RTVSPost2010PropOp41
 70
     1
102
RTVSPost2010Prop42
 90
       50
102
RTVSPost2010PropOp42
 70
     1
102
RTVSPost2010Prop43
 90
        3
102
RTVSPost2010PropOp43
 70
     1
102
RTVSPost2010Prop44ColorIndex
 90
        5
102
RTVSPost2010Prop44ColorRGB
 90
      255
102
RTVSPost2010PropOp44
 70
     1
102
RTVSPost2010Prop45
280
     0
102
RTVSPost2010PropOp45
 70
     1
102
RTVSPost2010Prop46
 90
       50
102
RTVSPost2010PropOp46
 70
     1
102
RTVSPost2010Prop47
 90
       50
102
RTVSPost2010PropOp47
 70
     1
102
RTVSPost2010Prop48
 90
       50
102
RTVSPost2010PropOp48
 70
     1
102
RTVSPost2010Prop49
280
     0
102
RTVSPost2010PropOp49
 70
     1
102
RTVSPost2010Prop50
 90
       50
102
RTVSPost2010PropOp50
 70
     1
102
RTVSPost2010Prop51ColorIndex
 90
      256
102
RTVSPost2010Prop51ColorRGB
 90
-16777216
102
RTVSPost2010PropOp51
 70
     0
102
RTVSPost2010Prop52
140
1.0
102
RTVSPost2010PropOp52
 70
     0
102
RTVSPost2010Prop53
 90
        2
102
RTVSPost2010PropOp53
 70
     1
102
RTVSPost2010Prop54
  1
strokes_ogs.tif
102
RTVSPost2010PropOp54
 70
     1
102
RTVSPost2010Prop55
280
     0
102
RTVSPost2010PropOp55
 70
     1
102
RTVSPost2010Prop56
140
1.0
102
RTVSPost2010PropOp56
 70
     1
102
RTVSPost2010Prop57
140
1.0
102
RTVSPost2010PropOp57
 70
     1
102
RTVSPropertyOp0
 70
     1
102
RTVSPropertyOp1
 70
     1
102
RTVSPropertyOp2
 70
     1
102
RTVSPropertyOp3
 70
     1
102
RTVSPropertyOp4
 70
     1
102
RTVSPropertyOp5
 70
     1
102
RTVSPropertyOp6
 70
     1
102
RTVSPropertyOp7
 70
     1
102
RTVSPropertyOp8
 70
     1
102
RTVSPropertyOp9
 70
     1
102
RTVSPropertyOp10
 70
     1
102
RTVSPropertyOp11
 70
     1
102
RTVSPropertyOp12
 70
     1
102
RTVSPropertyOp13
 70
     1
102
RTVSPropertyOp14
 70
     1
102
RTVSPropertyOp15
 70
     1
102
RTVSPropertyOp16
 70
     1
102
RTVSPropertyOp17
 70
     1
102
RTVSPropertyOp18
 70
     1
102
RTVSPropertyOp19
 70
     1
102
RTVSPropertyOp20
 70
     1
102
RTVSPropertyOp21
 70
     1
102
RTVSPropertyOp22
 70
     1
102
RTVSPropertyOp23
 70
     1
102
RTVSPropertyOp24
 70
     1
102
RTVSPropertyOp25
 70
     1
102
RTVSPropertyOp26
 70
     1
102
RTVSPropertyOp27
 70
     1
102
RTVSPropertyOp28
 70
     1
102
RTVSPropertyOp29
 70
     1
102
RTVSPropertyOp30
 70
     1
102
RTVSPropertyOp31
 70
     1
102
RTVSPropertyOp32
 70
     1
102
RTVSPropertyOp33
 70
     1
102
RTVSPropertyOp34
 70
     1
102
RTVSPropertyOp35
 70
     1
102
RTVSPropertyOp36
 70
     1
102
RTVSPropertyOp37
 70
     1
102
RTVSPropertyOp38
 70
     1
102
RTVSPropertyOp39
 70
     1
102
RTVSPropertyOp40
 70
     1
102
RTVSPropertyOp41
 70
     1
102
RTVSPropertyOp42
 70
     1
102
RTVSPropertyOp43
 70
     1
102
RTVSPropertyOp44
 70
     1
102
RTVSPropertyOp45
 70
     1
102
RTVSPropertyOp46
 70
     1
102
RTVSPropertyOp47
 70
     1
102
RTVSPropertyOp48
 70
     1
102
RTVSPropertyOp49
 70
     1
102
RTVSPropertyOp50
 70
     1
102
RTVSPropertyOp51
 70
     0
102
RTVSPropertyOp52
 70
     0
102
RTVSPropertyOp53
 70
     1
102
RTVSPropertyOp54
 70
     1
102
RTVSPropertyOp55
 70
     1
102
RTVSPropertyOp56
 70
     1
102
RTVSPropertyOp57
 70
     1
102
RTVSPropertyOp58
 70
     1
102
RTVSPropertyOp59
 70
     1
102
RTVSPropertyOp60
 70
     1
102
RTVSPropertyOp61
 70
     1
102
RTVSPropertyOp62
 70
     1
  0
XRECORD
  5
2E1AD
102
{ACAD_REACTORS
330
2E1AC
102
}
330
2E1AC
100
AcDbXrecord
280
     1
102
RTVSPost2010Prop28
280
     0
102
RTVSPost2010PropOp28
 70
     1
102
RTVSPost2010Prop29
280
     1
102
RTVSPost2010PropOp29
 70
     1
102
RTVSPost2010Prop30
280
     1
102
RTVSPost2010PropOp30
 70
     1
102
RTVSPost2010Prop31
280
     0
102
RTVSPost2010PropOp31
 70
     1
102
RTVSPost2010Prop32
280
     0
102
RTVSPost2010PropOp32
 70
     1
102
RTVSPost2010Prop33
280
     0
102
RTVSPost2010PropOp33
 70
     1
102
RTVSPost2010Prop34
280
     0
102
RTVSPost2010PropOp34
 70
     1
102
RTVSPost2010Prop35
280
     0
102
RTVSPost2010PropOp35
 70
     1
102
RTVSPost2010Prop36
280
     0
102
RTVSPost2010PropOp36
 70
     1
102
RTVSPost2010Prop37
 90
       50
102
RTVSPost2010PropOp37
 70
     1
102
RTVSPost2010Prop38
140
0.0
102
RTVSPost2010PropOp38
 70
     1
102
RTVSPost2010Prop39
140
1.0
102
RTVSPost2010PropOp39
 70
     1
102
RTVSPost2010Prop40
 90
        0
102
RTVSPost2010PropOp40
 70
     1
102
RTVSPost2010Prop41ColorIndex
 90
       18
102
RTVSPost2010Prop41ColorRGB
 90
        0
102
RTVSPost2010PropOp41
 70
     1
102
RTVSPost2010Prop42
 90
       50
102
RTVSPost2010PropOp42
 70
     1
102
RTVSPost2010Prop43
 90
        3
102
RTVSPost2010PropOp43
 70
     1
102
RTVSPost2010Prop44ColorIndex
 90
        5
102
RTVSPost2010Prop44ColorRGB
 90
      255
102
RTVSPost2010PropOp44
 70
     1
102
RTVSPost2010Prop45
280
     0
102
RTVSPost2010PropOp45
 70
     1
102
RTVSPost2010Prop46
 90
       50
102
RTVSPost2010PropOp46
 70
     1
102
RTVSPost2010Prop47
 90
       50
102
RTVSPost2010PropOp47
 70
     1
102
RTVSPost2010Prop48
 90
       50
102
RTVSPost2010PropOp48
 70
     1
102
RTVSPost2010Prop49
280
     0
102
RTVSPost2010PropOp49
 70
     1
102
RTVSPost2010Prop50
 90
       50
102
RTVSPost2010PropOp50
 70
     1
102
RTVSPost2010Prop51ColorIndex
 90
      256
102
RTVSPost2010Prop51ColorRGB
 90
-16777216
102
RTVSPost2010PropOp51
 70
     0
102
RTVSPost2010Prop52
140
1.0
102
RTVSPost2010PropOp52
 70
     0
102
RTVSPost2010Prop53
 90
        2
102
RTVSPost2010PropOp53
 70
     1
102
RTVSPost2010Prop54
  1
strokes_ogs.tif
102
RTVSPost2010PropOp54
 70
     1
102
RTVSPost2010Prop55
280
     0
102
RTVSPost2010PropOp55
 70
     1
102
RTVSPost2010Prop56
140
1.0
102
RTVSPost2010PropOp56
 70
     1
102
RTVSPost2010Prop57
140
1.0
102
RTVSPost2010PropOp57
 70
     1
102
RTVSPropertyOp0
 70
     1
102
RTVSPropertyOp1
 70
     1
102
RTVSPropertyOp2
 70
     1
102
RTVSPropertyOp3
 70
     1
102
RTVSPropertyOp4
 70
     1
102
RTVSPropertyOp5
 70
     1
102
RTVSPropertyOp6
 70
     1
102
RTVSPropertyOp7
 70
     1
102
RTVSPropertyOp8
 70
     1
102
RTVSPropertyOp9
 70
     1
102
RTVSPropertyOp10
 70
     1
102
RTVSPropertyOp11
 70
     1
102
RTVSPropertyOp12
 70
     1
102
RTVSPropertyOp13
 70
     1
102
RTVSPropertyOp14
 70
     1
102
RTVSPropertyOp15
 70
     1
102
RTVSPropertyOp16
 70
     1
102
RTVSPropertyOp17
 70
     1
102
RTVSPropertyOp18
 70
     1
102
RTVSPropertyOp19
 70
     1
102
RTVSPropertyOp20
 70
     1
102
RTVSPropertyOp21
 70
     1
102
RTVSPropertyOp22
 70
     1
102
RTVSPropertyOp23
 70
     1
102
RTVSPropertyOp24
 70
     1
102
RTVSPropertyOp25
 70
     1
102
RTVSPropertyOp26
 70
     1
102
RTVSPropertyOp27
 70
     1
102
RTVSPropertyOp28
 70
     1
102
RTVSPropertyOp29
 70
     1
102
RTVSPropertyOp30
 70
     1
102
RTVSPropertyOp31
 70
     1
102
RTVSPropertyOp32
 70
     1
102
RTVSPropertyOp33
 70
     1
102
RTVSPropertyOp34
 70
     1
102
RTVSPropertyOp35
 70
     1
102
RTVSPropertyOp36
 70
     1
102
RTVSPropertyOp37
 70
     1
102
RTVSPropertyOp38
 70
     1
102
RTVSPropertyOp39
 70
     1
102
RTVSPropertyOp40
 70
     1
102
RTVSPropertyOp41
 70
     1
102
RTVSPropertyOp42
 70
     1
102
RTVSPropertyOp43
 70
     1
102
RTVSPropertyOp44
 70
     1
102
RTVSPropertyOp45
 70
     1
102
RTVSPropertyOp46
 70
     1
102
RTVSPropertyOp47
 70
     1
102
RTVSPropertyOp48
 70
     1
102
RTVSPropertyOp49
 70
     1
102
RTVSPropertyOp50
 70
     1
102
RTVSPropertyOp51
 70
     0
102
RTVSPropertyOp52
 70
     0
102
RTVSPropertyOp53
 70
     1
102
RTVSPropertyOp54
 70
     1
102
RTVSPropertyOp55
 70
     1
102
RTVSPropertyOp56
 70
     1
102
RTVSPropertyOp57
 70
     1
102
RTVSPropertyOp58
 70
     1
102
RTVSPropertyOp59
 70
     1
102
RTVSPropertyOp60
 70
     1
102
RTVSPropertyOp61
 70
     1
102
RTVSPropertyOp62
 70
     1
  0
XRECORD
  5
2E19F
102
{ACAD_REACTORS
330
2E19E
102
}
330
2E19E
100
AcDbXrecord
280
     1
102
RTVSPost2010Prop28
280
     0
102
RTVSPost2010PropOp28
 70
     1
102
RTVSPost2010Prop29
280
     1
102
RTVSPost2010PropOp29
 70
     1
102
RTVSPost2010Prop30
280
     1
102
RTVSPost2010PropOp30
 70
     1
102
RTVSPost2010Prop31
280
     0
102
RTVSPost2010PropOp31
 70
     1
102
RTVSPost2010Prop32
280
     0
102
RTVSPost2010PropOp32
 70
     1
102
RTVSPost2010Prop33
280
     0
102
RTVSPost2010PropOp33
 70
     1
102
RTVSPost2010Prop34
280
     0
102
RTVSPost2010PropOp34
 70
     1
102
RTVSPost2010Prop35
280
     0
102
RTVSPost2010PropOp35
 70
     1
102
RTVSPost2010Prop36
280
     0
102
RTVSPost2010PropOp36
 70
     1
102
RTVSPost2010Prop37
 90
       50
102
RTVSPost2010PropOp37
 70
     1
102
RTVSPost2010Prop38
140
0.0
102
RTVSPost2010PropOp38
 70
     1
102
RTVSPost2010Prop39
140
1.0
102
RTVSPost2010PropOp39
 70
     1
102
RTVSPost2010Prop40
 90
        0
102
RTVSPost2010PropOp40
 70
     1
102
RTVSPost2010Prop41ColorIndex
 90
       18
102
RTVSPost2010Prop41ColorRGB
 90
        0
102
RTVSPost2010PropOp41
 70
     1
102
RTVSPost2010Prop42
 90
       50
102
RTVSPost2010PropOp42
 70
     1
102
RTVSPost2010Prop43
 90
        3
102
RTVSPost2010PropOp43
 70
     1
102
RTVSPost2010Prop44ColorIndex
 90
        5
102
RTVSPost2010Prop44ColorRGB
 90
      255
102
RTVSPost2010PropOp44
 70
     1
102
RTVSPost2010Prop45
280
     0
102
RTVSPost2010PropOp45
 70
     1
102
RTVSPost2010Prop46
 90
       50
102
RTVSPost2010PropOp46
 70
     1
102
RTVSPost2010Prop47
 90
       50
102
RTVSPost2010PropOp47
 70
     1
102
RTVSPost2010Prop48
 90
       50
102
RTVSPost2010PropOp48
 70
     1
102
RTVSPost2010Prop49
280
     0
102
RTVSPost2010PropOp49
 70
     1
102
RTVSPost2010Prop50
 90
       50
102
RTVSPost2010PropOp50
 70
     1
102
RTVSPost2010Prop51ColorIndex
 90
      256
102
RTVSPost2010Prop51ColorRGB
 90
-16777216
102
RTVSPost2010PropOp51
 70
     0
102
RTVSPost2010Prop52
140
1.0
102
RTVSPost2010PropOp52
 70
     0
102
RTVSPost2010Prop53
 90
        2
102
RTVSPost2010PropOp53
 70
     1
102
RTVSPost2010Prop54
  1
strokes_ogs.tif
102
RTVSPost2010PropOp54
 70
     1
102
RTVSPost2010Prop55
280
     0
102
RTVSPost2010PropOp55
 70
     1
102
RTVSPost2010Prop56
140
1.0
102
RTVSPost2010PropOp56
 70
     1
102
RTVSPost2010Prop57
140
1.0
102
RTVSPost2010PropOp57
 70
     1
102
RTVSPropertyOp0
 70
     1
102
RTVSPropertyOp1
 70
     1
102
RTVSPropertyOp2
 70
     1
102
RTVSPropertyOp3
 70
     1
102
RTVSPropertyOp4
 70
     1
102
RTVSPropertyOp5
 70
     1
102
RTVSPropertyOp6
 70
     1
102
RTVSPropertyOp7
 70
     1
102
RTVSPropertyOp8
 70
     1
102
RTVSPropertyOp9
 70
     1
102
RTVSPropertyOp10
 70
     1
102
RTVSPropertyOp11
 70
     1
102
RTVSPropertyOp12
 70
     1
102
RTVSPropertyOp13
 70
     1
102
RTVSPropertyOp14
 70
     1
102
RTVSPropertyOp15
 70
     1
102
RTVSPropertyOp16
 70
     1
102
RTVSPropertyOp17
 70
     1
102
RTVSPropertyOp18
 70
     1
102
RTVSPropertyOp19
 70
     1
102
RTVSPropertyOp20
 70
     1
102
RTVSPropertyOp21
 70
     1
102
RTVSPropertyOp22
 70
     1
102
RTVSPropertyOp23
 70
     1
102
RTVSPropertyOp24
 70
     1
102
RTVSPropertyOp25
 70
     1
102
RTVSPropertyOp26
 70
     1
102
RTVSPropertyOp27
 70
     1
102
RTVSPropertyOp28
 70
     1
102
RTVSPropertyOp29
 70
     1
102
RTVSPropertyOp30
 70
     1
102
RTVSPropertyOp31
 70
     1
102
RTVSPropertyOp32
 70
     1
102
RTVSPropertyOp33
 70
     1
102
RTVSPropertyOp34
 70
     1
102
RTVSPropertyOp35
 70
     1
102
RTVSPropertyOp36
 70
     1
102
RTVSPropertyOp37
 70
     1
102
RTVSPropertyOp38
 70
     1
102
RTVSPropertyOp39
 70
     1
102
RTVSPropertyOp40
 70
     1
102
RTVSPropertyOp41
 70
     1
102
RTVSPropertyOp42
 70
     1
102
RTVSPropertyOp43
 70
     1
102
RTVSPropertyOp44
 70
     1
102
RTVSPropertyOp45
 70
     1
102
RTVSPropertyOp46
 70
     1
102
RTVSPropertyOp47
 70
     1
102
RTVSPropertyOp48
 70
     1
102
RTVSPropertyOp49
 70
     1
102
RTVSPropertyOp50
 70
     1
102
RTVSPropertyOp51
 70
     0
102
RTVSPropertyOp52
 70
     0
102
RTVSPropertyOp53
 70
     1
102
RTVSPropertyOp54
 70
     1
102
RTVSPropertyOp55
 70
     1
102
RTVSPropertyOp56
 70
     1
102
RTVSPropertyOp57
 70
     1
102
RTVSPropertyOp58
 70
     1
102
RTVSPropertyOp59
 70
     1
102
RTVSPropertyOp60
 70
     1
102
RTVSPropertyOp61
 70
     1
102
RTVSPropertyOp62
 70
     1
  0
XRECORD
  5
2E1BF
102
{ACAD_REACTORS
330
2E1BE
102
}
330
2E1BE
100
AcDbXrecord
280
     1
102
RTVSPost2010Prop28
280
     0
102
RTVSPost2010PropOp28
 70
     1
102
RTVSPost2010Prop29
280
     1
102
RTVSPost2010PropOp29
 70
     1
102
RTVSPost2010Prop30
280
     1
102
RTVSPost2010PropOp30
 70
     1
102
RTVSPost2010Prop31
280
     0
102
RTVSPost2010PropOp31
 70
     1
102
RTVSPost2010Prop32
280
     0
102
RTVSPost2010PropOp32
 70
     1
102
RTVSPost2010Prop33
280
     0
102
RTVSPost2010PropOp33
 70
     1
102
RTVSPost2010Prop34
280
     0
102
RTVSPost2010PropOp34
 70
     1
102
RTVSPost2010Prop35
280
     0
102
RTVSPost2010PropOp35
 70
     1
102
RTVSPost2010Prop36
280
     0
102
RTVSPost2010PropOp36
 70
     1
102
RTVSPost2010Prop37
 90
       50
102
RTVSPost2010PropOp37
 70
     1
102
RTVSPost2010Prop38
140
0.0
102
RTVSPost2010PropOp38
 70
     1
102
RTVSPost2010Prop39
140
1.0
102
RTVSPost2010PropOp39
 70
     1
102
RTVSPost2010Prop40
 90
        0
102
RTVSPost2010PropOp40
 70
     1
102
RTVSPost2010Prop41ColorIndex
 90
       18
102
RTVSPost2010Prop41ColorRGB
 90
        0
102
RTVSPost2010PropOp41
 70
     1
102
RTVSPost2010Prop42
 90
       50
102
RTVSPost2010PropOp42
 70
     1
102
RTVSPost2010Prop43
 90
        3
102
RTVSPost2010PropOp43
 70
     1
102
RTVSPost2010Prop44ColorIndex
 90
        5
102
RTVSPost2010Prop44ColorRGB
 90
      255
102
RTVSPost2010PropOp44
 70
     1
102
RTVSPost2010Prop45
280
     0
102
RTVSPost2010PropOp45
 70
     1
102
RTVSPost2010Prop46
 90
       50
102
RTVSPost2010PropOp46
 70
     1
102
RTVSPost2010Prop47
 90
       50
102
RTVSPost2010PropOp47
 70
     1
102
RTVSPost2010Prop48
 90
       50
102
RTVSPost2010PropOp48
 70
     1
102
RTVSPost2010Prop49
280
     0
102
RTVSPost2010PropOp49
 70
     1
102
RTVSPost2010Prop50
 90
       50
102
RTVSPost2010PropOp50
 70
     1
102
RTVSPost2010Prop51ColorIndex
 90
      256
102
RTVSPost2010Prop51ColorRGB
 90
-16777216
102
RTVSPost2010PropOp51
 70
     0
102
RTVSPost2010Prop52
140
1.0
102
RTVSPost2010PropOp52
 70
     0
102
RTVSPost2010Prop53
 90
        2
102
RTVSPost2010PropOp53
 70
     1
102
RTVSPost2010Prop54
  1
strokes_ogs.tif
102
RTVSPost2010PropOp54
 70
     1
102
RTVSPost2010Prop55
280
     0
102
RTVSPost2010PropOp55
 70
     1
102
RTVSPost2010Prop56
140
1.0
102
RTVSPost2010PropOp56
 70
     1
102
RTVSPost2010Prop57
140
1.0
102
RTVSPost2010PropOp57
 70
     1
102
RTVSPropertyOp0
 70
     1
102
RTVSPropertyOp1
 70
     1
102
RTVSPropertyOp2
 70
     1
102
RTVSPropertyOp3
 70
     1
102
RTVSPropertyOp4
 70
     1
102
RTVSPropertyOp5
 70
     1
102
RTVSPropertyOp6
 70
     1
102
RTVSPropertyOp7
 70
     1
102
RTVSPropertyOp8
 70
     1
102
RTVSPropertyOp9
 70
     1
102
RTVSPropertyOp10
 70
     1
102
RTVSPropertyOp11
 70
     1
102
RTVSPropertyOp12
 70
     1
102
RTVSPropertyOp13
 70
     1
102
RTVSPropertyOp14
 70
     1
102
RTVSPropertyOp15
 70
     1
102
RTVSPropertyOp16
 70
     1
102
RTVSPropertyOp17
 70
     1
102
RTVSPropertyOp18
 70
     1
102
RTVSPropertyOp19
 70
     1
102
RTVSPropertyOp20
 70
     1
102
RTVSPropertyOp21
 70
     1
102
RTVSPropertyOp22
 70
     1
102
RTVSPropertyOp23
 70
     1
102
RTVSPropertyOp24
 70
     1
102
RTVSPropertyOp25
 70
     1
102
RTVSPropertyOp26
 70
     1
102
RTVSPropertyOp27
 70
     1
102
RTVSPropertyOp28
 70
     1
102
RTVSPropertyOp29
 70
     1
102
RTVSPropertyOp30
 70
     1
102
RTVSPropertyOp31
 70
     1
102
RTVSPropertyOp32
 70
     1
102
RTVSPropertyOp33
 70
     1
102
RTVSPropertyOp34
 70
     1
102
RTVSPropertyOp35
 70
     1
102
RTVSPropertyOp36
 70
     1
102
RTVSPropertyOp37
 70
     1
102
RTVSPropertyOp38
 70
     1
102
RTVSPropertyOp39
 70
     1
102
RTVSPropertyOp40
 70
     1
102
RTVSPropertyOp41
 70
     1
102
RTVSPropertyOp42
 70
     1
102
RTVSPropertyOp43
 70
     1
102
RTVSPropertyOp44
 70
     1
102
RTVSPropertyOp45
 70
     1
102
RTVSPropertyOp46
 70
     1
102
RTVSPropertyOp47
 70
     1
102
RTVSPropertyOp48
 70
     1
102
RTVSPropertyOp49
 70
     1
102
RTVSPropertyOp50
 70
     1
102
RTVSPropertyOp51
 70
     0
102
RTVSPropertyOp52
 70
     0
102
RTVSPropertyOp53
 70
     1
102
RTVSPropertyOp54
 70
     1
102
RTVSPropertyOp55
 70
     1
102
RTVSPropertyOp56
 70
     1
102
RTVSPropertyOp57
 70
     1
102
RTVSPropertyOp58
 70
     1
102
RTVSPropertyOp59
 70
     1
102
RTVSPropertyOp60
 70
     1
102
RTVSPropertyOp61
 70
     1
102
RTVSPropertyOp62
 70
     1
  0
ENDSEC
  0
EOF
